  0
SECTION
  2
HEADER
  9
$ACADVER
  1
AC1015
  9
$ACADMAINTVER
 70
    18
  9
$DWGCODEPAGE
  3
ANSI_1252
  9
$INSBASE
 10
0.0
 20
0.0
 30
0.0
  9
$EXTMIN
 10
-201.4700309949345
 20
-394.8020780151734
 30
-0.0015258207003583
  9
$EXTMAX
 10
201.4764411531814
 20
278.4510962509679
 30
0.0000000349246037
  9
$LIMMIN
 10
0.0
 20
0.0
  9
$LIMMAX
 10
420.0
 20
297.0
  9
$ORTHOMODE
 70
     0
  9
$REGENMODE
 70
     1
  9
$FILLMODE
 70
     1
  9
$QTEXTMODE
 70
     0
  9
$MIRRTEXT
 70
     0
  9
$LTSCALE
 40
1.0
  9
$ATTMODE
 70
     1
  9
$TEXTSIZE
 40
2.5
  9
$TRACEWID
 40
1.0
  9
$TEXTSTYLE
  7
Standard
  9
$CLAYER
  8
0
  9
$CELTYPE
  6
ByLayer
  9
$CECOLOR
 62
   256
  9
$CELTSCALE
 40
1.0
  9
$DISPSILH
 70
     0
  9
$DIMSCALE
 40
1.0
  9
$DIMASZ
 40
2.5
  9
$DIMEXO
 40
0.625
  9
$DIMDLI
 40
3.75
  9
$DIMRND
 40
0.0
  9
$DIMDLE
 40
0.0
  9
$DIMEXE
 40
1.25
  9
$DIMTP
 40
0.0
  9
$DIMTM
 40
0.0
  9
$DIMTXT
 40
2.5
  9
$DIMCEN
 40
2.5
  9
$DIMTSZ
 40
0.0
  9
$DIMTOL
 70
     0
  9
$DIMLIM
 70
     0
  9
$DIMTIH
 70
     0
  9
$DIMTOH
 70
     0
  9
$DIMSE1
 70
     0
  9
$DIMSE2
 70
     0
  9
$DIMTAD
 70
     1
  9
$DIMZIN
 70
     8
  9
$DIMBLK
  1

  9
$DIMASO
 70
     1
  9
$DIMSHO
 70
     1
  9
$DIMPOST
  1

  9
$DIMAPOST
  1

  9
$DIMALT
 70
     0
  9
$DIMALTD
 70
     3
  9
$DIMALTF
 40
0.03937007874016
  9
$DIMLFAC
 40
1.0
  9
$DIMTOFL
 70
     1
  9
$DIMTVP
 40
0.0
  9
$DIMTIX
 70
     0
  9
$DIMSOXD
 70
     0
  9
$DIMSAH
 70
     0
  9
$DIMBLK1
  1

  9
$DIMBLK2
  1

  9
$DIMSTYLE
  2
ISO-25
  9
$DIMCLRD
 70
     0
  9
$DIMCLRE
 70
     0
  9
$DIMCLRT
 70
     0
  9
$DIMTFAC
 40
1.0
  9
$DIMGAP
 40
0.625
  9
$DIMJUST
 70
     0
  9
$DIMSD1
 70
     0
  9
$DIMSD2
 70
     0
  9
$DIMTOLJ
 70
     0
  9
$DIMTZIN
 70
     8
  9
$DIMALTZ
 70
     0
  9
$DIMALTTZ
 70
     0
  9
$DIMUPT
 70
     0
  9
$DIMDEC
 70
     2
  9
$DIMTDEC
 70
     2
  9
$DIMALTU
 70
     2
  9
$DIMALTTD
 70
     3
  9
$DIMTXSTY
  7
Standard
  9
$DIMAUNIT
 70
     0
  9
$DIMADEC
 70
     0
  9
$DIMALTRND
 40
0.0
  9
$DIMAZIN
 70
     0
  9
$DIMDSEP
 70
    44
  9
$DIMATFIT
 70
     3
  9
$DIMFRAC
 70
     0
  9
$DIMLDRBLK
  1

  9
$DIMLUNIT
 70
     2
  9
$DIMLWD
 70
    -2
  9
$DIMLWE
 70
    -2
  9
$DIMTMOVE
 70
     0
  9
$LUNITS
 70
     2
  9
$LUPREC
 70
     4
  9
$SKETCHINC
 40
1.0
  9
$FILLETRAD
 40
0.0
  9
$AUNITS
 70
     0
  9
$AUPREC
 70
     0
  9
$MENU
  1
.
  9
$ELEVATION
 40
0.0
  9
$PELEVATION
 40
0.0
  9
$THICKNESS
 40
0.0
  9
$LIMCHECK
 70
     0
  9
$CHAMFERA
 40
0.0
  9
$CHAMFERB
 40
0.0
  9
$CHAMFERC
 40
0.0
  9
$CHAMFERD
 40
0.0
  9
$SKPOLY
 70
     0
  9
$TDCREATE
 40
2460367.705740741
  9
$TDUCREATE
 40
2460367.414074074
  9
$TDUPDATE
 40
2460367.714039352
  9
$TDUUPDATE
 40
2460367.422372685
  9
$TDINDWG
 40
0.0037847222
  9
$TDUSRTIMER
 40
0.0037847222
  9
$USRTIMER
 70
     1
  9
$ANGBASE
 50
0.0
  9
$ANGDIR
 70
     0
  9
$PDMODE
 70
     0
  9
$PDSIZE
 40
0.0
  9
$PLINEWID
 40
0.0
  9
$SPLFRAME
 70
     0
  9
$SPLINETYPE
 70
     6
  9
$SPLINESEGS
 70
     8
  9
$HANDSEED
  5
66FC
  9
$SURFTAB1
 70
     6
  9
$SURFTAB2
 70
     6
  9
$SURFTYPE
 70
     6
  9
$SURFU
 70
     6
  9
$SURFV
 70
     6
  9
$UCSBASE
  2

  9
$UCSNAME
  2

  9
$UCSORG
 10
0.0
 20
0.0
 30
0.0
  9
$UCSXDIR
 10
1.0
 20
0.0
 30
0.0
  9
$UCSYDIR
 10
0.0
 20
1.0
 30
0.0
  9
$UCSORTHOREF
  2

  9
$UCSORTHOVIEW
 70
     0
  9
$UCSORGTOP
 10
0.0
 20
0.0
 30
0.0
  9
$UCSORGBOTTOM
 10
0.0
 20
0.0
 30
0.0
  9
$UCSORGLEFT
 10
0.0
 20
0.0
 30
0.0
  9
$UCSORGRIGHT
 10
0.0
 20
0.0
 30
0.0
  9
$UCSORGFRONT
 10
0.0
 20
0.0
 30
0.0
  9
$UCSORGBACK
 10
0.0
 20
0.0
 30
0.0
  9
$PUCSBASE
  2

  9
$PUCSNAME
  2

  9
$PUCSORG
 10
0.0
 20
0.0
 30
0.0
  9
$PUCSXDIR
 10
1.0
 20
0.0
 30
0.0
  9
$PUCSYDIR
 10
0.0
 20
1.0
 30
0.0
  9
$PUCSORTHOREF
  2

  9
$PUCSORTHOVIEW
 70
     0
  9
$PUCSORGTOP
 10
0.0
 20
0.0
 30
0.0
  9
$PUCSORGBOTTOM
 10
0.0
 20
0.0
 30
0.0
  9
$PUCSORGLEFT
 10
0.0
 20
0.0
 30
0.0
  9
$PUCSORGRIGHT
 10
0.0
 20
0.0
 30
0.0
  9
$PUCSORGFRONT
 10
0.0
 20
0.0
 30
0.0
  9
$PUCSORGBACK
 10
0.0
 20
0.0
 30
0.0
  9
$USERI1
 70
     0
  9
$USERI2
 70
     0
  9
$USERI3
 70
     0
  9
$USERI4
 70
     0
  9
$USERI5
 70
     0
  9
$USERR1
 40
0.0
  9
$USERR2
 40
0.0
  9
$USERR3
 40
0.0
  9
$USERR4
 40
0.0
  9
$USERR5
 40
0.0
  9
$WORLDVIEW
 70
     1
  9
$SHADEDGE
 70
     3
  9
$SHADEDIF
 70
    70
  9
$TILEMODE
 70
     1
  9
$MAXACTVP
 70
    48
  9
$PINSBASE
 10
0.0
 20
0.0
 30
0.0
  9
$PLIMCHECK
 70
     0
  9
$PEXTMIN
 10
0.0
 20
0.0
 30
0.0
  9
$PEXTMAX
 10
0.0
 20
0.0
 30
0.0
  9
$PLIMMIN
 10
0.0
 20
0.0
  9
$PLIMMAX
 10
12.0
 20
9.0
  9
$UNITMODE
 70
     0
  9
$VISRETAIN
 70
     1
  9
$PLINEGEN
 70
     0
  9
$PSLTSCALE
 70
     1
  9
$TREEDEPTH
 70
  3020
  9
$CMLSTYLE
  2
Standard
  9
$CMLJUST
 70
     0
  9
$CMLSCALE
 40
20.0
  9
$PROXYGRAPHICS
 70
     1
  9
$MEASUREMENT
 70
     1
  9
$CELWEIGHT
370
    -1
  9
$ENDCAPS
280
     0
  9
$JOINSTYLE
280
     0
  9
$LWDISPLAY
290
     0
  9
$INSUNITS
 70
     4
  9
$HYPERLINKBASE
  1

  9
$STYLESHEET
  1

  9
$XEDIT
290
     1
  9
$CEPSNTYPE
380
     0
  9
$PSTYLEMODE
290
     1
  9
$FINGERPRINTGUID
  2
{09ACAAAA-6FF3-F94C-B944-1C0D1F37C415}
  9
$VERSIONGUID
  2
{1146C0FF-F0E0-E546-BE85-CE3E67318ACF}
  9
$EXTNAMES
290
     1
  9
$PSVPSCALE
 40
0.0
  9
$OLESTARTUP
290
     0
  0
ENDSEC
  0
SECTION
  2
CLASSES
  0
CLASS
  1
ACDBDICTIONARYWDFLT
  2
AcDbDictionaryWithDefault
  3
ObjectDBX Classes
 90
        0
280
     0
281
     0
  0
CLASS
  1
ACDBPLACEHOLDER
  2
AcDbPlaceHolder
  3
ObjectDBX Classes
 90
        0
280
     0
281
     0
  0
CLASS
  1
LAYOUT
  2
AcDbLayout
  3
ObjectDBX Classes
 90
        0
280
     0
281
     0
  0
CLASS
  1
DICTIONARYVAR
  2
AcDbDictionaryVar
  3
ObjectDBX Classes
 90
        0
280
     0
281
     0
  0
CLASS
  1
TABLESTYLE
  2
AcDbTableStyle
  3
ObjectDBX Classes
 90
     4095
280
     0
281
     0
  0
CLASS
  1
MATERIAL
  2
AcDbMaterial
  3
ObjectDBX Classes
 90
     1153
280
     0
281
     0
  0
CLASS
  1
VISUALSTYLE
  2
AcDbVisualStyle
  3
ObjectDBX Classes
 90
     4095
280
     0
281
     0
  0
CLASS
  1
SCALE
  2
AcDbScale
  3
ObjectDBX Classes
 90
     1153
280
     0
281
     0
  0
CLASS
  1
MLEADERSTYLE
  2
AcDbMLeaderStyle
  3
ACDB_MLEADERSTYLE_CLASS
 90
     4095
280
     0
281
     0
  0
CLASS
  1
CELLSTYLEMAP
  2
AcDbCellStyleMap
  3
ObjectDBX Classes
 90
     1152
280
     0
281
     0
  0
CLASS
  1
EXACXREFPANELOBJECT
  2
ExAcXREFPanelObject
  3
EXAC_ESW
 90
    33793
280
     0
281
     0
  0
CLASS
  1
NPOCOLLECTION
  2
AcDbImpNonPersistentObjectsCollection
  3
ObjectDBX Classes
 90
    33921
280
     0
281
     0
  0
CLASS
  1
LAYER_INDEX
  2
AcDbLayerIndex
  3
ObjectDBX Classes
 90
    32768
280
     0
281
     0
  0
CLASS
  1
SPATIAL_INDEX
  2
AcDbSpatialIndex
  3
ObjectDBX Classes
 90
    32768
280
     0
281
     0
  0
CLASS
  1
IDBUFFER
  2
AcDbIdBuffer
  3
ObjectDBX Classes
 90
    32768
280
     0
281
     0
  0
CLASS
  1
ACDBSECTIONVIEWSTYLE
  2
AcDbSectionViewStyle
  3
ObjectDBX Classes
 90
     1025
280
     0
281
     0
  0
CLASS
  1
ACDBDETAILVIEWSTYLE
  2
AcDbDetailViewStyle
  3
ObjectDBX Classes
 90
     1025
280
     0
281
     0
  0
CLASS
  1
XRECORD
  2
AcDbXrecord
  3
ObjectDBX Classes
 90
        0
280
     0
281
     0
  0
ENDSEC
  0
SECTION
  2
TABLES
  0
TABLE
  2
VPORT
  5
8
102
{ACAD_XDICTIONARY
360
660A
102
}
330
0
100
AcDbSymbolTable
 70
     1
  0
VPORT
  5
EA
330
8
100
AcDbSymbolTableRecord
100
AcDbViewportTableRecord
  2
*Active
 70
     0
 10
0.0
 20
0.0
 11
1.0
 21
1.0
 12
0.0032050791234894
 22
-58.17549088210274
 13
0.0
 23
0.0
 14
10.0
 24
10.0
 15
10.0
 25
10.0
 16
0.0
 26
0.0
 36
1.0
 17
0.0
 27
0.0
 37
0.0
 40
715.9437383969026
 41
0.9846153846153846
 42
50.0
 43
0.0
 44
0.0
 50
0.0
 51
0.0
 71
     0
 72
  1000
 73
     1
 74
     3
 75
     0
 76
     1
 77
     0
 78
     0
281
     0
 65
     1
110
0.0
120
0.0
130
0.0
111
1.0
121
0.0
131
0.0
112
0.0
122
1.0
132
0.0
 79
     0
146
0.0
1001
ACAD_NAV_VCDISPLAY
1070
     3
  0
ENDTAB
  0
TABLE
  2
LTYPE
  5
5
330
0
100
AcDbSymbolTable
 70
     1
  0
LTYPE
  5
14
330
5
100
AcDbSymbolTableRecord
100
AcDbLinetypeTableRecord
  2
ByBlock
 70
     0
  3

 72
    65
 73
     0
 40
0.0
  0
LTYPE
  5
15
330
5
100
AcDbSymbolTableRecord
100
AcDbLinetypeTableRecord
  2
ByLayer
 70
     0
  3

 72
    65
 73
     0
 40
0.0
  0
LTYPE
  5
16
330
5
100
AcDbSymbolTableRecord
100
AcDbLinetypeTableRecord
  2
Continuous
 70
     0
  3
Solid line
 72
    65
 73
     0
 40
0.0
  0
ENDTAB
  0
TABLE
  2
LAYER
  5
2
102
{ACAD_XDICTIONARY
360
1FF
102
}
330
0
100
AcDbSymbolTable
 70
     1
  0
LAYER
  5
10
102
{ACAD_XDICTIONARY
360
13C
102
}
330
2
100
AcDbSymbolTableRecord
100
AcDbLayerTableRecord
  2
0
 70
     0
 62
     7
  6
Continuous
370
    -3
390
F
  0
ENDTAB
  0
TABLE
  2
STYLE
  5
3
330
0
100
AcDbSymbolTable
 70
     1
  0
STYLE
  5
11
330
3
100
AcDbSymbolTableRecord
100
AcDbTextStyleTableRecord
  2
Standard
 70
     0
 40
0.0
 41
1.0
 50
0.0
 71
     0
 42
2.5
  3
arial.ttf
  4

1001
ACAD
1000
Arial
1071
       34
  0
ENDTAB
  0
TABLE
  2
VIEW
  5
6
330
0
100
AcDbSymbolTable
 70
     0
  0
ENDTAB
  0
TABLE
  2
UCS
  5
7
330
0
100
AcDbSymbolTable
 70
     0
  0
ENDTAB
  0
TABLE
  2
APPID
  5
9
330
0
100
AcDbSymbolTable
 70
     8
  0
APPID
  5
12
330
9
100
AcDbSymbolTableRecord
100
AcDbRegAppTableRecord
  2
ACAD
 70
     0
  0
APPID
  5
9E
330
9
100
AcDbSymbolTableRecord
100
AcDbRegAppTableRecord
  2
ACAD_PSEXT
 70
     0
  0
APPID
  5
133
330
9
100
AcDbSymbolTableRecord
100
AcDbRegAppTableRecord
  2
AcadAnnoPO
 70
     0
  0
APPID
  5
134
330
9
100
AcDbSymbolTableRecord
100
AcDbRegAppTableRecord
  2
AcadAnnotative
 70
     0
  0
APPID
  5
135
330
9
100
AcDbSymbolTableRecord
100
AcDbRegAppTableRecord
  2
ACAD_DSTYLE_DIMJAG
 70
     0
  0
APPID
  5
136
330
9
100
AcDbSymbolTableRecord
100
AcDbRegAppTableRecord
  2
ACAD_DSTYLE_DIMTALN
 70
     0
  0
APPID
  5
165
330
9
100
AcDbSymbolTableRecord
100
AcDbRegAppTableRecord
  2
ACAD_MLEADERVER
 70
     0
  0
APPID
  5
217
330
9
100
AcDbSymbolTableRecord
100
AcDbRegAppTableRecord
  2
ACAD_NAV_VCDISPLAY
 70
     0
  0
ENDTAB
  0
TABLE
  2
DIMSTYLE
  5
A
330
0
100
AcDbSymbolTable
 70
     1
100
AcDbDimStyleTable
 71
     0
  0
DIMSTYLE
105
27
330
A
100
AcDbSymbolTableRecord
100
AcDbDimStyleTableRecord
  2
ISO-25
 70
     0
 41
2.5
 42
0.625
 43
3.75
 44
1.25
 73
     0
 74
     0
 77
     1
 78
     8
140
2.5
141
2.5
143
0.03937007874016
147
0.625
171
     3
172
     1
271
     2
272
     2
274
     3
278
    44
283
     0
284
     8
340
11
  0
ENDTAB
  0
TABLE
  2
BLOCK_RECORD
  5
1
330
0
100
AcDbSymbolTable
 70
     7
  0
BLOCK_RECORD
  5
1F
102
{ACAD_XDICTIONARY
360
1CE
102
}
330
1
100
AcDbSymbolTableRecord
100
AcDbBlockTableRecord
  2
*Model_Space
340
22
  0
BLOCK_RECORD
  5
D2
102
{ACAD_XDICTIONARY
360
65BD
102
}
330
1
100
AcDbSymbolTableRecord
100
AcDbBlockTableRecord
  2
*Paper_Space
340
D3
  0
BLOCK_RECORD
  5
D6
102
{ACAD_XDICTIONARY
360
65BF
102
}
330
1
100
AcDbSymbolTableRecord
100
AcDbBlockTableRecord
  2
*Paper_Space0
340
D7
  0
BLOCK_RECORD
  5
6326
330
1
100
AcDbSymbolTableRecord
100
AcDbBlockTableRecord
  2
TU24-Front
340
0
102
{BLKREFS
331
65B3
102
}
  0
BLOCK_RECORD
  5
63A4
330
1
100
AcDbSymbolTableRecord
100
AcDbBlockTableRecord
  2
TU24-Left
340
0
102
{BLKREFS
331
65B4
102
}
  0
BLOCK_RECORD
  5
63EA
330
1
100
AcDbSymbolTableRecord
100
AcDbBlockTableRecord
  2
TU24-Right
340
0
102
{BLKREFS
331
65B5
102
}
  0
BLOCK_RECORD
  5
6430
330
1
100
AcDbSymbolTableRecord
100
AcDbBlockTableRecord
  2
TU24-Top
340
0
102
{BLKREFS
331
65B6
102
}
  0
BLOCK_RECORD
  5
6485
330
1
100
AcDbSymbolTableRecord
100
AcDbBlockTableRecord
  2
TU24-Bottom
340
0
102
{BLKREFS
331
65B7
102
}
  0
BLOCK_RECORD
  5
64B7
330
1
100
AcDbSymbolTableRecord
100
AcDbBlockTableRecord
  2
TU24-ISO
340
0
102
{BLKREFS
331
65B8
102
}
  0
ENDTAB
  0
ENDSEC
  0
SECTION
  2
BLOCKS
  0
BLOCK
  5
20
330
1F
100
AcDbEntity
  8
0
100
AcDbBlockBegin
  2
*Model_Space
 70
     0
 10
0.0
 20
0.0
 30
0.0
  3
*Model_Space
  1

  0
ENDBLK
  5
21
330
1F
100
AcDbEntity
  8
0
100
AcDbBlockEnd
  0
BLOCK
  5
D4
330
D2
100
AcDbEntity
 67
     1
  8
0
100
AcDbBlockBegin
  2
*Paper_Space
 70
     0
 10
0.0
 20
0.0
 30
0.0
  3
*Paper_Space
  1

  0
ENDBLK
  5
D5
330
D2
100
AcDbEntity
 67
     1
  8
0
100
AcDbBlockEnd
  0
BLOCK
  5
D8
330
D6
100
AcDbEntity
 67
     1
  8
0
100
AcDbBlockBegin
  2
*Paper_Space0
 70
     0
 10
0.0
 20
0.0
 30
0.0
  3
*Paper_Space0
  1

  0
ENDBLK
  5
D9
330
D6
100
AcDbEntity
 67
     1
  8
0
100
AcDbBlockEnd
  0
BLOCK
  5
6327
330
6326
100
AcDbEntity
  8
0
100
AcDbBlockBegin
  2
TU24-Front
 70
     0
 10
0.0
 20
0.0
 30
0.0
  3
TU24-Front
  1

  0
LINE
  5
6329
330
6326
100
AcDbEntity
  8
0
100
AcDbLine
 10
4.500000000000052
 20
-3.249999999999974
 30
0.0
 11
2.540935496491494
 21
-3.25
 31
0.0
  0
SPLINE
  5
632A
330
6326
100
AcDbEntity
  8
0
100
AcDbSpline
210
0.0
220
0.0
230
1.0
 70
     8
 71
     3
 72
    12
 73
     8
 74
     0
 42
0.000000001
 43
0.0000000001
 40
0.3975413774222505
 40
0.3975413774222505
 40
0.3975413774222505
 40
0.3975413774222505
 40
0.4924973234660227
 40
0.4924973234660227
 40
0.5936467900194213
 40
0.5936467900194213
 40
0.7611251630764599
 40
0.7611251630764599
 40
0.7611251630764599
 40
0.7611251630764599
 10
4.000011975314397
 20
-72.25288732847047
 30
0.0
 10
4.090281896126742
 20
-72.37330652558111
 30
0.0
 10
4.171093514159252
 20
-72.50773035217773
 30
0.0
 10
4.313761828380016
 20
-72.81047903846945
 30
0.0
 10
4.371358554569553
 20
-72.97481987671786
 30
0.0
 10
4.482867459146493
 20
-73.42074827663023
 30
0.0
 10
4.500023436785223
 20
-73.66957521479477
 30
0.0
 10
4.500000000000035
 20
-73.85443401210679
 30
0.0
  0
SPLINE
  5
632B
330
6326
100
AcDbEntity
  8
0
100
AcDbSpline
210
0.0
220
0.0
230
1.0
 70
     8
 71
     3
 72
    12
 73
     8
 74
     0
 42
0.000000001
 43
0.0000000001
 40
0.0002887099501405
 40
0.0002887099501405
 40
0.0002887099501405
 40
0.0002887099501405
 40
0.0405976442386951
 40
0.0405976442386951
 40
0.0716043848006839
 40
0.0716043848006839
 40
0.0808633911506629
 40
0.0808633911506629
 40
0.0808633911506629
 40
0.0808633911506629
 10
4.499999520333866
 20
-73.85154032855742
 30
0.0
 10
4.499845224267455
 20
-73.71656464414103
 30
0.0
 10
4.481182383542957
 20
-73.53888721562822
 30
0.0
 10
4.354027954236758
 20
-73.18063936824081
 30
0.0
 10
4.266553267871528
 20
-73.00817092497148
 30
0.0
 10
4.088768740429899
 20
-72.77615750106861
 30
0.0
 10
4.045438593546254
 20
-72.72480351472856
 30
0.0
 10
4.000017695011951
 20
-72.67541418282734
 30
0.0
  0
ARC
  5
632C
330
6326
100
AcDbEntity
  8
0
100
AcDbCircle
 10
2.250000000000038
 20
-73.85443401210679
 30
0.0
 40
2.250000000000001
100
AcDbArc
 50
321.0575587310182
 51
0.0
  0
CIRCLE
  5
632D
330
6326
100
AcDbEntity
  8
0
100
AcDbCircle
 10
-23.99999999999998
 20
-101.0
 30
0.0
 40
2.499999999999997
  0
CIRCLE
  5
632E
330
6326
100
AcDbEntity
  8
0
100
AcDbCircle
 10
-3.999999999999979
 20
-101.0
 30
0.0
 40
2.499999999999997
  0
CIRCLE
  5
632F
330
6326
100
AcDbEntity
  8
0
100
AcDbCircle
 10
-13.99999999999998
 20
-91.0
 30
0.0
 40
2.5
  0
LINE
  5
6330
330
6326
100
AcDbEntity
  8
0
100
AcDbLine
 10
-28.7492131868318
 20
-88.80563229086641
 30
0.0
 11
-3.999999999999945
 21
-78.80630109460105
 31
0.0
  0
ARC
  5
6331
330
6326
100
AcDbEntity
  8
0
100
AcDbCircle
 10
-27.99999999999999
 20
-90.66
 30
0.0
 40
2.000000000000019
100
AcDbArc
 50
112.0
 51
180.0
  0
LINE
  5
6332
330
6326
100
AcDbEntity
  8
0
100
AcDbLine
 10
-29.99999999999998
 20
-105.0
 30
0.0
 11
-29.99999999999999
 21
-90.66
 31
0.0
  0
ARC
  5
6333
330
6326
100
AcDbEntity
  8
0
100
AcDbCircle
 10
-27.99999999999999
 20
-105.0
 30
0.0
 40
1.999999999999992
100
AcDbArc
 50
180.0
 51
270.0
  0
LINE
  5
6334
330
6326
100
AcDbEntity
  8
0
100
AcDbLine
 10
-1.732050807568861
 20
-107.0
 30
0.0
 11
-27.99999999999999
 21
-107.0
 31
0.0
  0
LINE
  5
6335
330
6326
100
AcDbEntity
  8
0
100
AcDbLine
 10
0.0
 20
-104.0
 30
0.0
 11
-1.732050807568861
 21
-107.0
 31
0.0
  0
LINE
  5
6336
330
6326
100
AcDbEntity
  8
0
100
AcDbLine
 10
1.732050807568892
 20
-107.0
 30
0.0
 11
0.0
 21
-104.0
 31
0.0
  0
LINE
  5
6337
330
6326
100
AcDbEntity
  8
0
100
AcDbLine
 10
28.00000000000003
 20
-107.0
 30
0.0
 11
1.73205080756889
 21
-107.0
 31
0.0
  0
ARC
  5
6338
330
6326
100
AcDbEntity
  8
0
100
AcDbCircle
 10
28.00000000000003
 20
-105.0
 30
0.0
 40
1.999999999999999
100
AcDbArc
 50
270.0
 51
0.0
  0
LINE
  5
6339
330
6326
100
AcDbEntity
  8
0
100
AcDbLine
 10
30.00000000000004
 20
-5.249999999999985
 30
0.0
 11
30.00000000000002
 21
-105.0
 31
0.0
  0
ARC
  5
633A
330
6326
100
AcDbEntity
  8
0
100
AcDbCircle
 10
28.00000000000005
 20
-5.249999999999985
 30
0.0
 40
2.00000000000001
100
AcDbArc
 50
0.0
 51
90.0
  0
LINE
  5
633B
330
6326
100
AcDbEntity
  8
0
100
AcDbLine
 10
4.500000000000053
 20
-3.249999999999992
 30
0.0
 11
28.00000000000005
 21
-3.249999999999992
 31
0.0
  0
ARC
  5
633C
330
6326
100
AcDbEntity
  8
0
100
AcDbCircle
 10
-2.249999999999954
 20
73.52443401210675
 30
0.0
 40
2.249999999999997
100
AcDbArc
 50
112.0
 51
180.0
  0
LINE
  5
633D
330
6326
100
AcDbEntity
  8
0
100
AcDbLine
 10
28.74921318683187
 20
88.47563229086643
 30
0.0
 11
1.500000000000092
 21
77.46623553001319
 31
0.0
  0
LINE
  5
633E
330
6326
100
AcDbEntity
  8
0
100
AcDbLine
 10
-1.49999999999993
 20
76.25415685250771
 30
0.0
 11
-3.092864835185775
 21
75.61059768488203
 31
0.0
  0
ARC
  5
633F
330
6326
100
AcDbEntity
  8
0
100
AcDbCircle
 10
28.00000000000003
 20
90.33000000000001
 30
0.0
 40
2.000000000000079
100
AcDbArc
 50
292.0000000000002
 51
0.0
  0
LINE
  5
6340
330
6326
100
AcDbEntity
  8
0
100
AcDbLine
 10
30.00000000000004
 20
105.0
 30
0.0
 11
30.00000000000002
 21
90.33000000000001
 31
0.0
  0
ARC
  5
6341
330
6326
100
AcDbEntity
  8
0
100
AcDbCircle
 10
28.00000000000003
 20
105.0
 30
0.0
 40
1.999999999999984
100
AcDbArc
 50
0.0
 51
90.0
  0
LINE
  5
6342
330
6326
100
AcDbEntity
  8
0
100
AcDbLine
 10
1.732050807568927
 20
107.0
 30
0.0
 11
28.00000000000003
 21
107.0
 31
0.0
  0
LINE
  5
6343
330
6326
100
AcDbEntity
  8
0
100
AcDbLine
 10
0.0
 20
104.0
 30
0.0
 11
1.732050807568927
 21
107.0
 31
0.0
  0
LINE
  5
6344
330
6326
100
AcDbEntity
  8
0
100
AcDbLine
 10
-1.732050807568843
 20
107.0
 30
0.0
 11
0.0
 21
104.0
 31
0.0
  0
LINE
  5
6345
330
6326
100
AcDbEntity
  8
0
100
AcDbLine
 10
-27.99999999999996
 20
107.0
 30
0.0
 11
-1.732050807568845
 21
107.0
 31
0.0
  0
ARC
  5
6346
330
6326
100
AcDbEntity
  8
0
100
AcDbCircle
 10
-27.99999999999996
 20
105.0
 30
0.0
 40
1.999999999999992
100
AcDbArc
 50
90.0
 51
180.0
  0
LINE
  5
6347
330
6326
100
AcDbEntity
  8
0
100
AcDbLine
 10
-29.99999999999997
 20
3.250000000000028
 30
0.0
 11
-29.99999999999997
 21
105.0
 31
0.0
  0
ARC
  5
6348
330
6326
100
AcDbEntity
  8
0
100
AcDbCircle
 10
-27.99999999999997
 20
3.250000000000028
 30
0.0
 40
2.00000000000001
100
AcDbArc
 50
180.0
 51
270.0
  0
LINE
  5
6349
330
6326
100
AcDbEntity
  8
0
100
AcDbLine
 10
-4.499999999999968
 20
1.25
 30
0.0
 11
-27.99999999999997
 21
1.250000000000035
 31
0.0
  0
CIRCLE
  5
634A
330
6326
100
AcDbEntity
  8
0
100
AcDbCircle
 10
4.000000000000046
 20
99.00000000000003
 30
0.0
 40
2.499999999999999
  0
CIRCLE
  5
634B
330
6326
100
AcDbEntity
  8
0
100
AcDbCircle
 10
24.00000000000004
 20
98.99999999999998
 30
0.0
 40
2.500000000000002
  0
CIRCLE
  5
634C
330
6326
100
AcDbEntity
  8
0
100
AcDbCircle
 10
14.00000000000004
 20
89.00000000000003
 30
0.0
 40
2.499999999999996
  0
LINE
  5
634D
330
6326
100
AcDbEntity
  8
0
100
AcDbLine
 10
1.500000000000085
 20
-99.0
 30
0.0
 11
-1.499999999999903
 21
-99.0
 31
0.0
  0
LINE
  5
634E
330
6326
100
AcDbEntity
  8
0
100
AcDbLine
 10
-1.499999999999903
 20
-99.0
 30
0.0
 11
-1.499999999999902
 21
-97.00000000000002
 31
0.0
  0
LINE
  5
634F
330
6326
100
AcDbEntity
  8
0
100
AcDbLine
 10
1.500000000000087
 20
-97.00000000000002
 30
0.0
 11
1.500000000000085
 21
-99.0
 31
0.0
  0
LINE
  5
6350
330
6326
100
AcDbEntity
  8
0
100
AcDbLine
 10
-1.499999999999884
 20
92.00000000000002
 30
0.0
 11
-1.499999999999902
 21
-97.00000000000002
 31
0.0
  0
LINE
  5
6351
330
6326
100
AcDbEntity
  8
0
100
AcDbLine
 10
1.500000000000104
 20
-97.00000000000002
 30
0.0
 11
1.500000000000122
 21
92.00000000000004
 31
0.0
  0
LINE
  5
6352
330
6326
100
AcDbEntity
  8
0
100
AcDbLine
 10
-1.499999999999884
 20
92.00000000000002
 30
0.0
 11
-1.499999999999885
 21
94.00000000000003
 31
0.0
  0
LINE
  5
6353
330
6326
100
AcDbEntity
  8
0
100
AcDbLine
 10
1.500000000000121
 20
94.00000000000003
 30
0.0
 11
1.500000000000122
 21
92.00000000000002
 31
0.0
  0
LINE
  5
6354
330
6326
100
AcDbEntity
  8
0
100
AcDbLine
 10
1.500000000000121
 20
94.00000000000005
 30
0.0
 11
-1.499999999999885
 21
94.00000000000005
 31
0.0
  0
LINE
  5
6355
330
6326
100
AcDbEntity
  8
0
100
AcDbLine
 10
-1.499999999999908
 20
94.99999999999998
 30
0.0
 11
-1.499999999999908
 21
94.00000000000005
 31
0.0
  0
LINE
  5
6356
330
6326
100
AcDbEntity
  8
0
100
AcDbLine
 10
1.500000000000097
 20
94.00000000000005
 30
0.0
 11
1.500000000000098
 21
94.99999999999998
 31
0.0
  0
LINE
  5
6357
330
6326
100
AcDbEntity
  8
0
100
AcDbLine
 10
-1.499999999999908
 20
94.99999999999998
 30
0.0
 11
-1.499999999999908
 21
95.99999999999997
 31
0.0
  0
LINE
  5
6358
330
6326
100
AcDbEntity
  8
0
100
AcDbLine
 10
1.500000000000098
 20
95.99999999999997
 30
0.0
 11
1.500000000000099
 21
94.99999999999998
 31
0.0
  0
LINE
  5
6359
330
6326
100
AcDbEntity
  8
0
100
AcDbLine
 10
1.500000000000097
 20
95.99999999999997
 30
0.0
 11
-1.499999999999909
 21
95.99999999999997
 31
0.0
  0
CIRCLE
  5
635A
330
6326
100
AcDbEntity
  8
0
100
AcDbCircle
 10
24.00000000000004
 20
-21.0
 30
0.0
 40
2.500000000000001
  0
CIRCLE
  5
635B
330
6326
100
AcDbEntity
  8
0
100
AcDbCircle
 10
14.00000000000004
 20
-11.00000000000001
 30
0.0
 40
2.500000000000002
  0
CIRCLE
  5
635C
330
6326
100
AcDbEntity
  8
0
100
AcDbCircle
 10
-13.99999999999996
 20
89.00000000000003
 30
0.0
 40
2.500000000000003
  0
CIRCLE
  5
635D
330
6326
100
AcDbEntity
  8
0
100
AcDbCircle
 10
-23.99999999999995
 20
99.00000000000003
 30
0.0
 40
2.5
  0
CIRCLE
  5
635E
330
6326
100
AcDbEntity
  8
0
100
AcDbCircle
 10
24.00000000000004
 20
-41.0
 30
0.0
 40
2.500000000000001
  0
CIRCLE
  5
635F
330
6326
100
AcDbEntity
  8
0
100
AcDbCircle
 10
14.00000000000004
 20
-31.00000000000002
 30
0.0
 40
2.500000000000002
  0
CIRCLE
  5
6360
330
6326
100
AcDbEntity
  8
0
100
AcDbCircle
 10
24.00000000000003
 20
-61.00000000000001
 30
0.0
 40
2.500000000000001
  0
CIRCLE
  5
6361
330
6326
100
AcDbEntity
  8
0
100
AcDbCircle
 10
14.00000000000003
 20
-51.00000000000002
 30
0.0
 40
2.500000000000002
  0
CIRCLE
  5
6362
330
6326
100
AcDbEntity
  8
0
100
AcDbCircle
 10
24.00000000000003
 20
-81.0
 30
0.0
 40
2.500000000000001
  0
CIRCLE
  5
6363
330
6326
100
AcDbEntity
  8
0
100
AcDbCircle
 10
14.00000000000003
 20
-71.00000000000001
 30
0.0
 40
2.500000000000002
  0
CIRCLE
  5
6364
330
6326
100
AcDbEntity
  8
0
100
AcDbCircle
 10
24.00000000000003
 20
-101.0
 30
0.0
 40
2.500000000000001
  0
CIRCLE
  5
6365
330
6326
100
AcDbEntity
  8
0
100
AcDbCircle
 10
14.00000000000003
 20
-91.00000000000001
 30
0.0
 40
2.500000000000002
  0
CIRCLE
  5
6366
330
6326
100
AcDbEntity
  8
0
100
AcDbCircle
 10
-13.99999999999996
 20
69.00000000000003
 30
0.0
 40
2.500000000000003
  0
CIRCLE
  5
6367
330
6326
100
AcDbEntity
  8
0
100
AcDbCircle
 10
-23.99999999999996
 20
79.00000000000003
 30
0.0
 40
2.5
  0
CIRCLE
  5
6368
330
6326
100
AcDbEntity
  8
0
100
AcDbCircle
 10
-13.99999999999996
 20
49.00000000000002
 30
0.0
 40
2.500000000000003
  0
CIRCLE
  5
6369
330
6326
100
AcDbEntity
  8
0
100
AcDbCircle
 10
-23.99999999999996
 20
59.00000000000002
 30
0.0
 40
2.5
  0
CIRCLE
  5
636A
330
6326
100
AcDbEntity
  8
0
100
AcDbCircle
 10
-13.99999999999997
 20
29.00000000000002
 30
0.0
 40
2.500000000000003
  0
CIRCLE
  5
636B
330
6326
100
AcDbEntity
  8
0
100
AcDbCircle
 10
-23.99999999999997
 20
39.00000000000004
 30
0.0
 40
2.5
  0
CIRCLE
  5
636C
330
6326
100
AcDbEntity
  8
0
100
AcDbCircle
 10
-13.99999999999996
 20
9.000000000000021
 30
0.0
 40
2.500000000000003
  0
CIRCLE
  5
636D
330
6326
100
AcDbEntity
  8
0
100
AcDbCircle
 10
-23.99999999999997
 20
19.00000000000004
 30
0.0
 40
2.5
  0
LINE
  5
636E
330
6326
100
AcDbEntity
  8
0
100
AcDbLine
 10
-3.999999999999905
 20
47.47701665379259
 30
0.0
 11
-3.999999999999907
 21
30.52298334620742
 31
0.0
  0
ARC
  5
636F
330
6326
100
AcDbEntity
  8
0
100
AcDbCircle
 10
-1.499999999999905
 20
47.47701665379259
 30
0.0
 40
2.5
100
AcDbArc
 50
114.3157391711762
 51
180.0
  0
ARC
  5
6370
330
6326
100
AcDbEntity
  8
0
100
AcDbCircle
 10
-1.499999999999908
 20
30.52298334620742
 30
0.0
 40
2.5
100
AcDbArc
 50
180.0
 51
245.6842608288238
  0
ARC
  5
6371
330
6326
100
AcDbEntity
  8
0
100
AcDbCircle
 10
-3.249999999999894
 20
51.34999999999999
 30
0.0
 40
1.75
100
AcDbArc
 50
294.3157391711764
 51
0.0
  0
ARC
  5
6372
330
6326
100
AcDbEntity
  8
0
100
AcDbCircle
 10
-3.249999999999897
 20
26.65000000000001
 30
0.0
 40
1.75
100
AcDbArc
 50
0.0
 51
65.68426082882351
  0
LINE
  5
6373
330
6326
100
AcDbEntity
  8
0
100
AcDbLine
 10
4.000000000000075
 20
51.97701665379259
 30
0.0
 11
4.000000000000073
 21
39.02298334620742
 31
0.0
  0
ARC
  5
6374
330
6326
100
AcDbEntity
  8
0
100
AcDbCircle
 10
1.500000000000075
 20
51.97701665379259
 30
0.0
 40
2.5
100
AcDbArc
 50
0.0
 51
65.68426082882334
  0
ARC
  5
6375
330
6326
100
AcDbEntity
  8
0
100
AcDbCircle
 10
1.500000000000073
 20
39.02298334620742
 30
0.0
 40
2.5
100
AcDbArc
 50
294.3157391711766
 51
0.0
  0
ARC
  5
6376
330
6326
100
AcDbEntity
  8
0
100
AcDbCircle
 10
3.250000000000083
 20
55.85
 30
0.0
 40
1.75
100
AcDbArc
 50
180.0
 51
245.6842608288235
  0
ARC
  5
6377
330
6326
100
AcDbEntity
  8
0
100
AcDbCircle
 10
3.250000000000079
 20
35.15000000000001
 30
0.0
 40
1.75
100
AcDbArc
 50
114.3157391711765
 51
180.0
  0
LINE
  5
6378
330
6326
100
AcDbEntity
  8
0
100
AcDbLine
 10
-3.999999999999905
 20
7.477016653792585
 30
0.0
 11
-3.999999999999907
 21
-9.477016653792578
 31
0.0
  0
LINE
  5
6379
330
6326
100
AcDbEntity
  8
0
100
AcDbLine
 10
-3.999999999999905
 20
-32.52298334620741
 30
0.0
 11
-3.999999999999907
 21
-49.47701665379257
 31
0.0
  0
LINE
  5
637A
330
6326
100
AcDbEntity
  8
0
100
AcDbLine
 10
-3.999999999999923
 20
-72.52298334620739
 30
0.0
 11
-3.999999999999925
 21
-89.47701665379256
 31
0.0
  0
LINE
  5
637B
330
6326
100
AcDbEntity
  8
0
100
AcDbLine
 10
4.000000000000075
 20
11.97701665379259
 30
0.0
 11
4.000000000000073
 21
-0.9770166537925817
 31
0.0
  0
LINE
  5
637C
330
6326
100
AcDbEntity
  8
0
100
AcDbLine
 10
4.000000000000057
 20
-28.02298334620741
 30
0.0
 11
4.000000000000055
 21
-40.97701665379259
 31
0.0
  0
LINE
  5
637D
330
6326
100
AcDbEntity
  8
0
100
AcDbLine
 10
4.000000000000057
 20
-68.02298334620741
 30
0.0
 11
4.000000000000055
 21
-80.97701665379259
 31
0.0
  0
ARC
  5
637E
330
6326
100
AcDbEntity
  8
0
100
AcDbCircle
 10
-1.499999999999905
 20
7.477016653792585
 30
0.0
 40
2.5
100
AcDbArc
 50
114.3157391711766
 51
180.0
  0
ARC
  5
637F
330
6326
100
AcDbEntity
  8
0
100
AcDbCircle
 10
-1.499999999999908
 20
-9.477016653792578
 30
0.0
 40
2.5
100
AcDbArc
 50
180.0
 51
245.6842608288233
  0
ARC
  5
6380
330
6326
100
AcDbEntity
  8
0
100
AcDbCircle
 10
-3.249999999999912
 20
11.35
 30
0.0
 40
1.75
100
AcDbArc
 50
294.3157391711764
 51
0.0
  0
ARC
  5
6381
330
6326
100
AcDbEntity
  8
0
100
AcDbCircle
 10
-3.249999999999915
 20
-13.34999999999999
 30
0.0
 40
1.75
100
AcDbArc
 50
0.0
 51
65.68426082882351
  0
ARC
  5
6382
330
6326
100
AcDbEntity
  8
0
100
AcDbCircle
 10
-1.499999999999905
 20
-32.52298334620741
 30
0.0
 40
2.5
100
AcDbArc
 50
114.3157391711766
 51
180.0
  0
ARC
  5
6383
330
6326
100
AcDbEntity
  8
0
100
AcDbCircle
 10
-1.499999999999908
 20
-49.47701665379257
 30
0.0
 40
2.5
100
AcDbArc
 50
180.0
 51
245.6842608288233
  0
ARC
  5
6384
330
6326
100
AcDbEntity
  8
0
100
AcDbCircle
 10
-3.249999999999912
 20
-28.65
 30
0.0
 40
1.75
100
AcDbArc
 50
294.3157391711764
 51
0.0
  0
ARC
  5
6385
330
6326
100
AcDbEntity
  8
0
100
AcDbCircle
 10
-3.249999999999915
 20
-53.34999999999999
 30
0.0
 40
1.75
100
AcDbArc
 50
0.0
 51
65.68426082882351
  0
ARC
  5
6386
330
6326
100
AcDbEntity
  8
0
100
AcDbCircle
 10
-1.499999999999923
 20
-72.52298334620741
 30
0.0
 40
2.5
100
AcDbArc
 50
114.3157391711763
 51
180.0
  0
ARC
  5
6387
330
6326
100
AcDbEntity
  8
0
100
AcDbCircle
 10
-1.499999999999925
 20
-89.47701665379257
 30
0.0
 40
2.5
100
AcDbArc
 50
180.0
 51
245.6842608288233
  0
ARC
  5
6388
330
6326
100
AcDbEntity
  8
0
100
AcDbCircle
 10
-3.249999999999912
 20
-68.64999999999998
 30
0.0
 40
1.75
100
AcDbArc
 50
294.3157391711763
 51
0.0
  0
ARC
  5
6389
330
6326
100
AcDbEntity
  8
0
100
AcDbCircle
 10
-3.249999999999915
 20
-93.34999999999997
 30
0.0
 40
1.75
100
AcDbArc
 50
0.0
 51
65.68426082882367
  0
ARC
  5
638A
330
6326
100
AcDbEntity
  8
0
100
AcDbCircle
 10
1.500000000000075
 20
11.97701665379259
 30
0.0
 40
2.5
100
AcDbArc
 50
0.0
 51
65.68426082882337
  0
ARC
  5
638B
330
6326
100
AcDbEntity
  8
0
100
AcDbCircle
 10
1.500000000000073
 20
-0.9770166537925817
 30
0.0
 40
2.5
100
AcDbArc
 50
294.3157391711766
 51
0.0
  0
ARC
  5
638C
330
6326
100
AcDbEntity
  8
0
100
AcDbCircle
 10
3.250000000000065
 20
15.85000000000001
 30
0.0
 40
1.75
100
AcDbArc
 50
180.0
 51
245.684260828824
  0
ARC
  5
638D
330
6326
100
AcDbEntity
  8
0
100
AcDbCircle
 10
3.250000000000062
 20
-4.849999999999994
 30
0.0
 40
1.75
100
AcDbArc
 50
114.3157391711759
 51
180.0
  0
ARC
  5
638E
330
6326
100
AcDbEntity
  8
0
100
AcDbCircle
 10
1.500000000000057
 20
-28.02298334620741
 30
0.0
 40
2.500000000000001
100
AcDbArc
 50
0.0
 51
65.68426082882339
  0
ARC
  5
638F
330
6326
100
AcDbEntity
  8
0
100
AcDbCircle
 10
1.500000000000055
 20
-40.97701665379259
 30
0.0
 40
2.5
100
AcDbArc
 50
294.3157391711768
 51
0.0
  0
ARC
  5
6390
330
6326
100
AcDbEntity
  8
0
100
AcDbCircle
 10
3.250000000000065
 20
-24.15
 30
0.0
 40
1.75
100
AcDbArc
 50
180.0
 51
245.6842608288235
  0
ARC
  5
6391
330
6326
100
AcDbEntity
  8
0
100
AcDbCircle
 10
3.250000000000062
 20
-44.85
 30
0.0
 40
1.75
100
AcDbArc
 50
114.3157391711765
 51
180.0
  0
ARC
  5
6392
330
6326
100
AcDbEntity
  8
0
100
AcDbCircle
 10
1.500000000000057
 20
-68.02298334620741
 30
0.0
 40
2.5
100
AcDbArc
 50
0.0
 51
65.68426082882334
  0
ARC
  5
6393
330
6326
100
AcDbEntity
  8
0
100
AcDbCircle
 10
1.500000000000055
 20
-80.97701665379259
 30
0.0
 40
2.5
100
AcDbArc
 50
294.3157391711768
 51
0.0
  0
ARC
  5
6394
330
6326
100
AcDbEntity
  8
0
100
AcDbCircle
 10
3.250000000000065
 20
-64.15
 30
0.0
 40
1.75
100
AcDbArc
 50
180.0
 51
245.6842608288235
  0
ARC
  5
6395
330
6326
100
AcDbEntity
  8
0
100
AcDbCircle
 10
3.250000000000062
 20
-84.84999999999999
 30
0.0
 40
1.75
100
AcDbArc
 50
114.3157391711765
 51
180.0
  0
LINE
  5
6396
330
6326
100
AcDbEntity
  8
0
100
AcDbLine
 10
-3.999999999999939
 20
65.1270166537926
 30
0.0
 11
-3.999999999999939
 21
65.00000000000006
 31
0.0
  0
LINE
  5
6397
330
6326
100
AcDbEntity
  8
0
100
AcDbLine
 10
-3.999999999999957
 20
-66.99999999999997
 30
0.0
 11
-3.999999999999957
 21
-67.12701665379258
 31
0.0
  0
ARC
  5
6398
330
6326
100
AcDbEntity
  8
0
100
AcDbCircle
 10
-1.499999999999939
 20
65.1270166537926
 30
0.0
 40
2.5
100
AcDbArc
 50
114.3157391711762
 51
180.0
  0
ARC
  5
6399
330
6326
100
AcDbEntity
  8
0
100
AcDbCircle
 10
-3.249999999999928
 20
69.00000000000003
 30
0.0
 40
1.75
100
AcDbArc
 50
294.3157391711765
 51
0.0
  0
ARC
  5
639A
330
6326
100
AcDbEntity
  8
0
100
AcDbCircle
 10
-1.499999999999956
 20
-67.12701665379258
 30
0.0
 40
2.5
100
AcDbArc
 50
180.0
 51
245.6842608288237
  0
ARC
  5
639B
330
6326
100
AcDbEntity
  8
0
100
AcDbCircle
 10
-3.249999999999946
 20
-71.0
 30
0.0
 40
1.75
100
AcDbArc
 50
42.17741860089925
 51
65.6842608288236
  0
LINE
  5
639C
330
6326
100
AcDbEntity
  8
0
100
AcDbLine
 10
-3.999999999999939
 20
65.00000000000003
 30
0.0
 11
-3.999999999999941
 21
47.47701665379259
 31
0.0
  0
LINE
  5
639D
330
6326
100
AcDbEntity
  8
0
100
AcDbLine
 10
-3.999999999999943
 20
30.52298334620742
 30
0.0
 11
-3.999999999999946
 21
7.477016653792585
 31
0.0
  0
LINE
  5
639E
330
6326
100
AcDbEntity
  8
0
100
AcDbLine
 10
-3.999999999999949
 20
-9.477016653792578
 30
0.0
 11
-3.999999999999952
 21
-32.52298334620741
 31
0.0
  0
LINE
  5
639F
330
6326
100
AcDbEntity
  8
0
100
AcDbLine
 10
-3.999999999999954
 20
-49.47701665379257
 30
0.0
 11
-3.999999999999957
 21
-66.99999999999999
 31
0.0
  0
SPLINE
  5
63A0
330
6326
100
AcDbEntity
  8
0
100
AcDbSpline
210
0.0
220
0.0
230
1.0
 70
     8
 71
     3
 72
    16
 73
    12
 74
     0
 42
0.000000001
 43
0.0000000001
 40
0.0
 40
0.0
 40
0.0
 40
0.0
 40
0.0405976442382876
 40
0.0405976442382876
 40
0.0716043848006032
 40
0.0716043848006032
 40
0.1028570667555544
 40
0.1028570667555544
 40
0.1477895629815111
 40
0.1477895629815111
 40
0.1627976483644444
 40
0.1627976483644444
 40
0.1627976483644444
 40
0.1627976483644444
 10
-4.499999999999951
 20
73.52443401210678
 30
0.0
 10
-4.50010983732491
 20
73.3891085758874
 30
0.0
 10
-4.481697147640038
 20
73.21033752397159
 30
0.0
 10
-4.354027954235129
 20
72.85063936823647
 30
0.0
 10
-4.266553267868229
 20
72.67817092496699
 30
0.0
 10
-3.991660515105011
 20
72.31942874592374
 30
0.0
 10
-3.825768713379933
 20
72.16210031419269
 30
0.0
 10
-3.386941791084415
 20
71.83101522961571
 30
0.0
 10
-3.08239786893455
 20
71.66770930672211
 30
0.0
 10
-2.636679827006292
 20
71.50076605248429
 30
0.0
 10
-2.52440388861044
 20
71.46409587954693
 30
0.0
 10
-2.412088903666731
 20
71.43238494485692
 30
0.0
  0
SPLINE
  5
63A1
330
6326
100
AcDbEntity
  8
0
100
AcDbSpline
210
0.0
220
0.0
230
1.0
 70
     8
 71
     3
 72
    10
 73
     6
 74
     0
 42
0.000000001
 43
0.0000000001
 40
0.0
 40
0.0
 40
0.0
 40
0.0
 40
0.136299842263447
 40
0.136299842263447
 40
0.2725996852924296
 40
0.2725996852924296
 40
0.2725996852924296
 40
0.2725996852924296
 10
-1.499999999999943
 20
72.72660883592429
 30
0.0
 10
-1.499999999999943
 20
72.51117594700756
 30
0.0
 10
-1.580003492034347
 20
72.29787138984488
 30
0.0
 10
-1.890582336322676
 20
71.86700778779528
 30
0.0
 10
-2.118043726024076
 20
71.6537032294585
 30
0.0
 10
-2.40426315624034
 20
71.43827033933149
 30
0.0
  0
SPLINE
  5
63A2
330
6326
100
AcDbEntity
  8
0
100
AcDbSpline
210
0.0
220
0.0
230
1.0
 70
     8
 71
     3
 72
    20
 73
    16
 74
     0
 42
0.000000001
 43
0.0000000001
 40
0.0
 40
0.0
 40
0.0
 40
0.0
 40
0.0292038487378875
 40
0.0292038487378875
 40
0.1061564375162876
 40
0.1061564375162876
 40
0.2088926108699408
 40
0.2088926108699408
 40
0.3299865151030747
 40
0.3299865151030747
 40
0.4924973233749224
 40
0.4924973233749224
 40
0.5936467899060658
 40
0.5936467899060658
 40
0.7611251629226504
 40
0.7611251629226504
 40
0.7611251629226504
 40
0.7611251629226504
 10
-2.40426315624034
 20
71.43827033933146
 30
0.0
 10
-2.465674248598486
 20
71.39233308817506
 30
0.0
 10
-2.523558632590845
 20
71.36083413766766
 30
0.0
 10
-2.72276558822605
 20
71.27706251268932
 30
0.0
 10
-2.856603618606403
 20
71.27001480510863
 30
0.0
 10
-3.090693379599518
 20
71.28448206304665
 30
0.0
 10
-3.226847097519958
 20
71.32132420164026
 30
0.0
 10
-3.516412986710755
 20
71.45595871722427
 30
0.0
 10
-3.662991456269122
 20
71.56083197018624
 30
0.0
 10
-3.969360485268407
 20
71.85819879564483
 30
0.0
 10
-4.121946791567047
 20
72.07343875959023
 30
0.0
 10
-4.313761828392525
 20
72.48047903850292
 30
0.0
 10
-4.371358554578545
 20
72.64481987674713
 30
0.0
 10
-4.482867459147332
 20
73.09074827664524
 30
0.0
 10
-4.500023436785138
 20
73.33957521479977
 30
0.0
 10
-4.49999999999995
 20
73.52443401210675
 30
0.0
  0
LINE
  5
63A3
330
6326
100
AcDbEntity
  8
0
100
AcDbLine
 10
-4.499999999999984
 20
1.250000000000127
 30
0.0
 11
-4.00000000000006
 21
1.250000000000118
 31
0.0
  0
ENDBLK
  5
6328
330
6326
100
AcDbEntity
  8
0
100
AcDbBlockEnd
  0
BLOCK
  5
63A5
330
63A4
100
AcDbEntity
  8
0
100
AcDbBlockBegin
  2
TU24-Left
 70
     0
 10
0.0
 20
0.0
 30
0.0
  3
TU24-Left
  1

  0
LINE
  5
63A7
330
63A4
100
AcDbEntity
  8
0
100
AcDbLine
 10
0.0
 20
-3.249999999999775
 30
0.0
 11
4.10984570913428
 21
-3.250000000000048
 31
0.0
  0
SPLINE
  5
63A8
330
63A4
100
AcDbEntity
  8
0
100
AcDbSpline
210
0.0
220
0.0
230
1.0
 70
     8
 71
     3
 72
    10
 73
     6
 74
     0
 42
0.000000001
 43
0.0000000001
 40
0.0
 40
0.0
 40
0.0
 40
0.0
 40
0.0507000194479466
 40
0.0507000194479466
 40
0.0861016273654298
 40
0.0861016273654298
 40
0.0861016273654298
 40
0.0861016273654298
 10
6.000000000000007
 20
-2.8493145339751
 30
0.0
 10
5.846476691553091
 20
-2.919965901087628
 30
0.0
 10
5.515198743796783
 20
-3.060232633687949
 30
0.0
 10
4.741959542672451
 20
-3.218335028912058
 30
0.0
 10
4.421711722108891
 20
-3.250001105790651
 30
0.0
 10
4.10984570913428
 20
-3.249999999999992
 30
0.0
  0
SPLINE
  5
63A9
330
63A4
100
AcDbEntity
  8
0
100
AcDbSpline
210
0.0
220
0.0
230
1.0
 70
     8
 71
     3
 72
    12
 73
     8
 74
     0
 42
0.000000001
 43
0.0000000001
 40
0.3900856594386274
 40
0.3900856594386274
 40
0.3900856594386274
 40
0.3900856594386274
 40
0.4924973234660227
 40
0.4924973234660227
 40
0.5936467900194213
 40
0.5936467900194213
 40
0.7611251630764599
 40
0.7611251630764599
 40
0.7611251630764599
 40
0.7611251630764599
 10
3.045649841383493
 20
-72.2247821351646
 30
0.0
 10
3.028179899718439
 20
-72.3522722655339
 30
0.0
 10
3.017749832807563
 20
-72.49622017102051
 30
0.0
 10
3.004875407166718
 20
-72.81047903846945
 30
0.0
 10
3.002465043087972
 20
-72.97481987671786
 30
0.0
 10
2.999242810694262
 20
-73.42074827663023
 30
0.0
 10
2.999999999999979
 20
-73.66957521479477
 30
0.0
 10
2.999999999999979
 20
-73.85443401210679
 30
0.0
  0
SPLINE
  5
63AA
330
63A4
100
AcDbEntity
  8
0
100
AcDbSpline
210
0.0
220
0.0
230
1.0
 70
     8
 71
     3
 72
    20
 73
    16
 74
     0
 42
0.000000001
 43
0.0000000001
 40
0.0
 40
0.0
 40
0.0
 40
0.0
 40
0.0405976442386951
 40
0.0405976442386951
 40
0.0716043848006839
 40
0.0716043848006839
 40
0.1028570667547963
 40
0.1028570667547963
 40
0.1477895629766936
 40
0.1477895629766936
 40
0.2029079031015155
 40
0.2029079031015155
 40
0.2338286432058676
 40
0.2338286432058676
 40
0.2734021259001296
 40
0.2734021259001296
 40
0.2734021259001296
 40
0.2734021259001296
 10
-0.0000000000000191
 20
-73.85443401210679
 30
0.0
 10
-0.000000000000019
 20
-73.71910857588604
 30
0.0
 10
-0.0004087994864139
 20
-73.54033752397031
 30
0.0
 10
0.0015210907019043
 20
-73.18063936824081
 30
0.0
 10
0.0029743327850842
 20
-73.00817092497148
 30
0.0
 10
0.0199745112782368
 20
-72.64942874592394
 30
0.0
 10
0.0352294054457242
 20
-72.49210031419235
 30
0.0
 10
0.0983501783739991
 20
-72.16101522963009
 30
0.0
 10
0.1594143250985575
 20
-71.99770930673309
 30
0.0
 10
0.3865153478625526
 20
-71.71905314819762
 30
0.0
 10
0.5640693250705892
 20
-71.63472672751348
 30
0.0
 10
0.917829328246697
 20
-71.59792528922236
 30
0.0
 10
1.059692441936863
 20
-71.60416197723067
 30
0.0
 10
1.410206428585107
 20
-71.66307382122801
 30
0.0
 10
1.586752567443639
 20
-71.72240070648924
 30
0.0
 10
1.706802086225914
 20
-71.76827033933152
 30
0.0
  0
SPLINE
  5
63AB
330
63A4
100
AcDbEntity
  8
0
100
AcDbSpline
210
0.0
220
0.0
230
1.0
 70
     8
 71
     3
 72
    12
 73
     8
 74
     0
 42
0.000000001
 43
0.0000000001
 40
0.0
 40
0.0
 40
0.0
 40
0.0
 40
0.1239712457412909
 40
0.1239712457412909
 40
0.3101197498474767
 40
0.3101197498474767
 40
0.4962683327629839
 40
0.4962683327629839
 40
0.4962683327629839
 40
0.4962683327629839
 10
1.706802086225916
 20
-71.7682703393315
 30
0.0
 10
1.985551206012029
 20
-71.87572174907064
 30
0.0
 10
2.292088205023681
 20
-71.98290459519228
 30
0.0
 10
3.117020801816266
 20
-72.25169668343278
 30
0.0
 10
3.659931912819324
 20
-72.41214020590347
 30
0.0
 10
4.805061856518508
 20
-72.73482365365504
 30
0.0
 10
5.400848321169252
 20
-72.89526555378202
 30
0.0
 10
5.999999999999978
 20
-73.05660883592432
 30
0.0
  0
LINE
  5
63AC
330
63A4
100
AcDbEntity
  8
0
100
AcDbLine
 10
0.0
 20
-73.85443401210679
 30
0.0
 11
0.0
 21
-3.249999999999992
 31
0.0
  0
LINE
  5
63AD
330
63A4
100
AcDbEntity
  8
0
100
AcDbLine
 10
0.0
 20
-73.85443401210679
 30
0.0
 11
0.0
 21
-75.94059768488206
 31
0.0
  0
LINE
  5
63AE
330
63A4
100
AcDbEntity
  8
0
100
AcDbLine
 10
2.99999999999998
 20
-75.94059768488206
 30
0.0
 11
2.99999999999998
 21
-73.85443401210679
 31
0.0
  0
LINE
  5
63AF
330
63A4
100
AcDbEntity
  8
0
100
AcDbLine
 10
2.999999999999988
 20
-88.80563229086641
 30
0.0
 11
2.99999999999998
 21
-75.94059768488205
 31
0.0
  0
LINE
  5
63B0
330
63A4
100
AcDbEntity
  8
0
100
AcDbLine
 10
2.999999999999988
 20
-88.80563229086639
 30
0.0
 11
2.999999999999988
 21
-90.66
 31
0.0
  0
LINE
  5
63B1
330
63A4
100
AcDbEntity
  8
0
100
AcDbLine
 10
2.999999999999984
 20
-105.0
 30
0.0
 11
2.999999999999988
 21
-90.66
 31
0.0
  0
LINE
  5
63B2
330
63A4
100
AcDbEntity
  8
0
100
AcDbLine
 10
2.999999999999984
 20
-105.0
 30
0.0
 11
2.999999999999984
 21
-107.0
 31
0.0
  0
LINE
  5
63B3
330
63A4
100
AcDbEntity
  8
0
100
AcDbLine
 10
0.0
 20
-107.0
 30
0.0
 11
0.0
 21
-105.0
 31
0.0
  0
LINE
  5
63B4
330
63A4
100
AcDbEntity
  8
0
100
AcDbLine
 10
0.0
 20
-90.66
 30
0.0
 11
0.0
 21
-105.0
 31
0.0
  0
LINE
  5
63B5
330
63A4
100
AcDbEntity
  8
0
100
AcDbLine
 10
0.0
 20
-90.66
 30
0.0
 11
0.0
 21
-88.80563229086639
 31
0.0
  0
LINE
  5
63B6
330
63A4
100
AcDbEntity
  8
0
100
AcDbLine
 10
0.0
 20
-75.94059768488205
 30
0.0
 11
0.0
 21
-88.80563229086641
 31
0.0
  0
LINE
  5
63B7
330
63A4
100
AcDbEntity
  8
0
100
AcDbLine
 10
2.999999999999984
 20
-107.0
 30
0.0
 11
0.0
 21
-107.0
 31
0.0
  0
LINE
  5
63B8
330
63A4
100
AcDbEntity
  8
0
100
AcDbLine
 10
0.0
 20
1.250000000000017
 30
0.0
 11
0.0
 21
3.250000000000028
 31
0.0
  0
LINE
  5
63B9
330
63A4
100
AcDbEntity
  8
0
100
AcDbLine
 10
0.0
 20
105.0
 30
0.0
 11
0.0
 21
3.250000000000028
 31
0.0
  0
LINE
  5
63BA
330
63A4
100
AcDbEntity
  8
0
100
AcDbLine
 10
0.0
 20
105.0
 30
0.0
 11
0.0
 21
107.0
 31
0.0
  0
LINE
  5
63BB
330
63A4
100
AcDbEntity
  8
0
100
AcDbLine
 10
3.000000000000036
 20
107.0
 30
0.0
 11
3.000000000000037
 21
105.0
 31
0.0
  0
LINE
  5
63BC
330
63A4
100
AcDbEntity
  8
0
100
AcDbLine
 10
3.000000000000018
 20
3.250000000000028
 30
0.0
 11
3.00000000000004
 21
105.0
 31
0.0
  0
LINE
  5
63BD
330
63A4
100
AcDbEntity
  8
0
100
AcDbLine
 10
3.000000000000015
 20
3.250000000000029
 30
0.0
 11
3.000000000000012
 21
1.250000000000017
 31
0.0
  0
LINE
  5
63BE
330
63A4
100
AcDbEntity
  8
0
100
AcDbLine
 10
0.0
 20
1.250000000000035
 30
0.0
 11
3.000000000000013
 21
1.250000000000035
 31
0.0
  0
LINE
  5
63BF
330
63A4
100
AcDbEntity
  8
0
100
AcDbLine
 10
0.0
 20
107.0
 30
0.0
 11
3.000000000000036
 21
107.0
 31
0.0
  0
LINE
  5
63C0
330
63A4
100
AcDbEntity
  8
0
100
AcDbLine
 10
70.21214640324021
 20
-99.0
 30
0.0
 11
5.999999999999978
 21
-73.05660883592432
 31
0.0
  0
LINE
  5
63C1
330
63A4
100
AcDbEntity
  8
0
100
AcDbLine
 10
105.2483854891472
 20
-99.0
 30
0.0
 11
70.21214640324021
 21
-99.0
 31
0.0
  0
ARC
  5
63C2
330
63A4
100
AcDbEntity
  8
0
100
AcDbCircle
 10
105.2483854891472
 20
-97.00000000000002
 30
0.0
 40
1.999999999999992
100
AcDbArc
 50
270.0
 51
0.0
  0
LINE
  5
63C3
330
63A4
100
AcDbEntity
  8
0
100
AcDbLine
 10
107.2483854891472
 20
92.00000000000002
 30
0.0
 11
107.2483854891472
 21
-97.00000000000002
 31
0.0
  0
ARC
  5
63C4
330
63A4
100
AcDbEntity
  8
0
100
AcDbCircle
 10
105.2483854891472
 20
92.00000000000002
 30
0.0
 40
1.999999999999992
100
AcDbArc
 50
0.0
 51
90.0
  0
LINE
  5
63C5
330
63A4
100
AcDbEntity
  8
0
100
AcDbLine
 10
99.88423414066055
 20
93.99999999999998
 30
0.0
 11
105.2483854891472
 21
94.00000000000005
 31
0.0
  0
ARC
  5
63C6
330
63A4
100
AcDbEntity
  8
0
100
AcDbCircle
 10
99.88423414066057
 20
92.00000000000002
 30
0.0
 40
1.99999999999995
100
AcDbArc
 50
89.99999999999948
 51
148.9999999999993
  0
LINE
  5
63C7
330
63A4
100
AcDbEntity
  8
0
100
AcDbLine
 10
95.74838548914721
 20
89.00000000000003
 30
0.0
 11
98.16989953925634
 21
93.03007614982014
 31
0.0
  0
LINE
  5
63C8
330
63A4
100
AcDbEntity
  8
0
100
AcDbLine
 10
95.74838548914721
 20
84.00000000000003
 30
0.0
 11
95.74838548914721
 21
89.00000000000003
 31
0.0
  0
ARC
  5
63C9
330
63A4
100
AcDbEntity
  8
0
100
AcDbCircle
 10
91.99838548914719
 20
79.00000000000003
 30
0.0
 40
6.25
100
AcDbArc
 50
270.0
 51
53.13010235415575
  0
LINE
  5
63CA
330
63A4
100
AcDbEntity
  8
0
100
AcDbLine
 10
88.99838548914722
 20
72.75000000000003
 30
0.0
 11
91.99838548914719
 21
72.75000000000003
 31
0.0
  0
ARC
  5
63CB
330
63A4
100
AcDbEntity
  8
0
100
AcDbCircle
 10
88.99838548914722
 20
79.00000000000003
 30
0.0
 40
6.25
100
AcDbArc
 50
180.0
 51
270.0
  0
LINE
  5
63CC
330
63A4
100
AcDbEntity
  8
0
100
AcDbLine
 10
82.74838548914718
 20
90.0
 30
0.0
 11
82.7483854891472
 21
78.99999999999998
 31
0.0
  0
LINE
  5
63CD
330
63A4
100
AcDbEntity
  8
0
100
AcDbLine
 10
79.86163414319904
 20
94.99999999999998
 30
0.0
 11
82.74838548914718
 21
90.0
 31
0.0
  0
ARC
  5
63CE
330
63A4
100
AcDbEntity
  8
0
100
AcDbCircle
 10
78.12958333563017
 20
93.99999999999998
 30
0.0
 40
1.99999999999999
100
AcDbArc
 50
29.99999999999947
 51
90.0
  0
LINE
  5
63CF
330
63A4
100
AcDbEntity
  8
0
100
AcDbLine
 10
63.62799145031508
 20
96.00000000000001
 30
0.0
 11
78.12958333563017
 21
95.99999999999997
 31
0.0
  0
ARC
  5
63D0
330
63A4
100
AcDbEntity
  8
0
100
AcDbCircle
 10
63.62799145031508
 20
93.99999999999998
 30
0.0
 40
1.999999999999797
100
AcDbArc
 50
89.99999999999975
 51
111.9999999999996
  0
LINE
  5
63D1
330
63A4
100
AcDbEntity
  8
0
100
AcDbLine
 10
59.85917230231535
 20
94.63436770913359
 30
0.0
 11
62.87877826348324
 21
95.85436770913359
 31
0.0
  0
ARC
  5
63D2
330
63A4
100
AcDbEntity
  8
0
100
AcDbCircle
 10
60.60838548914718
 20
92.77999999999998
 30
0.0
 40
2.000000000000054
100
AcDbArc
 50
112.0
 51
149.9999999999998
  0
LINE
  5
63D3
330
63A4
100
AcDbEntity
  8
0
100
AcDbLine
 10
57.71838548914718
 20
91.77437316612595
 30
0.0
 11
58.87633468157829
 21
93.78
 31
0.0
  0
LINE
  5
63D4
330
63A4
100
AcDbEntity
  8
0
100
AcDbLine
 10
57.71838548914718
 20
88.2386127875258
 30
0.0
 11
57.71838548914718
 21
91.77437316612595
 31
0.0
  0
ARC
  5
63D5
330
63A4
100
AcDbEntity
  8
0
100
AcDbCircle
 10
54.46838548914719
 20
85.49999999999997
 30
0.0
 40
4.249999999999996
100
AcDbArc
 50
270.0
 51
40.11916689840525
  0
LINE
  5
63D6
330
63A4
100
AcDbEntity
  8
0
100
AcDbLine
 10
52.9683854891472
 20
81.25
 30
0.0
 11
54.46838548914719
 21
81.24999999999998
 31
0.0
  0
ARC
  5
63D7
330
63A4
100
AcDbEntity
  8
0
100
AcDbCircle
 10
52.9683854891472
 20
85.5
 30
0.0
 40
4.250000000000007
100
AcDbArc
 50
180.0
 51
270.0
  0
LINE
  5
63D8
330
63A4
100
AcDbEntity
  8
0
100
AcDbLine
 10
48.7183854891472
 20
87.02083496185029
 30
0.0
 11
48.7183854891472
 21
85.5
 31
0.0
  0
ARC
  5
63D9
330
63A4
100
AcDbEntity
  8
0
100
AcDbCircle
 10
46.7183854891472
 20
87.02083496185029
 30
0.0
 40
2.000000000000002
100
AcDbArc
 50
0.0
 51
111.9999999999998
  0
LINE
  5
63DA
330
63A4
100
AcDbEntity
  8
0
100
AcDbLine
 10
6.000000000000008
 20
72.72660883592429
 30
0.0
 11
45.96917230231539
 21
88.87520267098384
 31
0.0
  0
ARC
  5
63DB
330
63A4
100
AcDbEntity
  8
0
100
AcDbCircle
 10
4.718385489147199
 20
-0.9999999999999964
 30
0.0
 40
2.250000000000005
100
AcDbArc
 50
304.7227868229482
 51
55.27721317705179
  0
CIRCLE
  5
63DC
330
63A4
100
AcDbEntity
  8
0
100
AcDbCircle
 10
88.9983854891472
 20
39.0
 30
0.0
 40
6.25
  0
CIRCLE
  5
63DD
330
63A4
100
AcDbEntity
  8
0
100
AcDbCircle
 10
52.9683854891472
 20
45.5
 30
0.0
 40
4.250000000000007
  0
CIRCLE
  5
63DE
330
63A4
100
AcDbEntity
  8
0
100
AcDbCircle
 10
88.99838548914722
 20
-0.9999999999999964
 30
0.0
 40
6.25
  0
CIRCLE
  5
63DF
330
63A4
100
AcDbEntity
  8
0
100
AcDbCircle
 10
88.9983854891472
 20
-41.0
 30
0.0
 40
6.25
  0
CIRCLE
  5
63E0
330
63A4
100
AcDbEntity
  8
0
100
AcDbCircle
 10
88.99838548914722
 20
-80.99999999999997
 30
0.0
 40
6.25
  0
CIRCLE
  5
63E1
330
63A4
100
AcDbEntity
  8
0
100
AcDbCircle
 10
52.9683854891472
 20
5.500000000000007
 30
0.0
 40
4.250000000000007
  0
CIRCLE
  5
63E2
330
63A4
100
AcDbEntity
  8
0
100
AcDbCircle
 10
52.96838548914718
 20
-34.5
 30
0.0
 40
4.250000000000007
  0
CIRCLE
  5
63E3
330
63A4
100
AcDbEntity
  8
0
100
AcDbCircle
 10
52.9683854891472
 20
-74.5
 30
0.0
 40
4.250000000000007
  0
SPLINE
  5
63E4
330
63A4
100
AcDbEntity
  8
0
100
AcDbSpline
210
0.0
220
0.0
230
1.0
 70
     8
 71
     3
 72
    10
 73
     6
 74
     0
 42
0.000000001
 43
0.0000000001
 40
0.0
 40
0.0
 40
0.0
 40
0.0
 40
0.050700019483503
 40
0.050700019483503
 40
0.0861016274322711
 40
0.0861016274322711
 40
0.0861016274322711
 40
0.0861016274322711
 10
5.999999999999987
 20
0.8493145339750896
 30
0.0
 10
5.846476691445419
 20
0.9199659011372141
 30
0.0
 10
5.515198743754923
 20
1.060232633695932
 30
0.0
 10
4.741959542643655
 20
1.218335028918335
 30
0.0
 10
4.421711722062261
 20
1.250001105790978
 30
0.0
 10
4.109845709134259
 20
1.25
 30
0.0
  0
SPLINE
  5
63E5
330
63A4
100
AcDbEntity
  8
0
100
AcDbSpline
210
0.0
220
0.0
230
1.0
 70
     8
 71
     3
 72
    10
 73
     6
 74
     0
 42
0.000000001
 43
0.0000000001
 40
0.1757394058398277
 40
0.1757394058398277
 40
0.1757394058398277
 40
0.1757394058398277
 40
0.3101197498475104
 40
0.3101197498475104
 40
0.4962683327630347
 40
0.4962683327630347
 40
0.4962683327630347
 40
0.4962683327630347
 10
3.045663593021848
 20
71.89479328613828
 30
0.0
 10
3.421282916610247
 20
72.01100528533823
 30
0.0
 10
3.819163000908862
 20
72.12700955612588
 30
0.0
 10
4.805061856518538
 20
72.40482365365491
 30
0.0
 10
5.400848321169292
 20
72.56526555378208
 30
0.0
 10
6.000000000000017
 20
72.72660883592434
 30
0.0
  0
SPLINE
  5
63E6
330
63A4
100
AcDbEntity
  8
0
100
AcDbSpline
210
0.0
220
0.0
230
1.0
 70
     8
 71
     3
 72
    10
 73
     6
 74
     0
 42
0.000000001
 43
0.0000000001
 40
0.0
 40
0.0
 40
0.0
 40
0.0
 40
0.136299842263447
 40
0.136299842263447
 40
0.2725996852924296
 40
0.2725996852924296
 40
0.2725996852924296
 40
0.2725996852924296
 10
6.000000000000013
 20
72.72660883592429
 30
0.0
 10
5.599991287114225
 20
72.51117594700756
 30
0.0
 10
5.203992570414552
 20
72.29787138984488
 30
0.0
 10
4.466720217059862
 20
71.86700778779528
 30
0.0
 10
4.132838710488887
 20
71.6537032294585
 30
0.0
 10
3.853401043112961
 20
71.43827033933149
 30
0.0
  0
SPLINE
  5
63E7
330
63A4
100
AcDbEntity
  8
0
100
AcDbSpline
210
0.0
220
0.0
230
1.0
 70
     8
 71
     3
 72
    20
 73
    16
 74
     0
 42
0.000000001
 43
0.0000000001
 40
0.0
 40
0.0
 40
0.0
 40
0.0
 40
0.0292038487378875
 40
0.0292038487378875
 40
0.1061564375162876
 40
0.1061564375162876
 40
0.2088926108699408
 40
0.2088926108699408
 40
0.3299865151030747
 40
0.3299865151030747
 40
0.4924973233749224
 40
0.4924973233749224
 40
0.5936467899060658
 40
0.5936467899060658
 40
0.7611251629226504
 40
0.7611251629226504
 40
0.7611251629226504
 40
0.7611251629226504
 10
3.853401043112966
 20
71.43827033933146
 30
0.0
 10
3.793445042269123
 20
71.39233308817506
 30
0.0
 10
3.741953848794756
 20
71.36083413766766
 30
0.0
 10
3.575788910632557
 20
71.27706251268932
 30
0.0
 10
3.487448653742326
 20
71.27001480510863
 30
0.0
 10
3.347036989113085
 20
71.28448206304665
 30
0.0
 10
3.279755693674823
 20
71.32132420164026
 30
0.0
 10
3.160767333411777
 20
71.45595871722427
 30
0.0
 10
3.11598668258139
 20
71.56083197018624
 30
0.0
 10
3.041782749637595
 20
71.85819879564483
 30
0.0
 10
3.021550862804463
 20
72.07343875959023
 30
0.0
 10
3.004875407166083
 20
72.48047903850292
 30
0.0
 10
3.002465043087641
 20
72.64481987674713
 30
0.0
 10
2.999242810694413
 20
73.09074827664524
 30
0.0
 10
3.000000000000012
 20
73.33957521479977
 30
0.0
 10
3.000000000000012
 20
73.52443401210675
 30
0.0
  0
LINE
  5
63E8
330
63A4
100
AcDbEntity
  8
0
100
AcDbLine
 10
2.999999999999993
 20
1.250000000000127
 30
0.0
 11
5.054922854567132
 21
1.250000000000024
 31
0.0
  0
SPLINE
  5
63E9
330
63A4
100
AcDbEntity
  8
0
100
AcDbSpline
210
0.0
220
0.0
230
1.0
 70
     8
 71
     3
 72
    12
 73
     8
 74
     0
 42
0.000000001
 43
0.0000000001
 40
0.0
 40
0.0
 40
0.0
 40
0.0
 40
0.0463759660248914
 40
0.0463759660248914
 40
0.0752344047962389
 40
0.0752344047962389
 40
0.1164597033457663
 40
0.1164597033457663
 40
0.1164597033457663
 40
0.1164597033457663
 10
5.054922854567127
 20
1.25
 30
0.0
 10
5.201638345431893
 20
1.250002234304066
 30
0.0
 10
5.349190800414276
 20
1.22179793248863
 30
0.0
 10
5.581407130250068
 20
1.134644979119183
 30
0.0
 10
5.66725089705494
 20
1.091882110359509
 30
0.0
 10
5.865687391844005
 20
0.968783074724584
 30
0.0
 10
5.951653230259354
 20
0.8938636495425456
 30
0.0
 10
5.999999999999987
 20
0.8493145339750896
 30
0.0
  0
ENDBLK
  5
63A6
330
63A4
100
AcDbEntity
  8
0
100
AcDbBlockEnd
  0
BLOCK
  5
63EB
330
63EA
100
AcDbEntity
  8
0
100
AcDbBlockBegin
  2
TU24-Right
 70
     0
 10
0.0
 20
0.0
 30
0.0
  3
TU24-Right
  1

  0
LINE
  5
63ED
330
63EA
100
AcDbEntity
  8
0
100
AcDbLine
 10
-2.999999999999996
 20
-3.249999999999974
 30
0.0
 11
-5.054922854567137
 21
-3.250000000000012
 31
0.0
  0
SPLINE
  5
63EE
330
63EA
100
AcDbEntity
  8
0
100
AcDbSpline
210
0.0
220
0.0
230
1.0
 70
     8
 71
     3
 72
    12
 73
     8
 74
     0
 42
0.000000001
 43
0.0000000001
 40
0.0
 40
0.0
 40
0.0
 40
0.0
 40
0.0463759660149663
 40
0.0463759660149663
 40
0.0752344047886873
 40
0.0752344047886873
 40
0.1164597033338957
 40
0.1164597033338957
 40
0.1164597033338957
 40
0.1164597033338957
 10
-5.054922854567137
 20
-3.249999999999992
 30
0.0
 10
-5.201638345400503
 20
-3.25000223430429
 30
0.0
 10
-5.34919080037059
 20
-3.22179793249564
 30
0.0
 10
-5.581407130183279
 20
-3.134644979150191
 30
0.0
 10
-5.667250897000251
 20
-3.091882110390233
 30
0.0
 10
-5.865687391811302
 20
-2.968783074749481
 30
0.0
 10
-5.951653230232125
 20
-2.893863649567602
 30
0.0
 10
-6.000000000000003
 20
-2.8493145339751
 30
0.0
  0
SPLINE
  5
63EF
330
63EA
100
AcDbEntity
  8
0
100
AcDbSpline
210
0.0
220
0.0
230
1.0
 70
     8
 71
     3
 72
    10
 73
     6
 74
     0
 42
0.000000001
 43
0.0000000001
 40
0.0
 40
0.0
 40
0.0
 40
0.0
 40
0.0507000194479466
 40
0.0507000194479466
 40
0.0861016273654298
 40
0.0861016273654298
 40
0.0861016273654298
 40
0.0861016273654298
 10
-6.000000000000007
 20
-2.8493145339751
 30
0.0
 10
-5.846476691553091
 20
-2.919965901087628
 30
0.0
 10
-5.515198743796783
 20
-3.060232633687949
 30
0.0
 10
-4.741959542672451
 20
-3.218335028912058
 30
0.0
 10
-4.421711722108891
 20
-3.250001105790651
 30
0.0
 10
-4.10984570913428
 20
-3.249999999999992
 30
0.0
  0
SPLINE
  5
63F0
330
63EA
100
AcDbEntity
  8
0
100
AcDbSpline
210
0.0
220
0.0
230
1.0
 70
     8
 71
     3
 72
    20
 73
    16
 74
     0
 42
0.000000001
 43
0.0000000001
 40
0.0
 40
0.0
 40
0.0
 40
0.0
 40
0.0292038487373738
 40
0.0292038487373738
 40
0.1061564375212628
 40
0.1061564375212628
 40
0.2088926109001386
 40
0.2088926109001386
 40
0.3299865151623278
 40
0.3299865151623278
 40
0.4924973234660227
 40
0.4924973234660227
 40
0.5936467900194213
 40
0.5936467900194213
 40
0.7611251630764599
 40
0.7611251630764599
 40
0.7611251630764599
 40
0.7611251630764599
 10
-3.853401043112947
 20
-71.76827033933152
 30
0.0
 10
-3.793445042270181
 20
-71.72233308817586
 30
0.0
 10
-3.74195384879501
 20
-71.69083413766774
 30
0.0
 10
-3.575788910620852
 20
-71.60706251268358
 30
0.0
 10
-3.487448653730335
 20
-71.60001480510977
 30
0.0
 10
-3.347036989114408
 20
-71.61448206304658
 30
0.0
 10
-3.279755693676505
 20
-71.65132420163942
 30
0.0
 10
-3.160767333415159
 20
-71.78595871721912
 30
0.0
 10
-3.115986682584512
 20
-71.89083197017835
 30
0.0
 10
-3.04178274964225
 20
-72.1881987956198
 30
0.0
 10
-3.021550862807033
 20
-72.4034387595544
 30
0.0
 10
-3.004875407166718
 20
-72.81047903846945
 30
0.0
 10
-3.002465043087972
 20
-72.97481987671786
 30
0.0
 10
-2.999242810694262
 20
-73.42074827663023
 30
0.0
 10
-2.999999999999979
 20
-73.66957521479477
 30
0.0
 10
-2.999999999999979
 20
-73.85443401210679
 30
0.0
  0
SPLINE
  5
63F1
330
63EA
100
AcDbEntity
  8
0
100
AcDbSpline
210
0.0
220
0.0
230
1.0
 70
     8
 71
     3
 72
    10
 73
     6
 74
     0
 42
0.000000001
 43
0.0000000001
 40
0.0
 40
0.0
 40
0.0
 40
0.0
 40
0.1362998422634624
 40
0.1362998422634624
 40
0.272599685292447
 40
0.272599685292447
 40
0.272599685292447
 40
0.272599685292447
 10
-5.99999999999998
 20
-73.05660883592432
 30
0.0
 10
-5.599991287114272
 20
-72.84117594700731
 30
0.0
 10
-5.203992570414577
 20
-72.62787138984475
 30
0.0
 10
-4.466720217059826
 20
-72.19700778779548
 30
0.0
 10
-4.132838710488863
 20
-71.98370322945836
 30
0.0
 10
-3.853401043112947
 20
-71.76827033933152
 30
0.0
  0
SPLINE
  5
63F2
330
63EA
100
AcDbEntity
  8
0
100
AcDbSpline
210
0.0
220
0.0
230
1.0
 70
     8
 71
     3
 72
    10
 73
     6
 74
     0
 42
0.000000001
 43
0.0000000001
 40
0.1757394058398082
 40
0.1757394058398082
 40
0.1757394058398082
 40
0.1757394058398082
 40
0.3101197498474767
 40
0.3101197498474767
 40
0.4962683327629839
 40
0.4962683327629839
 40
0.4962683327629839
 40
0.4962683327629839
 10
-3.04566359302183
 20
-72.22479328613822
 30
0.0
 10
-3.421282916610237
 20
-72.34100528533815
 30
0.0
 10
-3.819163000908851
 20
-72.45700955612583
 30
0.0
 10
-4.805061856518508
 20
-72.73482365365504
 30
0.0
 10
-5.400848321169252
 20
-72.89526555378202
 30
0.0
 10
-5.999999999999978
 20
-73.05660883592432
 30
0.0
  0
LINE
  5
63F3
330
63EA
100
AcDbEntity
  8
0
100
AcDbLine
 10
-2.999999999999964
 20
-107.0
 30
0.0
 11
-2.999999999999964
 21
-105.0
 31
0.0
  0
LINE
  5
63F4
330
63EA
100
AcDbEntity
  8
0
100
AcDbLine
 10
-2.999999999999986
 20
-5.249999999999985
 30
0.0
 11
-2.999999999999964
 21
-105.0
 31
0.0
  0
LINE
  5
63F5
330
63EA
100
AcDbEntity
  8
0
100
AcDbLine
 10
-2.999999999999986
 20
-5.249999999999985
 30
0.0
 11
-2.999999999999987
 21
-3.249999999999975
 31
0.0
  0
LINE
  5
63F6
330
63EA
100
AcDbEntity
  8
0
100
AcDbLine
 10
0.0
 20
-3.249999999999975
 30
0.0
 11
0.0
 21
-5.249999999999985
 31
0.0
  0
LINE
  5
63F7
330
63EA
100
AcDbEntity
  8
0
100
AcDbLine
 10
0.0
 20
-105.0
 30
0.0
 11
0.0
 21
-5.249999999999985
 31
0.0
  0
LINE
  5
63F8
330
63EA
100
AcDbEntity
  8
0
100
AcDbLine
 10
0.0
 20
-105.0
 30
0.0
 11
0.0
 21
-107.0
 31
0.0
  0
LINE
  5
63F9
330
63EA
100
AcDbEntity
  8
0
100
AcDbLine
 10
-2.999999999999964
 20
-107.0
 30
0.0
 11
0.0
 21
-107.0
 31
0.0
  0
LINE
  5
63FA
330
63EA
100
AcDbEntity
  8
0
100
AcDbLine
 10
-2.999999999999987
 20
-3.249999999999992
 30
0.0
 11
0.0
 21
-3.249999999999992
 31
0.0
  0
LINE
  5
63FB
330
63EA
100
AcDbEntity
  8
0
100
AcDbLine
 10
0.0
 20
107.0
 30
0.0
 11
0.0
 21
105.0
 31
0.0
  0
LINE
  5
63FC
330
63EA
100
AcDbEntity
  8
0
100
AcDbLine
 10
0.0
 20
90.33000000000001
 30
0.0
 11
0.0
 21
105.0
 31
0.0
  0
LINE
  5
63FD
330
63EA
100
AcDbEntity
  8
0
100
AcDbLine
 10
0.0
 20
90.33000000000001
 30
0.0
 11
0.0
 21
88.47563229086636
 31
0.0
  0
LINE
  5
63FE
330
63EA
100
AcDbEntity
  8
0
100
AcDbLine
 10
0.0
 20
75.61059768488203
 30
0.0
 11
0.0
 21
88.47563229086643
 31
0.0
  0
LINE
  5
63FF
330
63EA
100
AcDbEntity
  8
0
100
AcDbLine
 10
0.0
 20
73.52443401210675
 30
0.0
 11
0.0
 21
75.61059768488201
 31
0.0
  0
LINE
  5
6400
330
63EA
100
AcDbEntity
  8
0
100
AcDbLine
 10
-3.000000000000012
 20
75.61059768488201
 30
0.0
 11
-3.000000000000013
 21
73.52443401210675
 31
0.0
  0
LINE
  5
6401
330
63EA
100
AcDbEntity
  8
0
100
AcDbLine
 10
-2.999999999999991
 20
88.47563229086643
 30
0.0
 11
-3.000000000000011
 21
75.61059768488203
 31
0.0
  0
LINE
  5
6402
330
63EA
100
AcDbEntity
  8
0
100
AcDbLine
 10
-2.999999999999989
 20
88.47563229086636
 30
0.0
 11
-2.999999999999989
 21
90.33000000000001
 31
0.0
  0
LINE
  5
6403
330
63EA
100
AcDbEntity
  8
0
100
AcDbLine
 10
-2.999999999999993
 20
105.0
 30
0.0
 11
-2.99999999999999
 21
90.33000000000001
 31
0.0
  0
LINE
  5
6404
330
63EA
100
AcDbEntity
  8
0
100
AcDbLine
 10
-2.999999999999997
 20
105.0
 30
0.0
 11
-2.999999999999999
 21
107.0
 31
0.0
  0
LINE
  5
6405
330
63EA
100
AcDbEntity
  8
0
100
AcDbLine
 10
0.0
 20
107.0
 30
0.0
 11
-2.999999999999999
 21
107.0
 31
0.0
  0
LINE
  5
6406
330
63EA
100
AcDbEntity
  8
0
100
AcDbLine
 10
-5.999999999999975
 20
-73.05660883592432
 30
0.0
 11
-70.21214640324021
 21
-99.0
 31
0.0
  0
LINE
  5
6407
330
63EA
100
AcDbEntity
  8
0
100
AcDbLine
 10
-70.21214640324021
 20
-99.0
 30
0.0
 11
-105.2483854891472
 21
-99.0
 31
0.0
  0
ARC
  5
6408
330
63EA
100
AcDbEntity
  8
0
100
AcDbCircle
 10
-105.2483854891472
 20
-97.00000000000002
 30
0.0
 40
1.999999999999992
100
AcDbArc
 50
180.0
 51
270.0
  0
LINE
  5
6409
330
63EA
100
AcDbEntity
  8
0
100
AcDbLine
 10
-107.2483854891472
 20
-97.00000000000002
 30
0.0
 11
-107.2483854891472
 21
92.00000000000004
 31
0.0
  0
ARC
  5
640A
330
63EA
100
AcDbEntity
  8
0
100
AcDbCircle
 10
-105.2483854891472
 20
92.00000000000002
 30
0.0
 40
1.999999999999992
100
AcDbArc
 50
90.0
 51
180.0
  0
LINE
  5
640B
330
63EA
100
AcDbEntity
  8
0
100
AcDbLine
 10
-105.2483854891472
 20
94.00000000000005
 30
0.0
 11
-99.88423414066055
 21
93.99999999999998
 31
0.0
  0
ARC
  5
640C
330
63EA
100
AcDbEntity
  8
0
100
AcDbCircle
 10
-99.88423414066057
 20
92.00000000000002
 30
0.0
 40
1.99999999999995
100
AcDbArc
 50
31.00000000000064
 51
90.0
  0
LINE
  5
640D
330
63EA
100
AcDbEntity
  8
0
100
AcDbLine
 10
-98.16989953925634
 20
93.03007614982014
 30
0.0
 11
-95.74838548914721
 21
89.00000000000003
 31
0.0
  0
LINE
  5
640E
330
63EA
100
AcDbEntity
  8
0
100
AcDbLine
 10
-95.74838548914721
 20
89.00000000000003
 30
0.0
 11
-95.74838548914721
 21
84.00000000000003
 31
0.0
  0
ARC
  5
640F
330
63EA
100
AcDbEntity
  8
0
100
AcDbCircle
 10
-91.99838548914719
 20
79.00000000000003
 30
0.0
 40
6.25
100
AcDbArc
 50
126.8698976458443
 51
270.0
  0
LINE
  5
6410
330
63EA
100
AcDbEntity
  8
0
100
AcDbLine
 10
-91.99838548914719
 20
72.75000000000003
 30
0.0
 11
-88.99838548914722
 21
72.75000000000003
 31
0.0
  0
ARC
  5
6411
330
63EA
100
AcDbEntity
  8
0
100
AcDbCircle
 10
-88.99838548914722
 20
79.00000000000003
 30
0.0
 40
6.25
100
AcDbArc
 50
270.0
 51
0.0
  0
LINE
  5
6412
330
63EA
100
AcDbEntity
  8
0
100
AcDbLine
 10
-82.7483854891472
 20
78.99999999999998
 30
0.0
 11
-82.74838548914718
 21
90.0
 31
0.0
  0
LINE
  5
6413
330
63EA
100
AcDbEntity
  8
0
100
AcDbLine
 10
-82.74838548914718
 20
90.0
 30
0.0
 11
-79.86163414319904
 21
94.99999999999998
 31
0.0
  0
ARC
  5
6414
330
63EA
100
AcDbEntity
  8
0
100
AcDbCircle
 10
-78.12958333563017
 20
93.99999999999998
 30
0.0
 40
1.99999999999999
100
AcDbArc
 50
90.0
 51
150.0000000000005
  0
LINE
  5
6415
330
63EA
100
AcDbEntity
  8
0
100
AcDbLine
 10
-78.12958333563017
 20
95.99999999999997
 30
0.0
 11
-63.62799145031508
 21
96.00000000000001
 31
0.0
  0
ARC
  5
6416
330
63EA
100
AcDbEntity
  8
0
100
AcDbCircle
 10
-63.62799145031508
 20
93.99999999999998
 30
0.0
 40
1.999999999999797
100
AcDbArc
 50
68.00000000000036
 51
90.0
  0
LINE
  5
6417
330
63EA
100
AcDbEntity
  8
0
100
AcDbLine
 10
-62.87877826348324
 20
95.85436770913359
 30
0.0
 11
-59.85917230231535
 21
94.63436770913359
 31
0.0
  0
ARC
  5
6418
330
63EA
100
AcDbEntity
  8
0
100
AcDbCircle
 10
-60.60838548914718
 20
92.77999999999998
 30
0.0
 40
2.000000000000053
100
AcDbArc
 50
30.00000000000016
 51
68.0
  0
LINE
  5
6419
330
63EA
100
AcDbEntity
  8
0
100
AcDbLine
 10
-58.87633468157829
 20
93.78
 30
0.0
 11
-57.71838548914718
 21
91.77437316612595
 31
0.0
  0
LINE
  5
641A
330
63EA
100
AcDbEntity
  8
0
100
AcDbLine
 10
-57.71838548914718
 20
91.77437316612595
 30
0.0
 11
-57.71838548914718
 21
88.2386127875258
 31
0.0
  0
ARC
  5
641B
330
63EA
100
AcDbEntity
  8
0
100
AcDbCircle
 10
-54.46838548914719
 20
85.49999999999997
 30
0.0
 40
4.249999999999996
100
AcDbArc
 50
139.8808331015947
 51
270.0
  0
LINE
  5
641C
330
63EA
100
AcDbEntity
  8
0
100
AcDbLine
 10
-54.46838548914719
 20
81.24999999999998
 30
0.0
 11
-52.9683854891472
 21
81.24999999999998
 31
0.0
  0
ARC
  5
641D
330
63EA
100
AcDbEntity
  8
0
100
AcDbCircle
 10
-52.9683854891472
 20
85.49999999999997
 30
0.0
 40
4.250000000000007
100
AcDbArc
 50
270.0
 51
0.0
  0
LINE
  5
641E
330
63EA
100
AcDbEntity
  8
0
100
AcDbLine
 10
-48.7183854891472
 20
85.5
 30
0.0
 11
-48.7183854891472
 21
87.02083496185029
 31
0.0
  0
ARC
  5
641F
330
63EA
100
AcDbEntity
  8
0
100
AcDbCircle
 10
-46.7183854891472
 20
87.02083496185029
 30
0.0
 40
2.000000000000002
100
AcDbArc
 50
68.00000000000013
 51
180.0
  0
LINE
  5
6420
330
63EA
100
AcDbEntity
  8
0
100
AcDbLine
 10
-45.96917230231539
 20
88.87520267098384
 30
0.0
 11
-6.000000000000009
 21
72.72660883592429
 31
0.0
  0
ARC
  5
6421
330
63EA
100
AcDbEntity
  8
0
100
AcDbCircle
 10
-4.718385489147197
 20
-0.9999999999999964
 30
0.0
 40
2.250000000000005
100
AcDbArc
 50
124.7227868229482
 51
235.2772131770518
  0
LINE
  5
6422
330
63EA
100
AcDbEntity
  8
0
100
AcDbLine
 10
0.0
 20
73.52443401210675
 30
0.0
 11
0.0
 21
1.25
 31
0.0
  0
SPLINE
  5
6423
330
63EA
100
AcDbEntity
  8
0
100
AcDbSpline
210
0.0
220
0.0
230
1.0
 70
     8
 71
     3
 72
    10
 73
     6
 74
     0
 42
0.000000001
 43
0.0000000001
 40
0.0
 40
0.0
 40
0.0
 40
0.0
 40
0.050700019483503
 40
0.050700019483503
 40
0.0861016274322711
 40
0.0861016274322711
 40
0.0861016274322711
 40
0.0861016274322711
 10
-5.999999999999987
 20
0.8493145339750896
 30
0.0
 10
-5.846476691445419
 20
0.9199659011372141
 30
0.0
 10
-5.515198743754923
 20
1.060232633695932
 30
0.0
 10
-4.741959542643655
 20
1.218335028918335
 30
0.0
 10
-4.421711722062261
 20
1.250001105790978
 30
0.0
 10
-4.109845709134259
 20
1.25
 30
0.0
  0
LINE
  5
6424
330
63EA
100
AcDbEntity
  8
0
100
AcDbLine
 10
0.0
 20
1.250000000000243
 30
0.0
 11
-4.109845709134266
 21
1.250000000000092
 31
0.0
  0
SPLINE
  5
6425
330
63EA
100
AcDbEntity
  8
0
100
AcDbSpline
210
0.0
220
0.0
230
1.0
 70
     8
 71
     3
 72
    20
 73
    16
 74
     0
 42
0.000000001
 43
0.0000000001
 40
0.0
 40
0.0
 40
0.0
 40
0.0
 40
0.0405976442382876
 40
0.0405976442382876
 40
0.0716043848006032
 40
0.0716043848006032
 40
0.1028570667555544
 40
0.1028570667555544
 40
0.1477895629815111
 40
0.1477895629815111
 40
0.2029079031134279
 40
0.2029079031134279
 40
0.2338286432219832
 40
0.2338286432219832
 40
0.2734021259215699
 40
0.2734021259215699
 40
0.2734021259215699
 40
0.2734021259215699
 10
-0.0000000000000138
 20
73.52443401210678
 30
0.0
 10
-0.0000000000000137
 20
73.3891085758874
 30
0.0
 10
0.0004087994863952
 20
73.21033752397159
 30
0.0
 10
-0.0015210907019504
 20
72.85063936823647
 30
0.0
 10
-0.0029743327852882
 20
72.67817092496699
 30
0.0
 10
-0.0199745112782909
 20
72.31942874592374
 30
0.0
 10
-0.0352294054456333
 20
72.16210031419269
 30
0.0
 10
-0.0983501783768263
 20
71.83101522961571
 30
0.0
 10
-0.1594143251062305
 20
71.66770930672211
 30
0.0
 10
-0.3865153478632691
 20
71.38905314819858
 30
0.0
 10
-0.5640693250684935
 20
71.30472672751444
 30
0.0
 10
-0.917829328242402
 20
71.26792528922237
 30
0.0
 10
-1.059692441933409
 20
71.27416197723025
 30
0.0
 10
-1.410206428583633
 20
71.33307382122748
 30
0.0
 10
-1.586752567442648
 20
71.39240070648892
 30
0.0
 10
-1.706802086225936
 20
71.43827033933149
 30
0.0
  0
SPLINE
  5
6426
330
63EA
100
AcDbEntity
  8
0
100
AcDbSpline
210
0.0
220
0.0
230
1.0
 70
     8
 71
     3
 72
    12
 73
     8
 74
     0
 42
0.000000001
 43
0.0000000001
 40
0.0
 40
0.0
 40
0.0
 40
0.0
 40
0.1239712457413027
 40
0.1239712457413027
 40
0.3101197498475104
 40
0.3101197498475104
 40
0.4962683327630347
 40
0.4962683327630347
 40
0.4962683327630347
 40
0.4962683327630347
 10
-1.706802086225927
 20
71.43827033933149
 30
0.0
 10
-1.985551206012041
 20
71.54572174907073
 30
0.0
 10
-2.292088205023715
 20
71.65290459519226
 30
0.0
 10
-3.117020801816263
 20
71.92169668343282
 30
0.0
 10
-3.659931912819323
 20
72.08214020590354
 30
0.0
 10
-4.805061856518538
 20
72.40482365365491
 30
0.0
 10
-5.400848321169292
 20
72.56526555378208
 30
0.0
 10
-6.000000000000017
 20
72.72660883592434
 30
0.0
  0
SPLINE
  5
6427
330
63EA
100
AcDbEntity
  8
0
100
AcDbSpline
210
0.0
220
0.0
230
1.0
 70
     8
 71
     3
 72
    12
 73
     8
 74
     0
 42
0.000000001
 43
0.0000000001
 40
0.3900856593608597
 40
0.3900856593608597
 40
0.3900856593608597
 40
0.3900856593608597
 40
0.4924973233749224
 40
0.4924973233749224
 40
0.5936467899060658
 40
0.5936467899060658
 40
0.7611251629226504
 40
0.7611251629226504
 40
0.7611251629226504
 40
0.7611251629226504
 10
-3.045649841383406
 20
71.89478213516458
 30
0.0
 10
-3.028179899716564
 20
72.02227226554661
 30
0.0
 10
-3.017749832805825
 20
72.16622017104625
 30
0.0
 10
-3.004875407166083
 20
72.48047903850292
 30
0.0
 10
-3.002465043087641
 20
72.64481987674713
 30
0.0
 10
-2.999242810694413
 20
73.09074827664524
 30
0.0
 10
-3.000000000000012
 20
73.33957521479977
 30
0.0
 10
-3.000000000000012
 20
73.52443401210675
 30
0.0
  0
CIRCLE
  5
6428
330
63EA
100
AcDbEntity
  8
0
100
AcDbCircle
 10
-88.9983854891472
 20
39.0
 30
0.0
 40
6.25
  0
CIRCLE
  5
6429
330
63EA
100
AcDbEntity
  8
0
100
AcDbCircle
 10
-52.9683854891472
 20
45.5
 30
0.0
 40
4.250000000000007
  0
CIRCLE
  5
642A
330
63EA
100
AcDbEntity
  8
0
100
AcDbCircle
 10
-88.99838548914722
 20
-0.9999999999999964
 30
0.0
 40
6.25
  0
CIRCLE
  5
642B
330
63EA
100
AcDbEntity
  8
0
100
AcDbCircle
 10
-88.9983854891472
 20
-41.0
 30
0.0
 40
6.25
  0
CIRCLE
  5
642C
330
63EA
100
AcDbEntity
  8
0
100
AcDbCircle
 10
-88.99838548914722
 20
-81.0
 30
0.0
 40
6.25
  0
CIRCLE
  5
642D
330
63EA
100
AcDbEntity
  8
0
100
AcDbCircle
 10
-52.9683854891472
 20
5.500000000000007
 30
0.0
 40
4.250000000000007
  0
CIRCLE
  5
642E
330
63EA
100
AcDbEntity
  8
0
100
AcDbCircle
 10
-52.96838548914718
 20
-34.5
 30
0.0
 40
4.250000000000007
  0
CIRCLE
  5
642F
330
63EA
100
AcDbEntity
  8
0
100
AcDbCircle
 10
-52.9683854891472
 20
-74.5
 30
0.0
 40
4.250000000000007
  0
ENDBLK
  5
63EC
330
63EA
100
AcDbEntity
  8
0
100
AcDbBlockEnd
  0
BLOCK
  5
6431
330
6430
100
AcDbEntity
  8
0
100
AcDbBlockBegin
  2
TU24-Top
 70
     0
 10
0.0
 20
0.0
 30
0.0
  3
TU24-Top
  1

  0
ARC
  5
6433
330
6430
100
AcDbEntity
  8
0
100
AcDbCircle
 10
4.500000000000053
 20
-5.999999999999996
 30
0.0
 40
3.0
100
AcDbArc
 50
90.00000000000003
 51
161.6376337998028
  0
SPLINE
  5
6434
330
6430
100
AcDbEntity
  8
0
100
AcDbSpline
210
0.0
220
0.0
230
1.0
 70
     8
 71
     3
 72
    12
 73
     8
 74
     0
 42
0.000000001
 43
0.0000000001
 40
0.0
 40
0.0
 40
0.0
 40
0.0
 40
0.0463759660149663
 40
0.0463759660149663
 40
0.0752344047886873
 40
0.0752344047886873
 40
0.1164597033338957
 40
0.1164597033338957
 40
0.1164597033338957
 40
0.1164597033338957
 10
1.652750592382144
 20
-5.054922854567137
 30
0.0
 10
1.604051852855981
 20
-5.201638345400503
 30
0.0
 10
1.567843580464429
 20
-5.34919080037059
 30
0.0
 10
1.52797240603532
 20
-5.581407130183279
 30
0.0
 10
1.517383414118061
 20
-5.667250897000251
 30
0.0
 10
1.500719887640958
 20
-5.865687391811302
 30
0.0
 10
1.500000000000028
 20
-5.951653230232125
 30
0.0
 10
1.500000000000028
 20
-6.000000000000003
 30
0.0
  0
LINE
  5
6435
330
6430
100
AcDbEntity
  8
0
100
AcDbLine
 10
-29.99999999999995
 20
0.0
 30
0.0
 11
-27.99999999999996
 21
0.0
 31
0.0
  0
LINE
  5
6436
330
6430
100
AcDbEntity
  8
0
100
AcDbLine
 10
-1.732050807568844
 20
0.0
 30
0.0
 11
-27.99999999999996
 21
0.0
 31
0.0
  0
LINE
  5
6437
330
6430
100
AcDbEntity
  8
0
100
AcDbLine
 10
0.0
 20
0.0
 30
0.0
 11
-1.732050807568844
 21
0.0
 31
0.0
  0
LINE
  5
6438
330
6430
100
AcDbEntity
  8
0
100
AcDbLine
 10
1.732050807568926
 20
0.0
 30
0.0
 11
0.0
 21
0.0
 31
0.0
  0
LINE
  5
6439
330
6430
100
AcDbEntity
  8
0
100
AcDbLine
 10
28.00000000000003
 20
0.0
 30
0.0
 11
1.732050807568925
 21
0.0
 31
0.0
  0
LINE
  5
643A
330
6430
100
AcDbEntity
  8
0
100
AcDbLine
 10
28.00000000000003
 20
0.0
 30
0.0
 11
30.00000000000002
 21
0.0
 31
0.0
  0
LINE
  5
643B
330
6430
100
AcDbEntity
  8
0
100
AcDbLine
 10
30.00000000000002
 20
-2.999999999999997
 30
0.0
 11
28.00000000000003
 21
-2.999999999999999
 31
0.0
  0
LINE
  5
643C
330
6430
100
AcDbEntity
  8
0
100
AcDbLine
 10
1.732050807568927
 20
-3.000000000000016
 30
0.0
 11
28.00000000000003
 21
-2.999999999999999
 31
0.0
  0
LINE
  5
643D
330
6430
100
AcDbEntity
  8
0
100
AcDbLine
 10
0.0
 20
-3.000000000000017
 30
0.0
 11
1.732050807568927
 21
-3.000000000000016
 31
0.0
  0
LINE
  5
643E
330
6430
100
AcDbEntity
  8
0
100
AcDbLine
 10
-1.732050807568843
 20
-3.000000000000018
 30
0.0
 11
0.0
 21
-3.000000000000017
 31
0.0
  0
LINE
  5
643F
330
6430
100
AcDbEntity
  8
0
100
AcDbLine
 10
-27.99999999999996
 20
-3.000000000000036
 30
0.0
 11
-1.732050807568845
 21
-3.000000000000018
 31
0.0
  0
LINE
  5
6440
330
6430
100
AcDbEntity
  8
0
100
AcDbLine
 10
-27.99999999999996
 20
-3.000000000000036
 30
0.0
 11
-29.99999999999995
 21
-3.000000000000037
 31
0.0
  0
LINE
  5
6441
330
6430
100
AcDbEntity
  8
0
100
AcDbLine
 10
-29.99999999999997
 20
0.0
 30
0.0
 11
-29.99999999999997
 21
-3.00000000000004
 31
0.0
  0
LINE
  5
6442
330
6430
100
AcDbEntity
  8
0
100
AcDbLine
 10
-1.732050807568844
 20
0.0
 30
0.0
 11
-1.732050807568843
 21
-3.000000000000018
 31
0.0
  0
LINE
  5
6443
330
6430
100
AcDbEntity
  8
0
100
AcDbLine
 10
0.0
 20
0.0
 30
0.0
 11
0.0
 21
-3.000000000000017
 31
0.0
  0
LINE
  5
6444
330
6430
100
AcDbEntity
  8
0
100
AcDbLine
 10
1.732050807568926
 20
0.0
 30
0.0
 11
1.732050807568927
 21
-3.000000000000016
 31
0.0
  0
LINE
  5
6445
330
6430
100
AcDbEntity
  8
0
100
AcDbLine
 10
30.00000000000004
 20
0.0
 30
0.0
 11
30.00000000000004
 21
-2.999999999999993
 31
0.0
  0
LINE
  5
6446
330
6430
100
AcDbEntity
  8
0
100
AcDbLine
 10
1.500000000000122
 20
-107.2483854891472
 30
0.0
 11
-1.499999999999884
 21
-107.2483854891472
 31
0.0
  0
LINE
  5
6447
330
6430
100
AcDbEntity
  8
0
100
AcDbLine
 10
-1.499999999999884
 20
-107.2483854891472
 30
0.0
 11
-1.499999999999885
 21
-105.2483854891472
 31
0.0
  0
LINE
  5
6448
330
6430
100
AcDbEntity
  8
0
100
AcDbLine
 10
1.500000000000121
 20
-105.2483854891472
 30
0.0
 11
1.500000000000122
 21
-107.2483854891472
 31
0.0
  0
LINE
  5
6449
330
6430
100
AcDbEntity
  8
0
100
AcDbLine
 10
-1.499999999999886
 20
-99.88423414066055
 30
0.0
 11
-1.499999999999885
 21
-105.2483854891472
 31
0.0
  0
LINE
  5
644A
330
6430
100
AcDbEntity
  8
0
100
AcDbLine
 10
1.500000000000121
 20
-105.2483854891472
 30
0.0
 11
1.500000000000102
 21
-99.88423414066055
 31
0.0
  0
LINE
  5
644B
330
6430
100
AcDbEntity
  8
0
100
AcDbLine
 10
-1.499999999999886
 20
-99.8842341406606
 30
0.0
 11
-1.499999999999887
 21
-98.16989953925641
 31
0.0
  0
LINE
  5
644C
330
6430
100
AcDbEntity
  8
0
100
AcDbLine
 10
1.500000000000102
 20
-98.1698995392564
 30
0.0
 11
1.500000000000103
 21
-99.88423414066057
 31
0.0
  0
LINE
  5
644D
330
6430
100
AcDbEntity
  8
0
100
AcDbLine
 10
-1.499999999999887
 20
-95.74838548914721
 30
0.0
 11
-1.499999999999887
 21
-98.16989953925634
 31
0.0
  0
LINE
  5
644E
330
6430
100
AcDbEntity
  8
0
100
AcDbLine
 10
1.500000000000102
 20
-98.16989953925634
 30
0.0
 11
1.500000000000101
 21
-95.74838548914721
 31
0.0
  0
LINE
  5
644F
330
6430
100
AcDbEntity
  8
0
100
AcDbLine
 10
1.500000000000101
 20
-95.74838548914721
 30
0.0
 11
-1.499999999999887
 21
-95.74838548914721
 31
0.0
  0
LINE
  5
6450
330
6430
100
AcDbEntity
  8
0
100
AcDbLine
 10
-1.499999999999889
 20
-91.99838548914719
 30
0.0
 11
-1.499999999999886
 21
-95.74838548914721
 31
0.0
  0
LINE
  5
6451
330
6430
100
AcDbEntity
  8
0
100
AcDbLine
 10
1.500000000000102
 20
-95.74838548914721
 30
0.0
 11
1.5000000000001
 21
-91.99838548914719
 31
0.0
  0
LINE
  5
6452
330
6430
100
AcDbEntity
  8
0
100
AcDbLine
 10
-1.499999999999906
 20
-88.99838548914722
 30
0.0
 11
-1.499999999999888
 21
-91.99838548914719
 31
0.0
  0
LINE
  5
6453
330
6430
100
AcDbEntity
  8
0
100
AcDbLine
 10
1.500000000000101
 20
-91.99838548914719
 30
0.0
 11
1.5000000000001
 21
-88.99838548914722
 31
0.0
  0
LINE
  5
6454
330
6430
100
AcDbEntity
  8
0
100
AcDbLine
 10
-1.49999999999991
 20
-82.74838548914722
 30
0.0
 11
-1.499999999999907
 21
-88.99838548914722
 31
0.0
  0
LINE
  5
6455
330
6430
100
AcDbEntity
  8
0
100
AcDbLine
 10
1.500000000000099
 20
-88.99838548914722
 30
0.0
 11
1.500000000000096
 21
-82.74838548914722
 31
0.0
  0
LINE
  5
6456
330
6430
100
AcDbEntity
  8
0
100
AcDbLine
 10
1.500000000000098
 20
-82.74838548914718
 30
0.0
 11
-1.499999999999908
 21
-82.74838548914718
 31
0.0
  0
LINE
  5
6457
330
6430
100
AcDbEntity
  8
0
100
AcDbLine
 10
-1.499999999999908
 20
-79.86163414319904
 30
0.0
 11
-1.499999999999908
 21
-82.74838548914718
 31
0.0
  0
LINE
  5
6458
330
6430
100
AcDbEntity
  8
0
100
AcDbLine
 10
1.500000000000098
 20
-82.74838548914718
 30
0.0
 11
1.500000000000098
 21
-79.86163414319904
 31
0.0
  0
LINE
  5
6459
330
6430
100
AcDbEntity
  8
0
100
AcDbLine
 10
-1.499999999999908
 20
-79.86163414319905
 30
0.0
 11
-1.499999999999908
 21
-78.12958333563017
 31
0.0
  0
LINE
  5
645A
330
6430
100
AcDbEntity
  8
0
100
AcDbLine
 10
1.500000000000098
 20
-78.12958333563017
 30
0.0
 11
1.500000000000099
 21
-79.86163414319905
 31
0.0
  0
LINE
  5
645B
330
6430
100
AcDbEntity
  8
0
100
AcDbLine
 10
-1.499999999999912
 20
-63.62799145031508
 30
0.0
 11
-1.499999999999909
 21
-78.12958333563017
 31
0.0
  0
LINE
  5
645C
330
6430
100
AcDbEntity
  8
0
100
AcDbLine
 10
1.500000000000097
 20
-78.12958333563017
 30
0.0
 11
1.500000000000094
 21
-63.62799145031508
 31
0.0
  0
LINE
  5
645D
330
6430
100
AcDbEntity
  8
0
100
AcDbLine
 10
-1.499999999999912
 20
-63.62799145031509
 30
0.0
 11
-1.499999999999912
 21
-62.87877826348334
 31
0.0
  0
LINE
  5
645E
330
6430
100
AcDbEntity
  8
0
100
AcDbLine
 10
1.500000000000094
 20
-62.87877826348332
 30
0.0
 11
1.500000000000094
 21
-63.62799145031508
 31
0.0
  0
LINE
  5
645F
330
6430
100
AcDbEntity
  8
0
100
AcDbLine
 10
-1.499999999999913
 20
-59.85917230231535
 30
0.0
 11
-1.499999999999912
 21
-62.87877826348324
 31
0.0
  0
LINE
  5
6460
330
6430
100
AcDbEntity
  8
0
100
AcDbLine
 10
1.500000000000094
 20
-62.87877826348324
 30
0.0
 11
1.500000000000093
 21
-59.85917230231535
 31
0.0
  0
LINE
  5
6461
330
6430
100
AcDbEntity
  8
0
100
AcDbLine
 10
-1.499999999999913
 20
-59.85917230231534
 30
0.0
 11
-1.499999999999914
 21
-58.87633468157826
 31
0.0
  0
LINE
  5
6462
330
6430
100
AcDbEntity
  8
0
100
AcDbLine
 10
1.500000000000092
 20
-58.87633468157826
 30
0.0
 11
1.500000000000093
 21
-59.85917230231534
 31
0.0
  0
LINE
  5
6463
330
6430
100
AcDbEntity
  8
0
100
AcDbLine
 10
-1.499999999999913
 20
-57.71838548914718
 30
0.0
 11
-1.499999999999913
 21
-58.87633468157829
 31
0.0
  0
LINE
  5
6464
330
6430
100
AcDbEntity
  8
0
100
AcDbLine
 10
1.500000000000093
 20
-58.87633468157829
 30
0.0
 11
1.500000000000093
 21
-57.71838548914718
 31
0.0
  0
LINE
  5
6465
330
6430
100
AcDbEntity
  8
0
100
AcDbLine
 10
1.500000000000093
 20
-57.71838548914718
 30
0.0
 11
-1.499999999999913
 21
-57.71838548914718
 31
0.0
  0
LINE
  5
6466
330
6430
100
AcDbEntity
  8
0
100
AcDbLine
 10
-1.499999999999914
 20
-54.46838548914719
 30
0.0
 11
-1.499999999999912
 21
-57.71838548914718
 31
0.0
  0
LINE
  5
6467
330
6430
100
AcDbEntity
  8
0
100
AcDbLine
 10
1.500000000000094
 20
-57.71838548914718
 30
0.0
 11
1.500000000000092
 21
-54.46838548914719
 31
0.0
  0
LINE
  5
6468
330
6430
100
AcDbEntity
  8
0
100
AcDbLine
 10
-1.499999999999914
 20
-52.9683854891472
 30
0.0
 11
-1.499999999999914
 21
-54.46838548914719
 31
0.0
  0
LINE
  5
6469
330
6430
100
AcDbEntity
  8
0
100
AcDbLine
 10
1.500000000000092
 20
-54.46838548914719
 30
0.0
 11
1.500000000000092
 21
-52.9683854891472
 31
0.0
  0
LINE
  5
646A
330
6430
100
AcDbEntity
  8
0
100
AcDbLine
 10
-1.499999999999917
 20
-48.7183854891472
 30
0.0
 11
-1.499999999999915
 21
-52.9683854891472
 31
0.0
  0
LINE
  5
646B
330
6430
100
AcDbEntity
  8
0
100
AcDbLine
 10
1.500000000000091
 20
-52.9683854891472
 30
0.0
 11
1.500000000000089
 21
-48.7183854891472
 31
0.0
  0
LINE
  5
646C
330
6430
100
AcDbEntity
  8
0
100
AcDbLine
 10
1.500000000000091
 20
-48.7183854891472
 30
0.0
 11
-1.499999999999915
 21
-48.7183854891472
 31
0.0
  0
LINE
  5
646D
330
6430
100
AcDbEntity
  8
0
100
AcDbLine
 10
-1.499999999999915
 20
-48.71838548914721
 30
0.0
 11
-1.499999999999916
 21
-45.96917230231539
 31
0.0
  0
LINE
  5
646E
330
6430
100
AcDbEntity
  8
0
100
AcDbLine
 10
1.50000000000009
 20
-45.96917230231539
 30
0.0
 11
1.500000000000091
 21
-48.71838548914721
 31
0.0
  0
LINE
  5
646F
330
6430
100
AcDbEntity
  8
0
100
AcDbLine
 10
-1.499999999999943
 20
-6.000000000000008
 30
0.0
 11
-1.499999999999916
 21
-45.96917230231539
 31
0.0
  0
LINE
  5
6470
330
6430
100
AcDbEntity
  8
0
100
AcDbLine
 10
1.50000000000009
 20
-45.96917230231539
 30
0.0
 11
1.500000000000046
 21
-6.000000000000009
 31
0.0
  0
LINE
  5
6471
330
6430
100
AcDbEntity
  8
0
100
AcDbLine
 10
-3.99999999999991
 20
-80.52136883535462
 30
0.0
 11
-3.999999999999901
 21
-97.47540214293978
 31
0.0
  0
ARC
  5
6472
330
6430
100
AcDbEntity
  8
0
100
AcDbCircle
 10
-1.499999999999912
 20
-80.52136883535462
 30
0.0
 40
2.5
100
AcDbArc
 50
114.3157391711763
 51
180.0
  0
ARC
  5
6473
330
6430
100
AcDbEntity
  8
0
100
AcDbCircle
 10
-1.499999999999901
 20
-97.47540214293978
 30
0.0
 40
2.5
100
AcDbArc
 50
180.0
 51
245.684260828824
  0
ARC
  5
6474
330
6430
100
AcDbEntity
  8
0
100
AcDbCircle
 10
-3.249999999999903
 20
-76.64838548914722
 30
0.0
 40
1.75
100
AcDbArc
 50
294.3157391711765
 51
0.0
  0
ARC
  5
6475
330
6430
100
AcDbEntity
  8
0
100
AcDbCircle
 10
-3.249999999999888
 20
-101.3483854891472
 30
0.0
 40
1.75
100
AcDbArc
 50
0.0
 51
65.68426082882351
  0
LINE
  5
6476
330
6430
100
AcDbEntity
  8
0
100
AcDbLine
 10
4.000000000000071
 20
-46.49136883535461
 30
0.0
 11
4.000000000000078
 21
-59.44540214293979
 31
0.0
  0
ARC
  5
6477
330
6430
100
AcDbEntity
  8
0
100
AcDbCircle
 10
1.50000000000007
 20
-46.49136883535461
 30
0.0
 40
2.5
100
AcDbArc
 50
0.0
 51
65.68426082882336
  0
ARC
  5
6478
330
6430
100
AcDbEntity
  8
0
100
AcDbCircle
 10
1.500000000000078
 20
-59.44540214293979
 30
0.0
 40
2.5
100
AcDbArc
 50
294.3157391711768
 51
0.0
  0
ARC
  5
6479
330
6430
100
AcDbEntity
  8
0
100
AcDbCircle
 10
3.250000000000076
 20
-42.61838548914719
 30
0.0
 40
1.75
100
AcDbArc
 50
180.0
 51
245.6842608288235
  0
ARC
  5
647A
330
6430
100
AcDbEntity
  8
0
100
AcDbCircle
 10
3.250000000000087
 20
-63.31838548914721
 30
0.0
 40
1.75
100
AcDbArc
 50
114.3157391711765
 51
180.0
  0
LINE
  5
647B
330
6430
100
AcDbEntity
  8
0
100
AcDbLine
 10
-3.999999999999939
 20
-23.3713688353546
 30
0.0
 11
-3.999999999999939
 21
-23.62540214293982
 31
0.0
  0
ARC
  5
647C
330
6430
100
AcDbEntity
  8
0
100
AcDbCircle
 10
-1.499999999999939
 20
-23.37136883535461
 30
0.0
 40
2.5
100
AcDbArc
 50
114.3157391711766
 51
180.0
  0
ARC
  5
647D
330
6430
100
AcDbEntity
  8
0
100
AcDbCircle
 10
-3.249999999999928
 20
-19.4983854891472
 30
0.0
 40
1.75
100
AcDbArc
 50
294.3157391711765
 51
0.0
  0
ARC
  5
647E
330
6430
100
AcDbEntity
  8
0
100
AcDbCircle
 10
-1.499999999999939
 20
-23.6254021429398
 30
0.0
 40
2.5
100
AcDbArc
 50
180.0
 51
245.6842608288234
  0
ARC
  5
647F
330
6430
100
AcDbEntity
  8
0
100
AcDbCircle
 10
-3.249999999999927
 20
-27.49838548914721
 30
0.0
 40
1.75
100
AcDbArc
 50
0.0
 51
65.68426082882357
  0
LINE
  5
6480
330
6430
100
AcDbEntity
  8
0
100
AcDbLine
 10
1.500000000000046
 20
-6.000000000000008
 30
0.0
 11
-0.5009609454744108
 21
-6.000000000000008
 31
0.0
  0
LINE
  5
6481
330
6430
100
AcDbEntity
  8
0
100
AcDbLine
 10
-0.5009609454744109
 20
-6.000000000000008
 30
0.0
 11
-1.499999999999943
 21
-6.000000000000008
 31
0.0
  0
SPLINE
  5
6482
330
6430
100
AcDbEntity
  8
0
100
AcDbSpline
210
0.0
220
0.0
230
1.0
 70
     8
 71
     3
 72
    10
 73
     6
 74
     0
 42
0.000000001
 43
0.0000000001
 40
0.1702807264027203
 40
0.1702807264027203
 40
0.1702807264027203
 40
0.1702807264027203
 40
0.3101197498475104
 40
0.3101197498475104
 40
0.4962683327630347
 40
0.4962683327630347
 40
0.4962683327630347
 40
0.4962683327630347
 10
0.6961521796114473
 20
-3.000000017594573
 30
0.0
 10
0.9207315404146145
 20
-3.388983750843131
 30
0.0
 10
1.101162573307826
 20
-3.802372922516113
 30
0.0
 10
1.410254314391206
 20
-4.805061856518538
 30
0.0
 10
1.500000000000046
 20
-5.400848321169292
 30
0.0
 10
1.500000000000046
 20
-6.000000000000017
 30
0.0
  0
SPLINE
  5
6483
330
6430
100
AcDbEntity
  8
0
100
AcDbSpline
210
0.0
220
0.0
230
1.0
 70
     8
 71
     3
 72
    10
 73
     6
 74
     0
 42
0.000000001
 43
0.0000000001
 40
0.0
 40
0.0
 40
0.0
 40
0.0
 40
0.136299842263447
 40
0.136299842263447
 40
0.2725996852924296
 40
0.2725996852924296
 40
0.2725996852924296
 40
0.2725996852924296
 10
-1.499999999999943
 20
-6.000000000000013
 30
0.0
 10
-1.499999999999943
 20
-5.599991287114225
 30
0.0
 10
-1.580003492034347
 20
-5.203992570414552
 30
0.0
 10
-1.890582336322676
 20
-4.466720217059862
 30
0.0
 10
-2.118043726024076
 20
-4.132838710488887
 30
0.0
 10
-2.40426315624034
 20
-3.853401043112961
 30
0.0
  0
SPLINE
  5
6484
330
6430
100
AcDbEntity
  8
0
100
AcDbSpline
210
0.0
220
0.0
230
1.0
 70
     8
 71
     3
 72
    20
 73
    16
 74
     0
 42
0.000000001
 43
0.0000000001
 40
0.0
 40
0.0
 40
0.0
 40
0.0
 40
0.0292038487378875
 40
0.0292038487378875
 40
0.1061564375162876
 40
0.1061564375162876
 40
0.2088926108699408
 40
0.2088926108699408
 40
0.3299865151030747
 40
0.3299865151030747
 40
0.4924973233749224
 40
0.4924973233749224
 40
0.5936467899060658
 40
0.5936467899060658
 40
0.7610143406675802
 40
0.7610143406675802
 40
0.7610143406675802
 40
0.7610143406675802
 10
-2.40426315624034
 20
-3.853401043112966
 30
0.0
 10
-2.465674248598486
 20
-3.793445042269123
 30
0.0
 10
-2.523558632590845
 20
-3.741953848794756
 30
0.0
 10
-2.72276558822605
 20
-3.575788910632557
 30
0.0
 10
-2.856603618606403
 20
-3.487448653742326
 30
0.0
 10
-3.090693379599518
 20
-3.347036989113085
 30
0.0
 10
-3.226847097519958
 20
-3.279755693674823
 30
0.0
 10
-3.516412986710755
 20
-3.160767333411777
 30
0.0
 10
-3.662991456269122
 20
-3.11598668258139
 30
0.0
 10
-3.969360485268407
 20
-3.041782749637595
 30
0.0
 10
-4.121946791567047
 20
-3.021550862804463
 30
0.0
 10
-4.313761828392525
 20
-3.004875407166083
 30
0.0
 10
-4.371358554578545
 20
-3.002465043087641
 30
0.0
 10
-4.482821456215225
 20
-2.999244140024466
 30
0.0
 10
-4.500000709263653
 20
-2.999998999130443
 30
0.0
 10
-4.500000023948281
 20
-2.999999999006401
 30
0.0
  0
ENDBLK
  5
6432
330
6430
100
AcDbEntity
  8
0
100
AcDbBlockEnd
  0
BLOCK
  5
6486
330
6485
100
AcDbEntity
  8
0
100
AcDbBlockBegin
  2
TU24-Bottom
 70
     0
 10
0.0
 20
0.0
 30
0.0
  3
TU24-Bottom
  1

  0
SPLINE
  5
6488
330
6485
100
AcDbEntity
  8
0
100
AcDbSpline
210
0.0
220
0.0
230
1.0
 70
     8
 71
     3
 72
    20
 73
    16
 74
     0
 42
0.000000001
 43
0.0000000001
 40
0.0
 40
0.0
 40
0.0
 40
0.0
 40
0.0292038487373738
 40
0.0292038487373738
 40
0.1061564375212628
 40
0.1061564375212628
 40
0.2088926109001386
 40
0.2088926109001386
 40
0.3299865151623278
 40
0.3299865151623278
 40
0.4924973234660227
 40
0.4924973234660227
 40
0.5936467900194213
 40
0.5936467900194213
 40
0.7610143408215812
 40
0.7610143408215812
 40
0.7610143408215812
 40
0.7610143408215812
 10
2.404263156240424
 20
3.853401043112947
 30
0.0
 10
2.465674248597469
 20
3.793445042270181
 30
0.0
 10
2.523558632590592
 20
3.74195384879501
 30
0.0
 10
2.722765588240168
 20
3.575788910620852
 30
0.0
 10
2.856603618626418
 20
3.487448653730335
 30
0.0
 10
3.090693379597435
 20
3.347036989114408
 30
0.0
 10
3.226847097516685
 20
3.279755693676505
 30
0.0
 10
3.516412986701655
 20
3.160767333415159
 30
0.0
 10
3.662991456258655
 20
3.115986682584512
 30
0.0
 10
3.969360485245896
 20
3.04178274964225
 30
0.0
 10
4.121946791545141
 20
3.021550862807033
 30
0.0
 10
4.313761828380016
 20
3.004875407166718
 30
0.0
 10
4.371358554569553
 20
3.002465043087972
 30
0.0
 10
4.482821456214472
 20
2.999244140024312
 30
0.0
 10
4.500000709263781
 20
2.999998999130411
 30
0.0
 10
4.500000023948365
 20
2.999999999006368
 30
0.0
  0
SPLINE
  5
6489
330
6485
100
AcDbEntity
  8
0
100
AcDbSpline
210
0.0
220
0.0
230
1.0
 70
     8
 71
     3
 72
    10
 73
     6
 74
     0
 42
0.000000001
 43
0.0000000001
 40
0.0
 40
0.0
 40
0.0
 40
0.0
 40
0.1362998422634624
 40
0.1362998422634624
 40
0.272599685292447
 40
0.272599685292447
 40
0.272599685292447
 40
0.272599685292447
 10
1.50000000000001
 20
5.99999999999998
 30
0.0
 10
1.50000000000001
 20
5.599991287114272
 30
0.0
 10
1.580003492034414
 20
5.203992570414577
 30
0.0
 10
1.890582336322779
 20
4.466720217059826
 30
0.0
 10
2.118043726024161
 20
4.132838710488863
 30
0.0
 10
2.404263156240407
 20
3.853401043112947
 30
0.0
  0
LINE
  5
648A
330
6485
100
AcDbEntity
  8
0
100
AcDbLine
 10
0.500960945470979
 20
5.999999999999984
 30
0.0
 11
1.500000000000046
 21
5.999999999999975
 31
0.0
  0
LINE
  5
648B
330
6485
100
AcDbEntity
  8
0
100
AcDbLine
 10
-1.49999999999996
 20
5.999999999999975
 30
0.0
 11
0.500960945470979
 21
5.999999999999984
 31
0.0
  0
SPLINE
  5
648C
330
6485
100
AcDbEntity
  8
0
100
AcDbSpline
210
0.0
220
0.0
230
1.0
 70
     8
 71
     3
 72
    10
 73
     6
 74
     0
 42
0.000000001
 43
0.0000000001
 40
0.1702807264026981
 40
0.1702807264026981
 40
0.1702807264026981
 40
0.1702807264026981
 40
0.3101197498474767
 40
0.3101197498474767
 40
0.4962683327629839
 40
0.4962683327629839
 40
0.4962683327629839
 40
0.4962683327629839
 10
-0.6961521796113536
 20
3.000000017594528
 30
0.0
 10
-0.9207315404145345
 20
3.388983750843102
 30
0.0
 10
-1.101162573307752
 20
3.802372922516092
 30
0.0
 10
-1.410254314391121
 20
4.805061856518508
 30
0.0
 10
-1.499999999999961
 20
5.400848321169252
 30
0.0
 10
-1.49999999999996
 20
5.999999999999978
 30
0.0
  0
LINE
  5
648D
330
6485
100
AcDbEntity
  8
0
100
AcDbLine
 10
-29.99999999999998
 20
2.999999999999984
 30
0.0
 11
-27.99999999999999
 21
2.999999999999984
 31
0.0
  0
LINE
  5
648E
330
6485
100
AcDbEntity
  8
0
100
AcDbLine
 10
-1.732050807568861
 20
2.999999999999975
 30
0.0
 11
-27.99999999999999
 21
2.999999999999984
 31
0.0
  0
LINE
  5
648F
330
6485
100
AcDbEntity
  8
0
100
AcDbLine
 10
0.0
 20
2.999999999999975
 30
0.0
 11
-1.732050807568861
 21
2.999999999999975
 31
0.0
  0
LINE
  5
6490
330
6485
100
AcDbEntity
  8
0
100
AcDbLine
 10
1.732050807568892
 20
2.999999999999973
 30
0.0
 11
0.0
 21
2.999999999999975
 31
0.0
  0
LINE
  5
6491
330
6485
100
AcDbEntity
  8
0
100
AcDbLine
 10
28.00000000000003
 20
2.999999999999964
 30
0.0
 11
1.73205080756889
 21
2.999999999999973
 31
0.0
  0
LINE
  5
6492
330
6485
100
AcDbEntity
  8
0
100
AcDbLine
 10
28.00000000000003
 20
2.999999999999964
 30
0.0
 11
30.00000000000003
 21
2.999999999999964
 31
0.0
  0
LINE
  5
6493
330
6485
100
AcDbEntity
  8
0
100
AcDbLine
 10
30.00000000000003
 20
0.0
 30
0.0
 11
28.00000000000003
 21
0.0
 31
0.0
  0
LINE
  5
6494
330
6485
100
AcDbEntity
  8
0
100
AcDbLine
 10
1.732050807568891
 20
0.0
 30
0.0
 11
28.00000000000003
 21
0.0
 31
0.0
  0
LINE
  5
6495
330
6485
100
AcDbEntity
  8
0
100
AcDbLine
 10
0.0
 20
0.0
 30
0.0
 11
1.732050807568891
 21
0.0
 31
0.0
  0
LINE
  5
6496
330
6485
100
AcDbEntity
  8
0
100
AcDbLine
 10
-1.732050807568862
 20
0.0
 30
0.0
 11
0.0
 21
0.0
 31
0.0
  0
LINE
  5
6497
330
6485
100
AcDbEntity
  8
0
100
AcDbLine
 10
-27.99999999999999
 20
0.0
 30
0.0
 11
-1.732050807568863
 21
0.0
 31
0.0
  0
LINE
  5
6498
330
6485
100
AcDbEntity
  8
0
100
AcDbLine
 10
-27.99999999999999
 20
0.0
 30
0.0
 11
-29.99999999999998
 21
0.0
 31
0.0
  0
LINE
  5
6499
330
6485
100
AcDbEntity
  8
0
100
AcDbLine
 10
-29.99999999999998
 20
2.999999999999984
 30
0.0
 11
-29.99999999999998
 21
0.0
 31
0.0
  0
LINE
  5
649A
330
6485
100
AcDbEntity
  8
0
100
AcDbLine
 10
-1.732050807568861
 20
2.999999999999975
 30
0.0
 11
-1.732050807568862
 21
0.0
 31
0.0
  0
LINE
  5
649B
330
6485
100
AcDbEntity
  8
0
100
AcDbLine
 10
0.0
 20
2.999999999999975
 30
0.0
 11
0.0
 21
0.0
 31
0.0
  0
LINE
  5
649C
330
6485
100
AcDbEntity
  8
0
100
AcDbLine
 10
1.732050807568892
 20
2.999999999999973
 30
0.0
 11
1.732050807568891
 21
0.0
 31
0.0
  0
LINE
  5
649D
330
6485
100
AcDbEntity
  8
0
100
AcDbLine
 10
30.00000000000002
 20
2.999999999999964
 30
0.0
 11
30.00000000000002
 21
0.0
 31
0.0
  0
LINE
  5
649E
330
6485
100
AcDbEntity
  8
0
100
AcDbLine
 10
1.500000000000046
 20
5.999999999999975
 30
0.0
 11
1.50000000000006
 21
70.21214640324021
 31
0.0
  0
LINE
  5
649F
330
6485
100
AcDbEntity
  8
0
100
AcDbLine
 10
1.50000000000006
 20
70.21214640324021
 30
0.0
 11
-1.499999999999928
 21
70.21214640324021
 31
0.0
  0
LINE
  5
64A0
330
6485
100
AcDbEntity
  8
0
100
AcDbLine
 10
-1.499999999999928
 20
70.21214640324021
 30
0.0
 11
-1.49999999999996
 21
5.999999999999978
 31
0.0
  0
LINE
  5
64A1
330
6485
100
AcDbEntity
  8
0
100
AcDbLine
 10
-1.499999999999903
 20
105.2483854891472
 30
0.0
 11
-1.499999999999928
 21
70.21214640324021
 31
0.0
  0
LINE
  5
64A2
330
6485
100
AcDbEntity
  8
0
100
AcDbLine
 10
1.50000000000006
 20
70.21214640324021
 30
0.0
 11
1.500000000000085
 21
105.2483854891472
 31
0.0
  0
LINE
  5
64A3
330
6485
100
AcDbEntity
  8
0
100
AcDbLine
 10
-1.499999999999903
 20
105.2483854891472
 30
0.0
 11
-1.499999999999902
 21
107.2483854891472
 31
0.0
  0
LINE
  5
64A4
330
6485
100
AcDbEntity
  8
0
100
AcDbLine
 10
1.500000000000087
 20
107.2483854891472
 30
0.0
 11
1.500000000000085
 21
105.2483854891472
 31
0.0
  0
LINE
  5
64A5
330
6485
100
AcDbEntity
  8
0
100
AcDbLine
 10
1.500000000000104
 20
107.2483854891472
 30
0.0
 11
-1.499999999999902
 21
107.2483854891472
 31
0.0
  0
LINE
  5
64A6
330
6485
100
AcDbEntity
  8
0
100
AcDbLine
 10
-3.999999999999919
 20
97.4754021429398
 30
0.0
 11
-3.999999999999928
 21
80.52136883535466
 31
0.0
  0
LINE
  5
64A7
330
6485
100
AcDbEntity
  8
0
100
AcDbLine
 10
4.00000000000006
 20
59.44540214293978
 30
0.0
 11
4.000000000000053
 21
46.49136883535461
 31
0.0
  0
ARC
  5
64A8
330
6485
100
AcDbEntity
  8
0
100
AcDbCircle
 10
-1.499999999999919
 20
97.4754021429398
 30
0.0
 40
2.5
100
AcDbArc
 50
114.3157391711767
 51
180.0
  0
ARC
  5
64A9
330
6485
100
AcDbEntity
  8
0
100
AcDbCircle
 10
-1.499999999999929
 20
80.52136883535466
 30
0.0
 40
2.5
100
AcDbArc
 50
180.0
 51
245.6842608288233
  0
ARC
  5
64AA
330
6485
100
AcDbEntity
  8
0
100
AcDbCircle
 10
-3.249999999999906
 20
101.3483854891472
 30
0.0
 40
1.75
100
AcDbArc
 50
294.3157391711762
 51
0.0
  0
ARC
  5
64AB
330
6485
100
AcDbEntity
  8
0
100
AcDbCircle
 10
-3.24999999999992
 20
76.64838548914723
 30
0.0
 40
1.75
100
AcDbArc
 50
0.0
 51
65.68426082882408
  0
ARC
  5
64AC
330
6485
100
AcDbEntity
  8
0
100
AcDbCircle
 10
1.50000000000006
 20
59.44540214293978
 30
0.0
 40
2.5
100
AcDbArc
 50
0.0
 51
65.68426082882329
  0
ARC
  5
64AD
330
6485
100
AcDbEntity
  8
0
100
AcDbCircle
 10
1.500000000000052
 20
46.49136883535461
 30
0.0
 40
2.5
100
AcDbArc
 50
294.3157391711767
 51
0.0
  0
ARC
  5
64AE
330
6485
100
AcDbEntity
  8
0
100
AcDbCircle
 10
3.250000000000069
 20
63.31838548914719
 30
0.0
 40
1.75
100
AcDbArc
 50
180.0
 51
245.6842608288235
  0
ARC
  5
64AF
330
6485
100
AcDbEntity
  8
0
100
AcDbCircle
 10
3.250000000000058
 20
42.61838548914719
 30
0.0
 40
1.75
100
AcDbArc
 50
114.3157391711765
 51
180.0
  0
LINE
  5
64B0
330
6485
100
AcDbEntity
  8
0
100
AcDbLine
 10
-3.999999999999957
 20
23.6254021429398
 30
0.0
 11
-3.999999999999957
 21
23.3713688353546
 31
0.0
  0
ARC
  5
64B1
330
6485
100
AcDbEntity
  8
0
100
AcDbCircle
 10
-1.499999999999956
 20
23.37136883535459
 30
0.0
 40
2.5
100
AcDbArc
 50
180.0
 51
245.6842608288234
  0
ARC
  5
64B2
330
6485
100
AcDbEntity
  8
0
100
AcDbCircle
 10
-3.249999999999946
 20
19.49838548914718
 30
0.0
 40
1.75
100
AcDbArc
 50
0.0
 51
65.68426082882353
  0
ARC
  5
64B3
330
6485
100
AcDbEntity
  8
0
100
AcDbCircle
 10
-1.499999999999956
 20
23.62540214293982
 30
0.0
 40
2.5
100
AcDbArc
 50
114.3157391711765
 51
180.0
  0
ARC
  5
64B4
330
6485
100
AcDbEntity
  8
0
100
AcDbCircle
 10
-3.249999999999944
 20
27.49838548914723
 30
0.0
 40
1.75
100
AcDbArc
 50
294.3157391711764
 51
0.0
  0
ARC
  5
64B5
330
6485
100
AcDbEntity
  8
0
100
AcDbCircle
 10
-4.49999999999995
 20
5.999999999999994
 30
0.0
 40
3.0
100
AcDbArc
 50
269.9999999999993
 51
341.6376337998028
  0
SPLINE
  5
64B6
330
6485
100
AcDbEntity
  8
0
100
AcDbSpline
210
0.0
220
0.0
230
1.0
 70
     8
 71
     3
 72
    12
 73
     8
 74
     0
 42
0.000000001
 43
0.0000000001
 40
0.0
 40
0.0
 40
0.0
 40
0.0
 40
0.0463759660248914
 40
0.0463759660248914
 40
0.0752344047962389
 40
0.0752344047962389
 40
0.1164597033457663
 40
0.1164597033457663
 40
0.1164597033457663
 40
0.1164597033457663
 10
-1.652750592382059
 20
5.054922854567127
 30
0.0
 10
-1.604051852845486
 20
5.201638345431893
 30
0.0
 10
-1.567843580453136
 20
5.349190800414276
 30
0.0
 10
-1.527972406026069
 20
5.581407130250068
 30
0.0
 10
-1.517383414112362
 20
5.66725089705494
 30
0.0
 10
-1.500719887639558
 20
5.865687391844005
 30
0.0
 10
-1.49999999999996
 20
5.951653230259354
 30
0.0
 10
-1.49999999999996
 20
5.999999999999987
 30
0.0
  0
ENDBLK
  5
6487
330
6485
100
AcDbEntity
  8
0
100
AcDbBlockEnd
  0
BLOCK
  5
64B8
330
64B7
100
AcDbEntity
  8
0
100
AcDbBlockBegin
  2
TU24-ISO
 70
     0
 10
0.0
 20
0.0
 30
0.0
  3
TU24-ISO
  1

  0
ELLIPSE
  5
64BA
330
64B7
100
AcDbEntity
  8
0
100
AcDbEllipse
 10
36.85706629969893
 20
14.95158864748121
 30
0.0
 11
-3.0
 21
-0.0000000000002133
 31
0.0
210
0.0
220
0.0
230
1.0
 40
0.5773502691896186
 41
3.926990816986993
 42
5.177303395131612
  0
LINE
  5
64BB
330
64B7
100
AcDbEntity
  8
0
100
AcDbLine
 10
41.09970698681821
 20
17.40107839026437
 30
0.0
 11
38.97838664325858
 21
16.17633351887279
 31
0.0
  0
ELLIPSE
  5
64BC
330
64B7
100
AcDbEntity
  8
0
100
AcDbEllipse
 10
36.85706629969893
 20
14.95158864748121
 30
0.0
 11
6.000000000000001
 21
-0.0000000000000611
 31
0.0
210
0.0
220
0.0
230
1.0
 40
0.5773502691896314
 41
0.7853981633975798
 42
2.035710741542034
  0
LINE
  5
64BD
330
64B7
100
AcDbEntity
  8
0
100
AcDbLine
 10
35.51202739412293
 20
16.49979947964492
 30
0.0
 11
34.16698848854692
 21
18.04801031180861
 31
0.0
  0
SPLINE
  5
64BE
330
64B7
100
AcDbEntity
  8
0
100
AcDbSpline
210
0.0
220
0.0
230
1.0
 70
     8
 71
     3
 72
    12
 73
     8
 74
     0
 42
0.000000001
 43
0.0000000001
 40
0.0
 40
0.0
 40
0.0
 40
0.0
 40
0.0463759660149663
 40
0.0463759660149663
 40
0.0752344047886873
 40
0.0752344047886873
 40
0.1164597033338957
 40
0.1164597033338957
 40
0.1164597033338957
 40
0.1164597033338957
 10
35.51202739412293
 20
16.49979947964489
 30
0.0
 10
35.37384866669535
 20
16.45978248418508
 30
0.0
 10
35.24391021026217
 20
16.43735512798851
 30
0.0
 10
35.05151529093667
 20
16.42999063554847
 30
0.0
 10
34.98332703330717
 20
16.43418373847959
 30
0.0
 10
34.83122834962094
 20
16.46048517662089
 30
0.0
 10
34.76993228489059
 20
16.4868551174521
 30
0.0
 10
34.73574595613926
 20
16.50349183190955
 30
0.0
  0
SPLINE
  5
64BF
330
64B7
100
AcDbEntity
  8
0
100
AcDbSpline
210
0.0
220
0.0
230
1.0
 70
     8
 71
     3
 72
     8
 73
     4
 74
     0
 42
0.000000001
 43
0.0000000001
 40
0.0828577000155751
 40
0.0828577000155751
 40
0.0828577000155751
 40
0.0828577000155751
 40
0.0861016273654298
 40
0.0861016273654298
 40
0.0861016273654298
 40
0.0861016273654298
 10
34.08656743147099
 20
18.02492887369353
 30
0.0
 10
34.11326516593183
 20
18.03252096156383
 30
0.0
 10
34.14007429337893
 20
18.04021614856702
 30
0.0
 10
34.16698848854693
 20
18.04801031180857
 30
0.0
  0
LINE
  5
64C0
330
64B7
100
AcDbEntity
  8
0
100
AcDbLine
 10
34.73574595613929
 20
16.50349183190955
 30
0.0
 11
34.33432142010973
 21
16.73525439584553
 31
0.0
  0
SPLINE
  5
64C1
330
64B7
100
AcDbEntity
  8
0
100
AcDbSpline
210
0.0
220
0.0
230
1.0
 70
     8
 71
     3
 72
    20
 73
    16
 74
     0
 42
0.000000001
 43
0.0000000001
 40
0.0
 40
0.0
 40
0.0
 40
0.0
 40
0.0292038487373738
 40
0.0292038487373738
 40
0.1061564375212628
 40
0.1061564375212628
 40
0.2088926109001386
 40
0.2088926109001386
 40
0.3299865151623278
 40
0.3299865151623278
 40
0.4924973234660227
 40
0.4924973234660227
 40
0.5936467900194213
 40
0.5936467900194213
 40
0.7611251630764599
 40
0.7611251630764599
 40
0.7611251630764599
 40
0.7611251630764599
 10
36.89303124479681
 20
-39.26141847747697
 30
0.0
 10
36.97885073941129
 20
-39.22450490759432
 30
0.0
 10
37.05619095193532
 20
-39.2013961313012
 30
0.0
 10
37.31454789571305
 20
-39.14648623307069
 30
0.0
 10
37.47165166927886
 20
-39.15930619218285
 30
0.0
 10
37.73646416687542
 20
-39.20936258151453
 30
0.0
 10
37.88031444435104
 20
-39.26756111044776
 30
0.0
 10
38.16920592461712
 20
-39.44712771666806
 30
0.0
 10
38.30451725628511
 20
-39.57431515460802
 30
0.0
 10
38.57362297840172
 20
-39.91189515442804
 30
0.0
 10
38.6958238946795
 20
-40.14167131454117
 30
0.0
 10
38.84324893572163
 20
-40.54551874519042
 30
0.0
 10
38.8856803561696
 20
-40.70223221571568
 30
0.0
 10
38.96680752113479
 20
-41.11053907838154
 30
0.0
 10
38.97840321556831
 20
-41.32101844241747
 30
0.0
 10
38.97838664325858
 20
-41.47194545034965
 30
0.0
  0
SPLINE
  5
64C2
330
64B7
100
AcDbEntity
  8
0
100
AcDbSpline
210
0.0
220
0.0
230
1.0
 70
     8
 71
     3
 72
    10
 73
     6
 74
     0
 42
0.000000001
 43
0.0000000001
 40
0.0
 40
0.0
 40
0.0
 40
0.0
 40
0.1362998422634624
 40
0.1362998422634624
 40
0.272599685292447
 40
0.272599685292447
 40
0.272599685292447
 40
0.272599685292447
 10
34.73574595613927
 20
-40.82052392181859
 30
0.0
 10
35.01859482955445
 20
-40.48132083139222
 30
0.0
 10
35.35517921921011
 20
-40.17815387950834
 30
0.0
 10
36.09612190673801
 20
-39.65215832596054
 30
0.0
 10
36.49305127526308
 20
-39.43455005259901
 30
0.0
 10
36.8930312447968
 20
-39.26141847747696
 30
0.0
  0
LINE
  5
64C3
330
64B7
100
AcDbEntity
  8
0
100
AcDbLine
 10
34.7357459561393
 20
-40.82052392181861
 30
0.0
 11
34.73574595613929
 21
16.50349183190955
 31
0.0
  0
LINE
  5
64C4
330
64B7
100
AcDbEntity
  8
0
100
AcDbLine
 10
38.97838664325858
 20
16.17633351887279
 30
0.0
 11
38.97838664325858
 21
-41.47194545034965
 31
0.0
  0
LINE
  5
64C5
330
64B7
100
AcDbEntity
  8
0
100
AcDbLine
 10
37.98339182617239
 20
-42.60083043093928
 30
0.0
 11
38.86253686527329
 21
-42.09325580595766
 31
0.0
  0
ELLIPSE
  5
64C6
330
64B7
100
AcDbEntity
  8
0
100
AcDbEllipse
 10
37.38739638558885
 20
-40.55338679680597
 30
0.0
 11
1.125000000000001
 21
-1.948557158514987
 31
0.0
210
0.0
220
0.0
230
1.0
 40
0.5773502691896258
 41
5.881759579220885
 42
7.068583470577029
  0
ELLIPSE
  5
64C7
330
64B7
100
AcDbEntity
  8
0
100
AcDbEllipse
 10
32.96797900317291
 20
-60.16609679786959
 30
0.0
 11
1.25
 21
-2.165063509461093
 31
0.0
210
0.0
220
0.0
230
1.0
 40
0.5773502691896259
 41
0.0
 42
6.283185307179586
  0
ELLIPSE
  5
64C8
330
64B7
100
AcDbEntity
  8
0
100
AcDbEllipse
 10
25.89691119130743
 20
-47.91864808395368
 30
0.0
 11
1.250000000000001
 21
-2.165063509461096
 31
0.0
210
0.0
220
0.0
230
0.9999999999999998
 40
0.5773502691896258
 41
5.528595722736714
 42
7.370787497001154
  0
LINE
  5
64C9
330
64B7
100
AcDbEntity
  8
0
100
AcDbLine
 10
33.50564412401594
 20
-42.10460209299911
 30
0.0
 11
37.98339182617239
 21
-42.60083043093928
 31
0.0
  0
LINE
  5
64CA
330
64B7
100
AcDbEntity
  8
0
100
AcDbLine
 10
34.57166125652751
 20
-65.99096266410484
 30
0.0
 11
19.15179081170404
 21
-57.08829631191685
 31
0.0
  0
LINE
  5
64CB
330
64B7
100
AcDbEntity
  8
0
100
AcDbLine
 10
35.79640612791911
 20
-64.24857970250821
 30
0.0
 11
34.57166125652751
 21
-65.99096266410484
 31
0.0
  0
LINE
  5
64CC
330
64B7
100
AcDbEntity
  8
0
100
AcDbLine
 10
37.02115099931069
 20
-67.40517622647793
 30
0.0
 11
35.79640612791911
 21
-64.24857970250821
 31
0.0
  0
LINE
  5
64CD
330
64B7
100
AcDbEntity
  8
0
100
AcDbLine
 10
55.59539600114245
 20
-78.12902157827955
 30
0.0
 11
37.02115099931069
 21
-67.40517622647793
 31
0.0
  0
ELLIPSE
  5
64CE
330
64B7
100
AcDbEntity
  8
0
100
AcDbEllipse
 10
55.59539600114245
 20
-76.49602841642412
 30
0.0
 11
1.000000000000001
 21
-1.732050807568876
 31
0.0
210
0.0
220
0.0
230
1.0
 40
0.5773502691896257
 41
5.497787143782137
 42
7.068583470577026
  0
LINE
  5
64CF
330
64B7
100
AcDbEntity
  8
0
100
AcDbLine
 10
57.00960956351554
 20
4.133008950188838
 30
0.0
 11
57.00960956351554
 21
-77.31252499735184
 31
0.0
  0
ELLIPSE
  5
64D0
330
64B7
100
AcDbEntity
  8
0
100
AcDbEllipse
 10
55.59539600114245
 20
4.949505531116562
 30
0.0
 11
0.9999999999999031
 21
-1.732050807568945
 31
0.0
210
0.0
220
0.0
230
1.0
 40
0.5773502691896258
 41
0.7853981633976881
 42
2.356194490192585
  0
LINE
  5
64D1
330
64B7
100
AcDbEntity
  8
0
100
AcDbLine
 10
38.97838664325858
 20
16.17633351887279
 30
0.0
 11
55.59539600114245
 21
6.582498692972009
 31
0.0
  0
LINE
  5
64D2
330
64B7
100
AcDbEntity
  8
0
100
AcDbLine
 10
57.71671634470209
 20
7.807243564363597
 30
0.0
 11
41.09970698681821
 21
17.40107839026437
 31
0.0
  0
ELLIPSE
  5
64D3
330
64B7
100
AcDbEntity
  8
0
100
AcDbEllipse
 10
57.71671634470209
 20
6.174250402508151
 30
0.0
 11
-1.000000000000109
 21
1.732050807568826
 31
0.0
210
0.0
220
0.0
230
1.0
 40
0.5773502691896259
 41
3.926990816987
 42
5.497787143781895
  0
LINE
  5
64D4
330
64B7
100
AcDbEntity
  8
0
100
AcDbLine
 10
59.13092990707518
 20
-76.08778012596025
 30
0.0
 11
59.13092990707518
 21
5.357753821580431
 31
0.0
  0
ELLIPSE
  5
64D5
330
64B7
100
AcDbEntity
  8
0
100
AcDbEllipse
 10
57.71671634470209
 20
-75.27128354503253
 30
0.0
 11
1.000000000000002
 21
-1.732050807568876
 31
0.0
210
0.0
220
0.0
230
1.0
 40
0.5773502691896258
 41
0.0
 42
0.785398163397449
  0
LINE
  5
64D6
330
64B7
100
AcDbEntity
  8
0
100
AcDbLine
 10
38.97003042823608
 20
-41.25033902979069
 30
0.0
 11
34.76613628812533
 21
-40.78445940887795
 31
0.0
  0
ELLIPSE
  5
64D7
330
64B7
100
AcDbEntity
  8
0
100
AcDbEllipse
 10
28.01823153486707
 20
-46.69390321256209
 30
0.0
 11
1.250000000000001
 21
-2.165063509461097
 31
0.0
210
0.0
220
0.0
230
1.0
 40
0.5773502691896258
 41
5.20851285307342
 42
5.269987807084223
  0
ELLIPSE
  5
64D8
330
64B7
100
AcDbEntity
  8
0
100
AcDbEllipse
 10
35.08929934673255
 20
-58.94135192647798
 30
0.0
 11
1.250000000000129
 21
-2.165063509461019
 31
0.0
210
0.0
220
0.0
230
1.0
 40
0.5773502691896259
 41
4.154790153685034
 42
5.269987807084104
  0
LINE
  5
64D9
330
64B7
100
AcDbEntity
  8
0
100
AcDbLine
 10
34.57166125652751
 20
-65.99096266410484
 30
0.0
 11
36.12457552714264
 21
-65.09438719193679
 31
0.0
  0
LINE
  5
64DA
330
64B7
100
AcDbEntity
  8
0
100
AcDbLine
 10
57.00960956351554
 20
-77.31252499735184
 30
0.0
 11
59.13092990707518
 21
-76.08778012596025
 31
0.0
  0
LINE
  5
64DB
330
64B7
100
AcDbEntity
  8
0
100
AcDbLine
 10
57.00960956351554
 20
4.133008950188838
 30
0.0
 11
59.13092990707518
 21
5.357753821580429
 31
0.0
  0
LINE
  5
64DC
330
64B7
100
AcDbEntity
  8
0
100
AcDbLine
 10
55.59539600114245
 20
6.582498692972009
 30
0.0
 11
57.71671634470209
 21
7.807243564363597
 31
0.0
  0
ELLIPSE
  5
64DD
330
64B7
100
AcDbEntity
  8
0
100
AcDbEllipse
 10
47.81722140809041
 20
88.84452922144042
 30
0.0
 11
1.250000000000129
 21
-2.165063509461017
 31
0.0
210
0.0
220
0.0
230
1.0
 40
0.5773502691896262
 41
4.154790153685034
 42
5.269987807084101
  0
ELLIPSE
  5
64DE
330
64B7
100
AcDbEntity
  8
0
100
AcDbEllipse
 10
54.88828921995589
 20
92.92701212607902
 30
0.0
 11
1.250000000000133
 21
-2.165063509461023
 31
0.0
210
0.0
220
0.0
230
1.0
 40
0.5773502691896261
 41
4.154790153685027
 42
5.269987807084109
  0
ELLIPSE
  5
64DF
330
64B7
100
AcDbEntity
  8
0
100
AcDbEllipse
 10
40.74615359622492
 20
101.0919779353563
 30
0.0
 11
1.250000000000131
 21
-2.165063509461019
 31
0.0
210
0.0
220
0.0
230
1.0
 40
0.5773502691896262
 41
4.154790153685034
 42
5.269987807084098
  0
ELLIPSE
  5
64E0
330
64B7
100
AcDbEntity
  8
0
100
AcDbEllipse
 10
18.11873659825538
 20
119.0549027157663
 30
0.0
 11
-0.9999999999999985
 21
1.73205080756887
 31
0.0
210
0.0
220
0.0
230
1.0
 40
0.5773502691896261
 41
5.497787143782137
 42
6.283185307179588
  0
LINE
  5
64E1
330
64B7
100
AcDbEntity
  8
0
100
AcDbLine
 10
36.69298160008714
 20
109.9640505258201
 30
0.0
 11
18.11873659825538
 21
120.6878958776217
 31
0.0
  0
LINE
  5
64E2
330
64B7
100
AcDbEntity
  8
0
100
AcDbLine
 10
37.58955707225519
 20
107.6532614912789
 30
0.0
 11
36.69298160008714
 21
109.9640505258201
 31
0.0
  0
LINE
  5
64E3
330
64B7
100
AcDbEntity
  8
0
100
AcDbLine
 10
57.71671634470208
 20
97.8259916116454
 30
0.0
 11
39.14247134287032
 21
108.549836963447
 31
0.0
  0
ELLIPSE
  5
64E4
330
64B7
100
AcDbEntity
  8
0
100
AcDbEllipse
 10
57.71671634470208
 20
96.19299844978996
 30
0.0
 11
-1.000000000000096
 21
1.732050807568803
 31
0.0
210
0.0
220
0.0
230
1.0
 40
0.577350269189626
 41
3.926990816986991
 42
5.497787143781895
  0
LINE
  5
64E5
330
64B7
100
AcDbEntity
  8
0
100
AcDbLine
 10
59.13092990707517
 20
83.39849702665247
 30
0.0
 11
59.13092990707518
 21
95.37650186886223
 31
0.0
  0
ELLIPSE
  5
64E6
330
64B7
100
AcDbEntity
  8
0
100
AcDbEllipse
 10
57.71671634470208
 20
84.21499360758021
 30
0.0
 11
1.000000000000044
 21
-1.732050807568943
 31
0.0
210
0.0
220
0.0
230
1.0
 40
0.577350269189626
 41
0.0
 42
0.7853981633974323
  0
ELLIPSE
  5
64E7
330
64B7
100
AcDbEntity
  8
0
100
AcDbEllipse
 10
34.20541587024936
 20
81.61807235305033
 30
0.0
 11
-1.125
 21
1.948557158514983
 31
0.0
210
0.0
220
0.0
230
1.0
 40
0.5773502691896261
 41
5.881759579220883
 42
7.068583470577028
  0
LINE
  5
64E8
330
64B7
100
AcDbEntity
  8
0
100
AcDbLine
 10
56.12516972610561
 20
81.17029883918119
 30
0.0
 11
33.60942042966578
 21
83.66551598718368
 31
0.0
  0
ELLIPSE
  5
64E9
330
64B7
100
AcDbEntity
  8
0
100
AcDbEllipse
 10
55.59539600114243
 20
82.99024873618861
 30
0.0
 11
1.000000000000041
 21
-1.732050807568944
 31
0.0
210
0.0
220
0.0
230
1.0
 40
0.577350269189626
 41
5.881759579220894
 42
7.068583470577037
  0
LINE
  5
64EA
330
64B7
100
AcDbEntity
  8
0
100
AcDbLine
 10
57.00960956351552
 20
94.15175699747065
 30
0.0
 11
57.00960956351551
 21
82.17375215526089
 31
0.0
  0
ELLIPSE
  5
64EB
330
64B7
100
AcDbEntity
  8
0
100
AcDbEllipse
 10
55.59539600114242
 20
94.96825357839837
 30
0.0
 11
0.9999999999998903
 21
-1.732050807568922
 31
0.0
210
0.0
220
0.0
230
1.0
 40
0.577350269189626
 41
0.7853981633976846
 42
2.356194490192585
  0
LINE
  5
64EC
330
64B7
100
AcDbEntity
  8
0
100
AcDbLine
 10
37.02115099931069
 20
107.3250920920554
 30
0.0
 11
55.59539600114242
 21
96.6012467402538
 31
0.0
  0
LINE
  5
64ED
330
64B7
100
AcDbEntity
  8
0
100
AcDbLine
 10
35.79640612791909
 20
105.5827091304588
 30
0.0
 11
37.02115099931069
 21
107.3250920920554
 31
0.0
  0
LINE
  5
64EE
330
64B7
100
AcDbEntity
  8
0
100
AcDbLine
 10
34.57166125652749
 20
108.7393056544285
 30
0.0
 11
35.79640612791909
 21
105.5827091304588
 31
0.0
  0
LINE
  5
64EF
330
64B7
100
AcDbEntity
  8
0
100
AcDbLine
 10
15.99741625469574
 20
119.4631510062301
 30
0.0
 11
34.57166125652749
 21
108.7393056544285
 31
0.0
  0
ELLIPSE
  5
64F0
330
64B7
100
AcDbEntity
  8
0
100
AcDbEllipse
 10
15.99741625469574
 20
117.8301578443747
 30
0.0
 11
-0.9999999999999984
 21
1.73205080756887
 31
0.0
210
0.0
220
0.0
230
1.0
 40
0.5773502691896261
 41
5.49778714378214
 42
7.068583470577036
  0
LINE
  5
64F1
330
64B7
100
AcDbEntity
  8
0
100
AcDbLine
 10
14.58320269232264
 20
77.43748214443951
 30
0.0
 11
14.58320269232263
 21
118.6466544253024
 31
0.0
  0
ELLIPSE
  5
64F2
330
64B7
100
AcDbEntity
  8
0
100
AcDbEllipse
 10
38.62483325266529
 20
99.8672330639647
 30
0.0
 11
-1.250000000000002
 21
2.165063509461094
 31
0.0
210
0.0
220
0.0
230
1.0
 40
0.5773502691896262
 41
0.0
 42
6.283185307179586
  0
ELLIPSE
  5
64F3
330
64B7
100
AcDbEntity
  8
0
100
AcDbEllipse
 10
52.76696887639624
 20
91.70226725468742
 30
0.0
 11
-1.250000000000003
 21
2.165063509461097
 31
0.0
210
0.0
220
0.0
230
1.0
 40
0.5773502691896261
 41
0.0
 42
6.283185307179586
  0
ELLIPSE
  5
64F4
330
64B7
100
AcDbEntity
  8
0
100
AcDbEllipse
 10
45.69590106453076
 20
87.61978435004882
 30
0.0
 11
-1.25
 21
2.165063509461091
 31
0.0
210
0.0
220
0.0
230
1.0
 40
0.5773502691896262
 41
0.0
 42
6.283185307179586
  0
LINE
  5
64F5
330
64B7
100
AcDbEntity
  8
0
100
AcDbLine
 10
18.11873659825538
 20
120.6878958776217
 30
0.0
 11
15.99741625469574
 21
119.4631510062301
 31
0.0
  0
LINE
  5
64F6
330
64B7
100
AcDbEntity
  8
0
100
AcDbLine
 10
36.69298160008714
 20
109.9640505258201
 30
0.0
 11
34.57166125652749
 21
108.7393056544285
 31
0.0
  0
LINE
  5
64F7
330
64B7
100
AcDbEntity
  8
0
100
AcDbLine
 10
39.14247134287032
 20
108.549836963447
 30
0.0
 11
37.02115099931069
 21
107.3250920920554
 31
0.0
  0
LINE
  5
64F8
330
64B7
100
AcDbEntity
  8
0
100
AcDbLine
 10
57.71671634470208
 20
97.8259916116454
 30
0.0
 11
55.59539600114242
 21
96.6012467402538
 31
0.0
  0
LINE
  5
64F9
330
64B7
100
AcDbEntity
  8
0
100
AcDbLine
 10
59.13092990707518
 20
95.37650186886223
 30
0.0
 11
57.00960956351552
 21
94.15175699747065
 31
0.0
  0
LINE
  5
64FA
330
64B7
100
AcDbEntity
  8
0
100
AcDbLine
 10
59.13092990707517
 20
83.39849702665247
 30
0.0
 11
57.00960956351551
 21
82.17375215526089
 31
0.0
  0
LINE
  5
64FB
330
64B7
100
AcDbEntity
  8
0
100
AcDbLine
 10
34.7357459561393
 20
-40.82052392181861
 30
0.0
 11
-10.66909820013525
 21
-88.21771310109511
 31
0.0
  0
LINE
  5
64FC
330
64B7
100
AcDbEntity
  8
0
100
AcDbLine
 10
-10.66909820013525
 20
-88.21771310109511
 30
0.0
 11
-35.44346044505322
 21
-102.5211978121998
 31
0.0
  0
ELLIPSE
  5
64FD
330
64B7
100
AcDbEntity
  8
0
100
AcDbEllipse
 10
-37.56478078861286
 20
-99.66345977895279
 30
0.0
 11
-0.9999999999999962
 21
-1.732050807568871
 31
0.0
210
0.0
220
0.0
230
1.0
 40
0.5773502691896254
 41
5.497787143782135
 42
6.28318530717958
  0
ELLIPSE
  5
64FE
330
64B7
100
AcDbEntity
  8
0
100
AcDbEllipse
 10
-35.44346044505322
 20
-100.8882046503444
 30
0.0
 11
-0.9999999999999962
 21
-1.732050807568871
 31
0.0
210
0.0
220
0.0
230
1.0
 40
0.5773502691896253
 41
5.497787143782133
 42
7.068583470577034
  0
LINE
  5
64FF
330
64B7
100
AcDbEntity
  8
0
100
AcDbLine
 10
-36.8576740074263
 20
-101.7047012312721
 30
0.0
 11
-38.97899435098595
 21
-100.4799563598805
 31
0.0
  0
LINE
  5
6500
330
64B7
100
AcDbEntity
  8
0
100
AcDbLine
 10
-38.97899435098594
 20
53.83789743545974
 30
0.0
 11
-38.97899435098595
 21
-100.4799563598805
 31
0.0
  0
LINE
  5
6501
330
64B7
100
AcDbEntity
  8
0
100
AcDbLine
 10
-36.8576740074263
 20
-101.7047012312721
 30
0.0
 11
-36.8576740074263
 21
52.61315256406816
 31
0.0
  0
LINE
  5
6502
330
64B7
100
AcDbEntity
  8
0
100
AcDbLine
 10
-36.8576740074263
 20
52.61315256406813
 30
0.0
 11
-38.97899435098594
 21
53.83789743545974
 31
0.0
  0
ELLIPSE
  5
6503
330
64B7
100
AcDbEntity
  8
0
100
AcDbEllipse
 10
-37.56478078861287
 20
54.65439401638743
 30
0.0
 11
-0.999999999999893
 21
-1.732050807568931
 31
0.0
210
0.0
220
0.0
230
1.0
 40
0.5773502691896253
 41
3.926990816987
 42
5.497787143781896
  0
ELLIPSE
  5
6504
330
64B7
100
AcDbEntity
  8
0
100
AcDbEllipse
 10
-35.44346044505322
 20
53.42964914499583
 30
0.0
 11
1.000000000000099
 21
1.732050807568811
 31
0.0
210
0.0
220
0.0
230
1.0
 40
0.5773502691896254
 41
0.7853981633976926
 42
2.35619449019259
  0
LINE
  5
6505
330
64B7
100
AcDbEntity
  8
0
100
AcDbLine
 10
-35.44346044505321
 20
55.06264230685133
 30
0.0
 11
-37.56478078861286
 21
56.28738717824292
 31
0.0
  0
LINE
  5
6506
330
64B7
100
AcDbEntity
  8
0
100
AcDbLine
 10
-33.77175299478698
 20
58.47729279605196
 30
0.0
 11
-37.56478078861286
 21
56.28738717824292
 31
0.0
  0
LINE
  5
6507
330
64B7
100
AcDbEntity
  8
0
100
AcDbLine
 10
-35.44346044505321
 20
55.06264230685133
 30
0.0
 11
-31.65043265122734
 21
57.25254792466039
 31
0.0
  0
LINE
  5
6508
330
64B7
100
AcDbEntity
  8
0
100
AcDbLine
 10
-31.65043265122734
 20
57.25254792466039
 30
0.0
 11
-33.77175299478698
 21
58.47729279605196
 31
0.0
  0
ELLIPSE
  5
6509
330
64B7
100
AcDbEntity
  8
0
100
AcDbEllipse
 10
-33.77175299478699
 20
56.84429963419654
 30
0.0
 11
0.9999999999999753
 21
1.732050807568835
 31
0.0
210
0.0
220
0.0
230
1.0
 40
0.5773502691896255
 41
0.0
 42
0.7853981633974485
  0
ELLIPSE
  5
650A
330
64B7
100
AcDbEntity
  8
0
100
AcDbEllipse
 10
-31.65043265122735
 20
55.61955476280495
 30
0.0
 11
0.9999999999999749
 21
1.732050807568835
 31
0.0
210
0.0
220
0.0
230
1.0
 40
0.5773502691896253
 41
6.038839211900384
 42
7.068583470577034
  0
LINE
  5
650B
330
64B7
100
AcDbEntity
  8
0
100
AcDbLine
 10
-30.43821502935168
 20
57.16048258753462
 30
0.0
 11
-28.72594602378102
 21
54.85851816161939
 31
0.0
  0
LINE
  5
650C
330
64B7
100
AcDbEntity
  8
0
100
AcDbLine
 10
-28.72594602378102
 20
54.85851816161939
 30
0.0
 11
-28.72594602378102
 21
50.77603525698075
 31
0.0
  0
ELLIPSE
  5
650D
330
64B7
100
AcDbEntity
  8
0
100
AcDbEllipse
 10
-28.1956159378911
 20
49.44922831297319
 30
0.0
 11
-3.124999999999998
 21
-5.412658773652742
 31
0.0
210
0.0
220
0.0
230
1.0
 40
0.5773502691896254
 41
0.346290927158881
 42
0.7853981633974483
  0
ELLIPSE
  5
650E
330
64B7
100
AcDbEntity
  8
0
100
AcDbEllipse
 10
-26.07429559433146
 20
48.22448344158161
 30
0.0
 11
-3.124999999999998
 21
-5.412658773652742
 31
0.0
210
0.0
220
0.0
230
1.0
 40
0.5773502691896255
 41
4.570491925780528
 42
7.068583470577035
  0
LINE
  5
650F
330
64B7
100
AcDbEntity
  8
0
100
AcDbLine
 10
-26.07429559433146
 20
43.12137981078331
 30
0.0
 11
-28.1956159378911
 21
44.3461246821749
 31
0.0
  0
LINE
  5
6510
330
64B7
100
AcDbEntity
  8
0
100
AcDbLine
 10
-26.0742955943315
 20
45.57086955356648
 30
0.0
 11
-28.1956159378911
 21
44.3461246821749
 31
0.0
  0
LINE
  5
6511
330
64B7
100
AcDbEntity
  8
0
100
AcDbLine
 10
-26.07429559433146
 20
43.12137981078331
 30
0.0
 11
-23.95297525077184
 21
44.34612468217489
 31
0.0
  0
LINE
  5
6512
330
64B7
100
AcDbEntity
  8
0
100
AcDbLine
 10
-23.95297525077184
 20
44.34612468217489
 30
0.0
 11
-26.0742955943315
 21
45.57086955356648
 31
0.0
  0
ELLIPSE
  5
6513
330
64B7
100
AcDbEntity
  8
0
100
AcDbEllipse
 10
-26.0742955943315
 20
50.67397318436477
 30
0.0
 11
-3.12500000000032
 21
-5.412658773652558
 31
0.0
210
0.0
220
0.0
230
0.9999999999999998
 40
0.5773502691896253
 41
0.7853981633976899
 42
2.356194490192587
  0
ELLIPSE
  5
6514
330
64B7
100
AcDbEntity
  8
0
100
AcDbEllipse
 10
-23.95297525077184
 20
49.44922831297319
 30
0.0
 11
3.124999999999674
 21
5.41265877365293
 31
0.0
210
0.0
220
0.0
230
1.0
 40
0.5773502691896253
 41
3.926990816986998
 42
5.497787143781896
  0
LINE
  5
6515
330
64B7
100
AcDbEntity
  8
0
100
AcDbLine
 10
-19.5335578683559
 20
52.00078012837231
 30
0.0
 11
-21.65487821191555
 21
53.2255249997639
 31
0.0
  0
LINE
  5
6516
330
64B7
100
AcDbEntity
  8
0
100
AcDbLine
 10
-21.65487821191554
 20
62.2069873899689
 30
0.0
 11
-21.65487821191555
 21
53.2255249997639
 31
0.0
  0
LINE
  5
6517
330
64B7
100
AcDbEntity
  8
0
100
AcDbLine
 10
-19.5335578683559
 20
52.00078012837231
 30
0.0
 11
-19.53355786835589
 21
60.98224251857732
 31
0.0
  0
LINE
  5
6518
330
64B7
100
AcDbEntity
  8
0
100
AcDbLine
 10
-19.53355786835589
 20
60.98224251857732
 30
0.0
 11
-21.65487821191554
 21
62.2069873899689
 31
0.0
  0
LINE
  5
6519
330
64B7
100
AcDbEntity
  8
0
100
AcDbLine
 10
-19.6136367595962
 20
67.46798159658509
 30
0.0
 11
-21.65487821191554
 21
62.2069873899689
 31
0.0
  0
LINE
  5
651A
330
64B7
100
AcDbEntity
  8
0
100
AcDbLine
 10
-19.53355786835589
 20
60.98224251857732
 30
0.0
 11
-17.49231641603655
 21
66.24323672519351
 31
0.0
  0
LINE
  5
651B
330
64B7
100
AcDbEntity
  8
0
100
AcDbLine
 10
-17.49231641603655
 20
66.24323672519351
 30
0.0
 11
-19.6136367595962
 21
67.46798159658509
 31
0.0
  0
ELLIPSE
  5
651C
330
64B7
100
AcDbEntity
  8
0
100
AcDbEllipse
 10
-18.38889188820462
 20
67.35859179684394
 30
0.0
 11
-0.9999999999998919
 21
-1.732050807568929
 31
0.0
210
0.0
220
0.0
230
1.0
 40
0.5773502691896255
 41
3.926990816987
 42
4.974188368183725
  0
ELLIPSE
  5
651D
330
64B7
100
AcDbEntity
  8
0
100
AcDbEllipse
 10
-16.26757154464497
 20
66.13384692545233
 30
0.0
 11
0.9999999999999948
 21
1.73205080756887
 31
0.0
210
0.0
220
0.0
230
1.0
 40
0.5773502691896253
 41
0.7853981633974483
 42
1.832595714594052
  0
LINE
  5
651E
330
64B7
100
AcDbEntity
  8
0
100
AcDbLine
 10
-16.26757154464497
 20
67.76684008730777
 30
0.0
 11
-18.38889188820462
 21
68.99158495869937
 31
0.0
  0
LINE
  5
651F
330
64B7
100
AcDbEntity
  8
0
100
AcDbLine
 10
-8.134717928098504
 20
74.91183505488392
 30
0.0
 11
-18.38889188820462
 21
68.99158495869937
 31
0.0
  0
LINE
  5
6520
330
64B7
100
AcDbEntity
  8
0
100
AcDbLine
 10
-16.26757154464497
 20
67.76684008730777
 30
0.0
 11
-6.013397584538857
 21
73.68709018349234
 31
0.0
  0
LINE
  5
6521
330
64B7
100
AcDbEntity
  8
0
100
AcDbLine
 10
-6.013397584538857
 20
73.68709018349234
 30
0.0
 11
-8.134717928098504
 21
74.91183505488392
 31
0.0
  0
ELLIPSE
  5
6522
330
64B7
100
AcDbEntity
  8
0
100
AcDbEllipse
 10
-8.134717928098504
 20
73.27884189302844
 30
0.0
 11
-0.9999999999997951
 21
-1.732050807568763
 31
0.0
210
0.0
220
0.0
230
1.0
 40
0.5773502691896252
 41
3.543018381548058
 42
3.926990816986906
  0
ELLIPSE
  5
6523
330
64B7
100
AcDbEntity
  8
0
100
AcDbEllipse
 10
-6.013397584538857
 20
72.05409702163686
 30
0.0
 11
0.9999999999998985
 21
1.732050807568702
 31
0.0
210
0.0
220
0.0
230
1.0
 40
0.5773502691896254
 41
0.4014257279586993
 42
0.7853981633974483
  0
LINE
  5
6524
330
64B7
100
AcDbEntity
  8
0
100
AcDbLine
 10
-5.48362385957569
 20
73.87404691864429
 30
0.0
 11
-7.604944203135337
 21
75.09879179003589
 31
0.0
  0
LINE
  5
6525
330
64B7
100
AcDbEntity
  8
0
100
AcDbLine
 10
-5.469760351482202
 20
75.33541493282534
 30
0.0
 11
-7.604944203135337
 21
75.09879179003589
 31
0.0
  0
LINE
  5
6526
330
64B7
100
AcDbEntity
  8
0
100
AcDbLine
 10
-5.48362385957569
 20
73.87404691864429
 30
0.0
 11
-3.348440007922555
 21
74.11067006143375
 31
0.0
  0
LINE
  5
6527
330
64B7
100
AcDbEntity
  8
0
100
AcDbLine
 10
-3.348440007922555
 20
74.11067006143375
 30
0.0
 11
-5.469760351482202
 21
75.33541493282534
 31
0.0
  0
ELLIPSE
  5
6528
330
64B7
100
AcDbEntity
  8
0
100
AcDbEllipse
 10
-5.999534076445369
 20
73.5154650358179
 30
0.0
 11
1.000000000000029
 21
1.732050807568922
 31
0.0
210
0.0
220
0.0
230
1.0
 40
0.5773502691896255
 41
0.0000000000000106
 42
0.40142572795871
  0
ELLIPSE
  5
6529
330
64B7
100
AcDbEntity
  8
0
100
AcDbEllipse
 10
-3.878213732885722
 20
72.2907201644263
 30
0.0
 11
1.000000000000026
 21
1.732050807568924
 31
0.0
210
0.0
220
0.0
230
1.0
 40
0.5773502691896253
 41
6.02138591938044
 42
6.684611035138281
  0
LINE
  5
652A
330
64B7
100
AcDbEntity
  8
0
100
AcDbLine
 10
-2.653468861494125
 20
73.8143235265406
 30
0.0
 11
-1.834675135256609
 21
72.64946685231953
 31
0.0
  0
LINE
  5
652B
330
64B7
100
AcDbEntity
  8
0
100
AcDbLine
 10
-1.834675135256609
 20
72.64946685231953
 30
0.0
 11
-1.834675135256609
 21
69.76253059221281
 31
0.0
  0
ELLIPSE
  5
652C
330
64B7
100
AcDbEntity
  8
0
100
AcDbEllipse
 10
-1.657898439959981
 20
70.07801443011216
 30
0.0
 11
-2.124999999999996
 21
-3.680607966083862
 31
0.0
210
0.0
220
0.0
230
1.0
 40
0.5773502691896253
 41
0.5225993223155197
 42
0.7853981633974483
  0
ELLIPSE
  5
652D
330
64B7
100
AcDbEntity
  8
0
100
AcDbEllipse
 10
0.4634219035996657
 20
68.85326955872058
 30
0.0
 11
-2.124999999999996
 21
-3.680607966083861
 31
0.0
210
0.0
220
0.0
230
1.0
 40
0.5773502691896258
 41
4.797575588247845
 42
7.068583470577035
  0
LINE
  5
652E
330
64B7
100
AcDbEntity
  8
0
100
AcDbLine
 10
0.4634219035996657
 20
65.38315908977773
 30
0.0
 11
-1.657898439959981
 21
66.60790396116931
 31
0.0
  0
LINE
  5
652F
330
64B7
100
AcDbEntity
  8
0
100
AcDbLine
 10
-0.5972382681801714
 20
67.22027639686515
 30
0.0
 11
-1.657898439959981
 21
66.60790396116931
 31
0.0
  0
LINE
  5
6530
330
64B7
100
AcDbEntity
  8
0
100
AcDbLine
 10
0.4634219035996657
 20
65.38315908977773
 30
0.0
 11
1.524082075379475
 21
65.99553152547352
 31
0.0
  0
LINE
  5
6531
330
64B7
100
AcDbEntity
  8
0
100
AcDbLine
 10
1.524082075379475
 20
65.99553152547352
 30
0.0
 11
-0.5972382681801714
 21
67.22027639686515
 31
0.0
  0
ELLIPSE
  5
6532
330
64B7
100
AcDbEntity
  8
0
100
AcDbEllipse
 10
-0.5972382681801714
 20
70.69038686580798
 30
0.0
 11
-2.125000000000223
 21
-3.680607966083743
 31
0.0
210
0.0
220
0.0
230
0.9999999999999998
 40
0.5773502691896254
 41
0.785398163397689
 42
2.356194490192589
  0
ELLIPSE
  5
6533
330
64B7
100
AcDbEntity
  8
0
100
AcDbEllipse
 10
1.524082075379475
 20
69.46564199441637
 30
0.0
 11
2.124999999999782
 21
3.680607966083998
 31
0.0
210
0.0
220
0.0
230
1.0
 40
0.5773502691896254
 41
3.926990816987
 42
5.497787143781899
  0
LINE
  5
6534
330
64B7
100
AcDbEntity
  8
0
100
AcDbLine
 10
4.52928589542231
 20
71.2006972288878
 30
0.0
 11
2.407965551862663
 21
72.42544210027941
 31
0.0
  0
LINE
  5
6535
330
64B7
100
AcDbEntity
  8
0
100
AcDbLine
 10
2.407965551862663
 20
73.6671986467855
 30
0.0
 11
2.407965551862663
 21
72.42544210027941
 31
0.0
  0
LINE
  5
6536
330
64B7
100
AcDbEntity
  8
0
100
AcDbLine
 10
4.52928589542231
 20
71.2006972288878
 30
0.0
 11
4.52928589542231
 21
72.44245377539392
 31
0.0
  0
LINE
  5
6537
330
64B7
100
AcDbEntity
  8
0
100
AcDbLine
 10
4.52928589542231
 20
72.44245377539392
 30
0.0
 11
2.407965551862663
 21
73.6671986467855
 31
0.0
  0
ELLIPSE
  5
6538
330
64B7
100
AcDbEntity
  8
0
100
AcDbEllipse
 10
3.82217911423575
 20
74.48369522771322
 30
0.0
 11
-0.9999999999998976
 21
-1.732050807568939
 31
0.0
210
0.0
220
0.0
230
1.0
 40
0.5773502691896254
 41
3.543018381548058
 42
5.497787143781796
  0
ELLIPSE
  5
6539
330
64B7
100
AcDbEntity
  8
0
100
AcDbEllipse
 10
5.943499457795398
 20
73.25895035632164
 30
0.0
 11
1.000000000000103
 21
1.73205080756882
 31
0.0
210
0.0
220
0.0
230
1.0
 40
0.5773502691896254
 41
0.4014257279590386
 42
2.356194490192581
  0
LINE
  5
653A
330
64B7
100
AcDbEntity
  8
0
100
AcDbLine
 10
6.473273182758556
 20
75.07890025332905
 30
0.0
 11
4.351952839198909
 21
76.30364512472063
 31
0.0
  0
LINE
  5
653B
330
64B7
100
AcDbEntity
  8
0
100
AcDbLine
 10
32.61442561257964
 20
79.43571973527982
 30
0.0
 11
4.351952839198909
 21
76.30364512472063
 31
0.0
  0
LINE
  5
653C
330
64B7
100
AcDbEntity
  8
0
100
AcDbLine
 10
6.473273182758556
 20
75.07890025332905
 30
0.0
 11
34.73574595613927
 21
78.21097486388822
 31
0.0
  0
ELLIPSE
  5
653D
330
64B7
100
AcDbEntity
  8
0
100
AcDbEllipse
 10
35.64198426763038
 20
18.53666775904951
 30
0.0
 11
-1.125000000000002
 21
-1.948557158514992
 31
0.0
210
0.0
220
0.0
230
1.0
 40
0.5773502691896255
 41
4.533017772515789
 42
6.462556515048486
  0
LINE
  5
653E
330
64B7
100
AcDbEntity
  8
0
100
AcDbLine
 10
56.59539600114245
 20
-78.22807922399299
 30
0.0
 11
58.71671634470209
 21
-77.0033343526014
 31
0.0
  0
LINE
  5
653F
330
64B7
100
AcDbEntity
  8
0
100
AcDbLine
 10
17.11873659825538
 20
120.7869535233351
 30
0.0
 11
14.99741625469574
 21
119.5622086519435
 31
0.0
  0
LINE
  5
6540
330
64B7
100
AcDbEntity
  8
0
100
AcDbLine
 10
58.7167163447021
 20
82.48294280001127
 30
0.0
 11
56.59539600114246
 21
81.25819792861967
 31
0.0
  0
LINE
  5
6541
330
64B7
100
AcDbEntity
  8
0
100
AcDbLine
 10
-36.44346044505322
 20
-102.6202554579132
 30
0.0
 11
-38.56478078861285
 21
-101.3955105865216
 31
0.0
  0
LINE
  5
6542
330
64B7
100
AcDbEntity
  8
0
100
AcDbLine
 10
-30.65043265122739
 20
57.35160557037378
 30
0.0
 11
-32.77175299478702
 21
58.57635044176539
 31
0.0
  0
LINE
  5
6543
330
64B7
100
AcDbEntity
  8
0
100
AcDbLine
 10
-2.87821373288569
 20
74.02277097199522
 30
0.0
 11
-4.999534076445346
 21
75.24751584338682
 31
0.0
  0
ELLIPSE
  5
6544
330
64B7
100
AcDbEntity
  8
0
100
AcDbEllipse
 10
52.76696887639625
 20
-6.277322456639677
 30
0.0
 11
1.250000000000002
 21
-2.165063509461097
 31
0.0
210
0.0
220
0.0
230
1.0
 40
0.5773502691896259
 41
0.0
 42
6.283185307179586
  0
ELLIPSE
  5
6545
330
64B7
100
AcDbEntity
  8
0
100
AcDbEllipse
 10
45.69590106453077
 20
5.970126257276198
 30
0.0
 11
1.250000000000003
 21
-2.165063509461097
 31
0.0
210
0.0
220
0.0
230
0.9999999999999998
 40
0.5773502691896259
 41
0.0
 42
6.283185307179586
  0
ELLIPSE
  5
6546
330
64B7
100
AcDbEntity
  8
0
100
AcDbEllipse
 10
47.81722140809042
 20
7.194871128667788
 30
0.0
 11
1.250000000000131
 21
-2.165063509461023
 31
0.0
210
0.0
220
0.0
230
1.0
 40
0.577350269189626
 41
4.154790153685032
 42
5.269987807084108
  0
ELLIPSE
  5
6547
330
64B7
100
AcDbEntity
  8
0
100
AcDbEllipse
 10
54.8882892199559
 20
-5.052577585248085
 30
0.0
 11
1.250000000000131
 21
-2.165063509461023
 31
0.0
210
0.0
220
0.0
230
1.0
 40
0.5773502691896258
 41
4.154790153685032
 42
5.269987807084108
  0
ELLIPSE
  5
6548
330
64B7
100
AcDbEntity
  8
0
100
AcDbEllipse
 10
20.94716372300157
 20
112.5229300683444
 30
0.0
 11
1.250000000000131
 21
-2.16506350946102
 31
0.0
210
0.0
220
0.0
230
1.0
 40
0.5773502691896261
 41
4.154790153685027
 42
5.26998780708411
  0
ELLIPSE
  5
6549
330
64B7
100
AcDbEntity
  8
0
100
AcDbEllipse
 10
28.01823153486705
 20
100.2754813544286
 30
0.0
 11
1.250000000000133
 21
-2.165063509461024
 31
0.0
210
0.0
220
0.0
230
1.0
 40
0.5773502691896261
 41
4.154790153685027
 42
5.269987807084104
  0
ELLIPSE
  5
654A
330
64B7
100
AcDbEntity
  8
0
100
AcDbEllipse
 10
25.89691119130741
 20
99.05073648303698
 30
0.0
 11
-1.250000000000004
 21
2.165063509461099
 31
0.0
210
0.0
220
0.0
230
0.9999999999999998
 40
0.5773502691896262
 41
0.0
 42
6.283185307179586
  0
ELLIPSE
  5
654B
330
64B7
100
AcDbEntity
  8
0
100
AcDbEllipse
 10
18.82584337944193
 20
111.2981851969528
 30
0.0
 11
-1.250000000000003
 21
2.165063509461095
 31
0.0
210
0.0
220
0.0
230
1.0
 40
0.5773502691896261
 41
0.0
 42
6.283185307179586
  0
ELLIPSE
  5
654C
330
64B7
100
AcDbEntity
  8
0
100
AcDbEllipse
 10
52.76696887639625
 20
-22.6072540751942
 30
0.0
 11
1.250000000000002
 21
-2.165063509461097
 31
0.0
210
0.0
220
0.0
230
1.0
 40
0.5773502691896259
 41
0.0
 42
6.283185307179586
  0
ELLIPSE
  5
654D
330
64B7
100
AcDbEntity
  8
0
100
AcDbEllipse
 10
45.69590106453077
 20
-10.35980536127832
 30
0.0
 11
1.250000000000003
 21
-2.165063509461097
 31
0.0
210
0.0
220
0.0
230
0.9999999999999998
 40
0.5773502691896259
 41
0.0
 42
6.283185307179586
  0
ELLIPSE
  5
654E
330
64B7
100
AcDbEntity
  8
0
100
AcDbEllipse
 10
52.76696887639625
 20
-38.93718569374872
 30
0.0
 11
1.250000000000002
 21
-2.165063509461097
 31
0.0
210
0.0
220
0.0
230
1.0
 40
0.5773502691896259
 41
0.0
 42
6.283185307179586
  0
ELLIPSE
  5
654F
330
64B7
100
AcDbEntity
  8
0
100
AcDbEllipse
 10
45.69590106453076
 20
-26.68973697983285
 30
0.0
 11
1.250000000000003
 21
-2.165063509461097
 31
0.0
210
0.0
220
0.0
230
0.9999999999999998
 40
0.5773502691896259
 41
0.0
 42
6.283185307179586
  0
ELLIPSE
  5
6550
330
64B7
100
AcDbEntity
  8
0
100
AcDbEllipse
 10
52.76696887639625
 20
-55.26711731230323
 30
0.0
 11
1.250000000000002
 21
-2.165063509461097
 31
0.0
210
0.0
220
0.0
230
1.0
 40
0.5773502691896259
 41
0.0
 42
6.283185307179586
  0
ELLIPSE
  5
6551
330
64B7
100
AcDbEntity
  8
0
100
AcDbEllipse
 10
45.69590106453077
 20
-43.01966859838735
 30
0.0
 11
1.250000000000003
 21
-2.165063509461097
 31
0.0
210
0.0
220
0.0
230
0.9999999999999998
 40
0.5773502691896259
 41
0.0
 42
6.283185307179586
  0
ELLIPSE
  5
6552
330
64B7
100
AcDbEntity
  8
0
100
AcDbEllipse
 10
52.76696887639625
 20
-71.59704893085775
 30
0.0
 11
1.250000000000002
 21
-2.165063509461097
 31
0.0
210
0.0
220
0.0
230
1.0
 40
0.5773502691896259
 41
0.0
 42
6.283185307179586
  0
ELLIPSE
  5
6553
330
64B7
100
AcDbEntity
  8
0
100
AcDbEllipse
 10
45.69590106453077
 20
-59.34960021694188
 30
0.0
 11
1.250000000000003
 21
-2.165063509461097
 31
0.0
210
0.0
220
0.0
230
0.9999999999999998
 40
0.5773502691896259
 41
0.0
 42
6.283185307179586
  0
ELLIPSE
  5
6554
330
64B7
100
AcDbEntity
  8
0
100
AcDbEllipse
 10
47.81722140809042
 20
-58.12485534555029
 30
0.0
 11
1.250000000000131
 21
-2.165063509461023
 31
0.0
210
0.0
220
0.0
230
0.9999999999999998
 40
0.5773502691896258
 41
4.154790153685032
 42
5.269987807084108
  0
ELLIPSE
  5
6555
330
64B7
100
AcDbEntity
  8
0
100
AcDbEllipse
 10
54.8882892199559
 20
-70.37230405946615
 30
0.0
 11
1.250000000000131
 21
-2.165063509461022
 31
0.0
210
0.0
220
0.0
230
0.9999999999999998
 40
0.5773502691896258
 41
4.154790153685032
 42
5.269987807084109
  0
ELLIPSE
  5
6556
330
64B7
100
AcDbEntity
  8
0
100
AcDbEllipse
 10
47.81722140809041
 20
-41.79492372699576
 30
0.0
 11
1.250000000000132
 21
-2.165063509461023
 31
0.0
210
0.0
220
0.0
230
0.9999999999999998
 40
0.577350269189626
 41
4.154790153685032
 42
5.269987807084108
  0
ELLIPSE
  5
6557
330
64B7
100
AcDbEntity
  8
0
100
AcDbEllipse
 10
54.88828921995589
 20
-54.04237244091163
 30
0.0
 11
1.250000000000131
 21
-2.165063509461022
 31
0.0
210
0.0
220
0.0
230
0.9999999999999998
 40
0.5773502691896258
 41
4.154790153685032
 42
5.269987807084109
  0
ELLIPSE
  5
6558
330
64B7
100
AcDbEntity
  8
0
100
AcDbEllipse
 10
47.81722140809041
 20
-25.46499210844125
 30
0.0
 11
1.250000000000132
 21
-2.165063509461023
 31
0.0
210
0.0
220
0.0
230
0.9999999999999998
 40
0.577350269189626
 41
4.154790153685034
 42
5.269987807084108
  0
ELLIPSE
  5
6559
330
64B7
100
AcDbEntity
  8
0
100
AcDbEllipse
 10
54.88828921995589
 20
-37.71244082235713
 30
0.0
 11
1.250000000000131
 21
-2.165063509461022
 31
0.0
210
0.0
220
0.0
230
0.9999999999999998
 40
0.5773502691896258
 41
4.154790153685034
 42
5.269987807084108
  0
ELLIPSE
  5
655A
330
64B7
100
AcDbEntity
  8
0
100
AcDbEllipse
 10
47.81722140809042
 20
-9.135060489886734
 30
0.0
 11
1.250000000000131
 21
-2.165063509461023
 31
0.0
210
0.0
220
0.0
230
1.0
 40
0.577350269189626
 41
4.154790153685032
 42
5.269987807084108
  0
ELLIPSE
  5
655B
330
64B7
100
AcDbEntity
  8
0
100
AcDbEllipse
 10
54.8882892199559
 20
-21.38250920380261
 30
0.0
 11
1.250000000000131
 21
-2.165063509461022
 31
0.0
210
0.0
220
0.0
230
0.9999999999999998
 40
0.5773502691896258
 41
4.154790153685034
 42
5.269987807084108
  0
ELLIPSE
  5
655C
330
64B7
100
AcDbEntity
  8
0
100
AcDbEllipse
 10
20.94716372300158
 20
79.86306683123543
 30
0.0
 11
1.250000000000131
 21
-2.16506350946102
 31
0.0
210
0.0
220
0.0
230
1.0
 40
0.5773502691896261
 41
4.154790153685034
 42
5.269987807084108
  0
ELLIPSE
  5
655D
330
64B7
100
AcDbEntity
  8
0
100
AcDbEllipse
 10
20.94716372300158
 20
96.19299844978996
 30
0.0
 11
1.250000000000131
 21
-2.16506350946102
 31
0.0
210
0.0
220
0.0
230
1.0
 40
0.5773502691896261
 41
4.154790153685034
 42
5.269987807084107
  0
ELLIPSE
  5
655E
330
64B7
100
AcDbEntity
  8
0
100
AcDbEllipse
 10
28.01823153486705
 20
83.94554973587405
 30
0.0
 11
1.250000000000134
 21
-2.165063509461023
 31
0.0
210
0.0
220
0.0
230
0.9999999999999998
 40
0.5773502691896262
 41
4.154790153685027
 42
5.269987807084109
  0
ELLIPSE
  5
655F
330
64B7
100
AcDbEntity
  8
0
100
AcDbEllipse
 10
25.89691119130741
 20
82.72080486448246
 30
0.0
 11
-1.250000000000004
 21
2.165063509461099
 31
0.0
210
0.0
220
0.0
230
0.9999999999999998
 40
0.5773502691896262
 41
0.0
 42
6.283185307179586
  0
ELLIPSE
  5
6560
330
64B7
100
AcDbEntity
  8
0
100
AcDbEllipse
 10
18.82584337944193
 20
94.96825357839837
 30
0.0
 11
-1.250000000000003
 21
2.165063509461095
 31
0.0
210
0.0
220
0.0
230
1.0
 40
0.5773502691896261
 41
0.0
 42
6.283185307179586
  0
ELLIPSE
  5
6561
330
64B7
100
AcDbEntity
  8
0
100
AcDbEllipse
 10
18.82584337944193
 20
78.63832195984385
 30
0.0
 11
-1.250000000000002
 21
2.165063509461095
 31
0.0
210
0.0
220
0.0
230
1.0
 40
0.5773502691896261
 41
4.1518946364847
 42
7.918587212760961
  0
LINE
  5
6562
330
64B7
100
AcDbEntity
  8
0
100
AcDbLine
 10
32.61442561257962
 20
79.43571973527982
 30
0.0
 11
32.61442561257963
 21
82.53663100659402
 31
0.0
  0
LINE
  5
6563
330
64B7
100
AcDbEntity
  8
0
100
AcDbLine
 10
32.61442561257963
 20
82.53663100659402
 30
0.0
 11
34.41506940855101
 21
83.57623318691272
 31
0.0
  0
LINE
  5
6564
330
64B7
100
AcDbEntity
  8
0
100
AcDbLine
 10
34.73574595613927
 20
78.21097486388822
 30
0.0
 11
33.32085290270484
 21
79.02786374916316
 31
0.0
  0
LINE
  5
6565
330
64B7
100
AcDbEntity
  8
0
100
AcDbLine
 10
33.32085290270484
 20
79.02786374916316
 30
0.0
 11
32.61442561257964
 21
79.43571973527982
 31
0.0
  0
SPLINE
  5
6566
330
64B7
100
AcDbEntity
  8
0
100
AcDbSpline
210
0.0
220
0.0
230
1.0
 70
     8
 71
     3
 72
    10
 73
     6
 74
     0
 42
0.000000001
 43
0.0000000001
 40
0.0
 40
0.0
 40
0.0
 40
0.0
 40
0.050700019483503
 40
0.050700019483503
 40
0.0861016274322711
 40
0.0861016274322711
 40
0.0861016274322711
 40
0.0861016274322711
 10
34.73574595613929
 20
19.52340982001078
 30
0.0
 10
34.84430332868842
 20
19.64377204800029
 30
0.0
 10
35.07722593683364
 20
19.89430873666543
 30
0.0
 10
35.53724727953527
 20
20.38915251970589
 30
0.0
 10
35.70893959658714
 20
20.57736240829037
 30
0.0
 10
35.85626491329201
 20
20.74694072742109
 30
0.0
  0
ELLIPSE
  5
6567
330
64B7
100
AcDbEntity
  8
0
100
AcDbEllipse
 10
30.49310526902
 20
22.30005787583076
 30
0.0
 11
6.0
 21
0.0000000000001713
 31
0.0
210
0.0
220
0.0
230
1.0
 40
0.577350269189647
 41
5.818270892432481
 42
6.283185307179572
  0
SPLINE
  5
6568
330
64B7
100
AcDbEntity
  8
0
100
AcDbSpline
210
0.0
220
0.0
230
1.0
 70
     8
 71
     3
 72
    20
 73
    16
 74
     0
 42
0.000000001
 43
0.0000000001
 40
0.0224332788372909
 40
0.0224332788372909
 40
0.0224332788372909
 40
0.0224332788372909
 40
0.0405976442382876
 40
0.0405976442382876
 40
0.0716043848006032
 40
0.0716043848006032
 40
0.1028570667555544
 40
0.1028570667555544
 40
0.1477895629815111
 40
0.1477895629815111
 40
0.2029079031134279
 40
0.2029079031134279
 40
0.2338286432219832
 40
0.2338286432219832
 40
0.2734021259215699
 40
0.2734021259215699
 40
0.2734021259215699
 40
0.2734021259215699
 10
34.75188072829727
 20
83.53895980773232
 30
0.0
 10
34.76170503943925
 20
83.46830078234496
 30
0.0
 10
34.77683247851377
 20
83.38902369983815
 30
0.0
 10
34.83788820601311
 20
83.1510110342004
 30
0.0
 10
34.89871455259348
 20
82.97388646518866
 30
0.0
 10
35.08107214067761
 20
82.56180991238142
 30
0.0
 10
35.18758851950865
 20
82.35939895686906
 30
0.0
 10
35.45325288545765
 20
81.8841498288372
 30
0.0
 10
35.62541908573924
 20
81.60155223204958
 30
0.0
 10
35.99090616985853
 20
80.97758915635273
 30
0.0
 10
36.16161700477506
 20
80.66520476037144
 30
0.0
 10
36.34917406497031
 20
80.23802655958013
 30
0.0
 10
36.4008012811504
 20
80.09748105956731
 30
0.0
 10
36.4808673664818
 20
79.81316273118089
 30
0.0
 10
36.49061392435016
 20
79.7118264335906
 30
0.0
 10
36.4926740944354
 20
79.65006937059313
 30
0.0
  0
SPLINE
  5
6569
330
64B7
100
AcDbEntity
  8
0
100
AcDbSpline
210
0.0
220
0.0
230
1.0
 70
     8
 71
     3
 72
    12
 73
     8
 74
     0
 42
0.000000001
 43
0.0000000001
 40
0.0
 40
0.0
 40
0.0
 40
0.0
 40
0.1239712457413027
 40
0.1239712457413027
 40
0.3101197498475104
 40
0.3101197498475104
 40
0.4962683327630347
 40
0.4962683327630347
 40
0.4962683327630347
 40
0.4962683327630347
 10
36.49267409443541
 20
79.65006937059313
 30
0.0
 10
36.49745770876135
 20
79.50744355500032
 30
0.0
 10
36.46242742317958
 20
79.3648963155822
 30
0.0
 10
36.27650342902909
 20
79.01815275990569
 30
0.0
 10
36.07735477704923
 20
78.82084780938268
 30
0.0
 10
35.51723503761724
 20
78.47270833978476
 30
0.0
 10
35.15941017119978
 20
78.32384127427466
 30
0.0
 10
34.73574595613927
 20
78.21097486388826
 30
0.0
  0
LINE
  5
656A
330
64B7
100
AcDbEntity
  8
0
100
AcDbLine
 10
34.73574595613929
 20
19.5234098200108
 30
0.0
 11
34.73574595613927
 21
78.21097486388822
 31
0.0
  0
SPLINE
  5
656B
330
64B7
100
AcDbEntity
  8
0
100
AcDbSpline
210
0.0
220
0.0
230
1.0
 70
     8
 71
     3
 72
    10
 73
     6
 74
     0
 42
0.000000001
 43
0.0000000001
 40
0.0
 40
0.0
 40
0.0
 40
0.0
 40
0.136299842263447
 40
0.136299842263447
 40
0.2725996852924296
 40
0.2725996852924296
 40
0.2725996852924296
 40
0.2725996852924296
 10
32.61442561257964
 20
79.4357197352798
 30
0.0
 10
32.89727448599488
 20
79.42312239126619
 30
0.0
 10
33.12071685217826
 20
79.44328703761925
 30
0.0
 10
33.42243472592736
 20
79.51927183979783
 30
0.0
 10
33.49768511222051
 20
79.57427667498679
 30
0.0
 10
33.4928896817277
 20
79.62930499985947
 30
0.0
  0
SPLINE
  5
656C
330
64B7
100
AcDbEntity
  8
0
100
AcDbSpline
210
0.0
220
0.0
230
1.0
 70
     8
 71
     3
 72
    20
 73
    16
 74
     0
 42
0.000000001
 43
0.0000000001
 40
0.0
 40
0.0
 40
0.0
 40
0.0
 40
0.0292038487378875
 40
0.0292038487378875
 40
0.1061564375162876
 40
0.1061564375162876
 40
0.2088926108699408
 40
0.2088926108699408
 40
0.3299865151030747
 40
0.3299865151030747
 40
0.4924973233749224
 40
0.4924973233749224
 40
0.5936467899060658
 40
0.5936467899060658
 40
0.7611251629226504
 40
0.7611251629226504
 40
0.7611251629226504
 40
0.7611251629226504
 10
33.4928896817277
 20
79.62930499985944
 30
0.0
 10
33.49186077665069
 20
79.64134529967132
 30
0.0
 10
33.487340108282
 20
79.66027890679848
 30
0.0
 10
33.46397587366276
 20
79.74104211245125
 30
0.0
 10
33.431804089499
 20
79.82599158926463
 30
0.0
 10
33.36556367231146
 20
79.99069362269302
 30
0.0
 10
33.31686351533756
 20
80.10382709931297
 30
0.0
 10
33.19624698791471
 20
80.38054729486345
 30
0.0
 10
33.12426505998215
 20
80.54429798110104
 30
0.0
 10
32.96009954620649
 20
80.94246523847935
 30
0.0
 10
32.86651083868243
 20
81.18876066502688
 30
0.0
 10
32.74266845317085
 20
81.6062235481853
 30
0.0
 10
32.70364580229557
 20
81.76490507273468
 30
0.0
 10
32.6270755620881
 20
82.17584287711776
 30
0.0
 10
32.6144090402699
 20
82.38570399866596
 30
0.0
 10
32.61442561257963
 20
82.53663100659402
 30
0.0
  0
LINE
  5
656D
330
64B7
100
AcDbEntity
  8
0
100
AcDbLine
 10
33.4928896817277
 20
79.62930499985947
 30
0.0
 11
36.4926740944354
 21
79.65006937059314
 31
0.0
  0
LINE
  5
656E
330
64B7
100
AcDbEntity
  8
0
100
AcDbLine
 10
36.49310526902
 20
22.30005787583082
 30
0.0
 11
36.49310526902
 21
79.62435627657791
 31
0.0
  0
ELLIPSE
  5
656F
330
64B7
100
AcDbEntity
  8
0
100
AcDbEllipse
 10
-24.68087929022857
 20
17.20962066898871
 30
0.0
 11
5.377621075780822
 21
9.314312927105588
 31
0.0
210
0.0
220
0.0
230
1.0
 40
0.5773502691896255
 41
2.816385777593055
 42
6.608392183176321
  0
ELLIPSE
  5
6570
330
64B7
100
AcDbEntity
  8
0
100
AcDbEllipse
 10
-23.95297525077182
 20
16.78936507586414
 30
0.0
 11
-6.175
 21
-10.69541373673782
 31
0.0
210
0.0
220
0.0
230
0.9999999999999998
 40
0.5773502691896252
 41
0.0
 42
6.283185307179586
  0
ELLIPSE
  5
6571
330
64B7
100
AcDbEntity
  8
0
100
AcDbEllipse
 10
-25.72074220373819
 20
17.80998580202379
 30
0.0
 11
4.23850832689629
 21
7.341311770488134
 31
0.0
210
0.0
220
0.0
230
1.0
 40
0.5773502691896253
 41
2.013279936772268
 42
7.411498023997099
  0
ELLIPSE
  5
6572
330
64B7
100
AcDbEntity
  8
0
100
AcDbEllipse
 10
-25.72074220373819
 20
17.80998580202379
 30
0.0
 11
3.124999999999999
 21
5.412658773652744
 31
0.0
210
0.0
220
0.0
230
1.0
 40
0.5773502691896253
 41
0.0
 42
6.283185307179586
  0
ELLIPSE
  5
6573
330
64B7
100
AcDbEntity
  8
0
100
AcDbEllipse
 10
-27.84206254729785
 20
19.03473067341539
 30
0.0
 11
3.124999999999997
 21
5.412658773652743
 31
0.0
210
0.0
220
0.0
230
1.0
 40
0.5773502691896254
 41
3.487883580748674
 42
5.936894380020706
  0
SPLINE
  5
6574
330
64B7
100
AcDbEntity
  8
0
100
AcDbSpline
210
0.0
220
0.0
230
1.0
 70
     8
 71
     3
 72
    24
 73
    20
 74
     0
 42
0.000000001
 43
0.0000000001
 40
2.681401366189077
 40
2.681401366189077
 40
2.681401366189077
 40
2.681401366189077
 40
3.014345191289621
 40
3.014345191289621
 40
3.307025466620236
 40
3.307025466620236
 40
3.602050720618002
 40
3.602050720618002
 40
3.901852555931288
 40
3.901852555931288
 40
4.203660984601161
 40
4.203660984601161
 40
4.50401297134457
 40
4.50401297134457
 40
4.799817405389999
 40
4.799817405389999
 40
5.092108631578068
 40
5.092108631578068
 40
5.172580267785405
 40
5.172580267785405
 40
5.172580267785405
 40
5.172580267785405
 10
-31.49480635064366
 20
9.375510032932856
 30
0.0
 10
-31.78676270530033
 20
9.887059862811277
 30
0.0
 10
-32.01433514388513
 20
10.58077569799496
 30
0.0
 10
-32.20294408902292
 20
12.17415682954382
 30
0.0
 10
-32.1928081674351
 20
13.03460135510205
 30
0.0
 10
-31.94486574928417
 20
14.89254169273175
 30
0.0
 10
-31.70585003410058
 20
15.89039031269301
 30
0.0
 10
-31.00639793781135
 20
17.92249762014044
 30
0.0
 10
-30.54274321672725
 20
18.95681625117886
 30
0.0
 10
-29.43473722745542
 20
20.94193642701061
 30
0.0
 10
-28.78935294903389
 20
21.89185576651281
 30
0.0
 10
-27.39368516536428
 20
23.59640591790402
 30
0.0
 10
-26.6439956755448
 20
24.35156183479477
 30
0.0
 10
-25.13970872254815
 20
25.58734293391466
 30
0.0
 10
-24.3855746862139
 20
26.07116345140934
 30
0.0
 10
-22.97400827154792
 20
26.74326472212272
 30
0.0
 10
-22.31754162048248
 20
26.93381537580091
 30
0.0
 10
-21.59499481609481
 20
27.01800906171561
 30
0.0
 10
-21.44566211233911
 20
27.027000951275
 30
0.0
 10
-21.30330399355389
 20
27.02770992087033
 30
0.0
  0
ELLIPSE
  5
6575
330
64B7
100
AcDbEntity
  8
0
100
AcDbEllipse
 10
2.251986114836217
 20
36.3855231641828
 30
0.0
 11
4.377621075780823
 21
7.58226211953672
 31
0.0
210
0.0
220
0.0
230
0.9999999999999998
 40
0.5773502691896254
 41
5.95797843118285
 42
9.749984836766113
  0
ELLIPSE
  5
6576
330
64B7
100
AcDbEntity
  8
0
100
AcDbEllipse
 10
3.291849028345841
 20
35.78515803114771
 30
0.0
 11
3.238508326896294
 21
5.60926096291926
 31
0.0
210
0.0
220
0.0
230
1.0
 40
0.5773502691896253
 41
0.0
 42
6.283185307179586
  0
ELLIPSE
  5
6577
330
64B7
100
AcDbEntity
  8
0
100
AcDbEllipse
 10
3.291849028345841
 20
35.78515803114771
 30
0.0
 11
2.125000000000003
 21
3.680607966083871
 31
0.0
210
0.0
220
0.0
230
1.0
 40
0.5773502691896253
 41
0.0
 42
6.283185307179586
  0
ELLIPSE
  5
6578
330
64B7
100
AcDbEntity
  8
0
100
AcDbEllipse
 10
1.170528684786207
 20
37.00990290253929
 30
0.0
 11
2.124999999999782
 21
3.680607966083999
 31
0.0
210
0.0
220
0.0
230
1.0
 40
0.5773502691896253
 41
3.664191975904927
 42
5.760585984863691
  0
ELLIPSE
  5
6579
330
64B7
100
AcDbEntity
  8
0
100
AcDbEllipse
 10
1.524082075379471
 20
36.80577875730737
 30
0.0
 11
-5.175
 21
-8.963362929168944
 31
0.0
210
0.0
220
0.0
230
1.0
 40
0.5773502691896252
 41
2.075523923473493
 42
7.349254037295885
  0
SPLINE
  5
657A
330
64B7
100
AcDbEntity
  8
0
100
AcDbSpline
210
0.0
220
0.0
230
1.0
 70
     8
 71
     3
 72
    22
 73
    18
 74
     0
 42
0.000000001
 43
0.0000000001
 40
5.822994019778872
 40
5.822994019778872
 40
5.822994019778872
 40
5.822994019778872
 40
6.088087961568489
 40
6.088087961568489
 40
6.421273080242093
 40
6.421273080242093
 40
6.789766923390131
 40
6.789766923390131
 40
7.154709371790278
 40
7.154709371790278
 40
7.517479361661496
 40
7.517479361661496
 40
7.885319521951044
 40
7.885319521951044
 40
8.244512209762332
 40
8.244512209762332
 40
8.314172921375195
 40
8.314172921375195
 40
8.314172921375195
 40
8.314172921375195
 10
7.798823701226655
 20
42.76283524086482
 30
0.0
 10
8.136066231284724
 20
42.1719374709504
 30
0.0
 10
8.350711979526987
 20
41.53673791228159
 30
0.0
 10
8.627249217934739
 20
40.08050606142266
 30
0.0
 10
8.638426668664855
 20
39.24977270071316
 30
0.0
 10
8.441139864224433
 20
37.49664088589835
 30
0.0
 10
8.207430664241721
 20
36.57214221991492
 30
0.0
 10
7.533312981852655
 20
34.78010535935626
 30
0.0
 10
7.094267091617521
 20
33.91269869950953
 30
0.0
 10
6.053156341874346
 20
32.30053296513454
 30
0.0
 10
5.452526718627161
 20
31.55538075889226
 30
0.0
 10
4.112777523746444
 20
30.24072262272592
 30
0.0
 10
3.372720461699074
 20
29.67252957002041
 30
0.0
 10
1.786968077621944
 20
28.8143956351096
 30
0.0
 10
0.9393068445634611
 20
28.51410347384437
 30
0.0
 10
-0.1412745616968936
 20
28.40389648171865
 30
0.0
 10
-0.3187277320238868
 20
28.39405523071786
 30
0.0
 10
-0.4975093582364698
 20
28.39316486536131
 30
0.0
  0
ELLIPSE
  5
657B
330
64B7
100
AcDbEntity
  8
0
100
AcDbEllipse
 10
-24.68087929022858
 20
-15.45024256812034
 30
0.0
 11
5.377621075780822
 21
9.314312927105593
 31
0.0
210
0.0
220
0.0
230
1.0
 40
0.5773502691896253
 41
2.816385777593056
 42
6.608392183176321
  0
ELLIPSE
  5
657C
330
64B7
100
AcDbEntity
  8
0
100
AcDbEllipse
 10
-23.95297525077184
 20
-15.87049816124491
 30
0.0
 11
-6.175
 21
-10.69541373673782
 31
0.0
210
0.0
220
0.0
230
0.9999999999999998
 40
0.5773502691896252
 41
0.0
 42
6.283185307179586
  0
ELLIPSE
  5
657D
330
64B7
100
AcDbEntity
  8
0
100
AcDbEllipse
 10
-25.72074220373821
 20
-14.84987743508525
 30
0.0
 11
4.238508326896289
 21
7.341311770488135
 31
0.0
210
0.0
220
0.0
230
1.0
 40
0.5773502691896254
 41
2.013279936772283
 42
7.411498023997098
  0
ELLIPSE
  5
657E
330
64B7
100
AcDbEntity
  8
0
100
AcDbEllipse
 10
-25.72074220373821
 20
-14.84987743508525
 30
0.0
 11
3.124999999999999
 21
5.412658773652744
 31
0.0
210
0.0
220
0.0
230
1.0
 40
0.5773502691896253
 41
0.0
 42
6.283185307179586
  0
ELLIPSE
  5
657F
330
64B7
100
AcDbEntity
  8
0
100
AcDbEllipse
 10
-27.84206254729786
 20
-13.62513256369366
 30
0.0
 11
3.124999999999997
 21
5.412658773652743
 31
0.0
210
0.0
220
0.0
230
1.0
 40
0.5773502691896254
 41
3.487883580748672
 42
5.936894380020706
  0
ELLIPSE
  5
6580
330
64B7
100
AcDbEntity
  8
0
100
AcDbEllipse
 10
-24.68087929022858
 20
-48.11010580522938
 30
0.0
 11
5.377621075780822
 21
9.314312927105588
 31
0.0
210
0.0
220
0.0
230
1.0
 40
0.5773502691896255
 41
2.816385777593056
 42
6.608392183176322
  0
ELLIPSE
  5
6581
330
64B7
100
AcDbEntity
  8
0
100
AcDbEllipse
 10
-23.95297525077184
 20
-48.53036139835395
 30
0.0
 11
-6.175
 21
-10.69541373673782
 31
0.0
210
0.0
220
0.0
230
0.9999999999999998
 40
0.5773502691896252
 41
0.0
 42
6.283185307179586
  0
ELLIPSE
  5
6582
330
64B7
100
AcDbEntity
  8
0
100
AcDbEllipse
 10
-25.72074220373821
 20
-47.50974067219427
 30
0.0
 11
4.238508326896289
 21
7.341311770488135
 31
0.0
210
0.0
220
0.0
230
1.0
 40
0.5773502691896253
 41
2.013279936772309
 42
7.411498023997074
  0
ELLIPSE
  5
6583
330
64B7
100
AcDbEntity
  8
0
100
AcDbEllipse
 10
-25.72074220373821
 20
-47.50974067219427
 30
0.0
 11
3.124999999999999
 21
5.412658773652744
 31
0.0
210
0.0
220
0.0
230
1.0
 40
0.5773502691896253
 41
0.0
 42
6.283185307179586
  0
ELLIPSE
  5
6584
330
64B7
100
AcDbEntity
  8
0
100
AcDbEllipse
 10
-27.84206254729785
 20
-46.28499580080269
 30
0.0
 11
3.124999999999997
 21
5.412658773652743
 31
0.0
210
0.0
220
0.0
230
1.0
 40
0.5773502691896254
 41
3.487883580748668
 42
5.936894380020705
  0
ELLIPSE
  5
6585
330
64B7
100
AcDbEntity
  8
0
100
AcDbEllipse
 10
-24.68087929022861
 20
-80.7699690423384
 30
0.0
 11
5.377621075780822
 21
9.314312927105588
 31
0.0
210
0.0
220
0.0
230
1.0
 40
0.5773502691896255
 41
2.816385777593058
 42
6.608392183176322
  0
ELLIPSE
  5
6586
330
64B7
100
AcDbEntity
  8
0
100
AcDbEllipse
 10
-23.95297525077186
 20
-81.19022463546299
 30
0.0
 11
-6.175
 21
-10.69541373673782
 31
0.0
210
0.0
220
0.0
230
0.9999999999999998
 40
0.5773502691896252
 41
0.0
 42
6.283185307179586
  0
ELLIPSE
  5
6587
330
64B7
100
AcDbEntity
  8
0
100
AcDbEllipse
 10
-25.72074220373822
 20
-80.16960390930334
 30
0.0
 11
4.23850832689629
 21
7.341311770488134
 31
0.0
210
0.0
220
0.0
230
1.0
 40
0.5773502691896253
 41
2.013279936772285
 42
7.411498023997098
  0
ELLIPSE
  5
6588
330
64B7
100
AcDbEntity
  8
0
100
AcDbEllipse
 10
-25.72074220373822
 20
-80.16960390930334
 30
0.0
 11
3.124999999999999
 21
5.412658773652744
 31
0.0
210
0.0
220
0.0
230
1.0
 40
0.5773502691896253
 41
0.0
 42
6.283185307179586
  0
ELLIPSE
  5
6589
330
64B7
100
AcDbEntity
  8
0
100
AcDbEllipse
 10
-27.84206254729787
 20
-78.94485903791172
 30
0.0
 11
3.124999999999997
 21
5.412658773652743
 31
0.0
210
0.0
220
0.0
230
1.0
 40
0.5773502691896255
 41
3.487883580748672
 42
5.936894380020699
  0
ELLIPSE
  5
658A
330
64B7
100
AcDbEntity
  8
0
100
AcDbEllipse
 10
2.251986114836221
 20
3.725659927073761
 30
0.0
 11
4.377621075780825
 21
7.582262119536721
 31
0.0
210
0.0
220
0.0
230
0.9999999999999998
 40
0.5773502691896254
 41
5.95797843118285
 42
9.749984836766113
  0
ELLIPSE
  5
658B
330
64B7
100
AcDbEntity
  8
0
100
AcDbEllipse
 10
3.291849028345845
 20
3.125294794038668
 30
0.0
 11
3.238508326896294
 21
5.60926096291926
 31
0.0
210
0.0
220
0.0
230
1.0
 40
0.5773502691896253
 41
0.0
 42
6.283185307179586
  0
ELLIPSE
  5
658C
330
64B7
100
AcDbEntity
  8
0
100
AcDbEllipse
 10
3.291849028345845
 20
3.125294794038668
 30
0.0
 11
2.125000000000003
 21
3.680607966083871
 31
0.0
210
0.0
220
0.0
230
1.0
 40
0.5773502691896253
 41
0.0
 42
6.283185307179586
  0
ELLIPSE
  5
658D
330
64B7
100
AcDbEntity
  8
0
100
AcDbEllipse
 10
1.170528684786198
 20
4.35003966543026
 30
0.0
 11
2.124999999999782
 21
3.680607966083998
 31
0.0
210
0.0
220
0.0
230
1.0
 40
0.5773502691896254
 41
3.66419197590493
 42
5.760585984863685
  0
ELLIPSE
  5
658E
330
64B7
100
AcDbEntity
  8
0
100
AcDbEllipse
 10
1.524082075379475
 20
4.145915520198326
 30
0.0
 11
-5.174999999999998
 21
-8.963362929168948
 31
0.0
210
0.0
220
0.0
230
1.0
 40
0.5773502691896254
 41
2.075523923473494
 42
7.349254037295886
  0
ELLIPSE
  5
658F
330
64B7
100
AcDbEntity
  8
0
100
AcDbEllipse
 10
2.251986114836217
 20
-28.93420331003528
 30
0.0
 11
4.377621075780823
 21
7.58226211953672
 31
0.0
210
0.0
220
0.0
230
0.9999999999999998
 40
0.5773502691896254
 41
5.957978431182851
 42
9.749984836766113
  0
ELLIPSE
  5
6590
330
64B7
100
AcDbEntity
  8
0
100
AcDbEllipse
 10
3.291849028345845
 20
-29.53456844307038
 30
0.0
 11
3.238508326896294
 21
5.60926096291926
 31
0.0
210
0.0
220
0.0
230
1.0
 40
0.5773502691896253
 41
0.0
 42
6.283185307179586
  0
ELLIPSE
  5
6591
330
64B7
100
AcDbEntity
  8
0
100
AcDbEllipse
 10
3.291849028345845
 20
-29.53456844307038
 30
0.0
 11
2.125000000000003
 21
3.680607966083871
 31
0.0
210
0.0
220
0.0
230
1.0
 40
0.5773502691896253
 41
0.0
 42
6.283185307179586
  0
ELLIPSE
  5
6592
330
64B7
100
AcDbEntity
  8
0
100
AcDbEllipse
 10
1.170528684786207
 20
-28.30982357167878
 30
0.0
 11
2.124999999999782
 21
3.680607966083999
 31
0.0
210
0.0
220
0.0
230
1.0
 40
0.5773502691896253
 41
3.664191975904927
 42
5.76058598486369
  0
ELLIPSE
  5
6593
330
64B7
100
AcDbEntity
  8
0
100
AcDbEllipse
 10
1.524082075379475
 20
-28.51394771691071
 30
0.0
 11
-5.175000000000001
 21
-8.963362929168942
 31
0.0
210
0.0
220
0.0
230
0.9999999999999998
 40
0.5773502691896254
 41
2.075523923473493
 42
7.349254037295885
  0
ELLIPSE
  5
6594
330
64B7
100
AcDbEntity
  8
0
100
AcDbEllipse
 10
2.251986114836208
 20
-61.59406654714432
 30
0.0
 11
4.377621075780823
 21
7.58226211953672
 31
0.0
210
0.0
220
0.0
230
0.9999999999999998
 40
0.5773502691896254
 41
5.95797843118285
 42
9.749984836766113
  0
ELLIPSE
  5
6595
330
64B7
100
AcDbEntity
  8
0
100
AcDbEllipse
 10
3.291849028345836
 20
-62.19443168017942
 30
0.0
 11
3.238508326896294
 21
5.60926096291926
 31
0.0
210
0.0
220
0.0
230
1.0
 40
0.5773502691896253
 41
0.0
 42
6.283185307179586
  0
ELLIPSE
  5
6596
330
64B7
100
AcDbEntity
  8
0
100
AcDbEllipse
 10
3.291849028345836
 20
-62.19443168017942
 30
0.0
 11
2.125000000000003
 21
3.680607966083871
 31
0.0
210
0.0
220
0.0
230
1.0
 40
0.5773502691896253
 41
0.0
 42
6.283185307179586
  0
ELLIPSE
  5
6597
330
64B7
100
AcDbEntity
  8
0
100
AcDbEllipse
 10
1.170528684786198
 20
-60.96968680878783
 30
0.0
 11
2.124999999999782
 21
3.680607966083999
 31
0.0
210
0.0
220
0.0
230
1.0
 40
0.5773502691896253
 41
3.664191975904927
 42
5.76058598486369
  0
ELLIPSE
  5
6598
330
64B7
100
AcDbEntity
  8
0
100
AcDbEllipse
 10
1.524082075379467
 20
-61.17381095401976
 30
0.0
 11
-5.174999999999998
 21
-8.963362929168946
 31
0.0
210
0.0
220
0.0
230
1.0
 40
0.5773502691896254
 41
2.075523923473493
 42
7.349254037295889
  0
SPLINE
  5
6599
330
64B7
100
AcDbEntity
  8
0
100
AcDbSpline
210
0.0
220
0.0
230
1.0
 70
     8
 71
     3
 72
    24
 73
    20
 74
     0
 42
0.000000001
 43
0.0000000001
 40
2.681401366189077
 40
2.681401366189077
 40
2.681401366189077
 40
2.681401366189077
 40
3.014345191289621
 40
3.014345191289621
 40
3.307025466620236
 40
3.307025466620236
 40
3.602050720618002
 40
3.602050720618002
 40
3.901852555931288
 40
3.901852555931288
 40
4.203660984601161
 40
4.203660984601161
 40
4.50401297134457
 40
4.50401297134457
 40
4.799817405389999
 40
4.799817405389999
 40
5.092108631578068
 40
5.092108631578068
 40
5.172580267785404
 40
5.172580267785404
 40
5.172580267785404
 40
5.172580267785404
 10
-31.49480635064367
 20
-23.2843532041762
 30
0.0
 10
-31.78676270530034
 20
-22.77280337429777
 30
0.0
 10
-32.01433514388515
 20
-22.07908753911408
 30
0.0
 10
-32.20294408902292
 20
-20.48570640756522
 30
0.0
 10
-32.19280816743512
 20
-19.62526188200699
 30
0.0
 10
-31.94486574928419
 20
-17.76732154437729
 30
0.0
 10
-31.70585003410059
 20
-16.76947292441604
 30
0.0
 10
-31.00639793781136
 20
-14.73736561696861
 30
0.0
 10
-30.54274321672727
 20
-13.7030469859302
 30
0.0
 10
-29.43473722745544
 20
-11.71792681009844
 30
0.0
 10
-28.78935294903389
 20
-10.76800747059623
 30
0.0
 10
-27.3936851653643
 20
-9.063457319205024
 30
0.0
 10
-26.64399567554482
 20
-8.308301402314285
 30
0.0
 10
-25.13970872254816
 20
-7.072520303194385
 30
0.0
 10
-24.38557468621392
 20
-6.588699785699696
 30
0.0
 10
-22.97400827154793
 20
-5.916598514986324
 30
0.0
 10
-22.31754162048249
 20
-5.726047861308143
 30
0.0
 10
-21.59499481609481
 20
-5.641854175393437
 30
0.0
 10
-21.44566211233911
 20
-5.632862285834057
 30
0.0
 10
-21.3033039935539
 20
-5.632153316238714
 30
0.0
  0
SPLINE
  5
659A
330
64B7
100
AcDbEntity
  8
0
100
AcDbSpline
210
0.0
220
0.0
230
1.0
 70
     8
 71
     3
 72
    24
 73
    20
 74
     0
 42
0.000000001
 43
0.0000000001
 40
2.681401366189068
 40
2.681401366189068
 40
2.681401366189068
 40
2.681401366189068
 40
3.014345191289615
 40
3.014345191289615
 40
3.30702546662023
 40
3.30702546662023
 40
3.602050720617996
 40
3.602050720617996
 40
3.901852555931282
 40
3.901852555931282
 40
4.203660984601156
 40
4.203660984601156
 40
4.504012971344565
 40
4.504012971344565
 40
4.799817405389994
 40
4.799817405389994
 40
5.092108631578063
 40
5.092108631578063
 40
5.172580267785414
 40
5.172580267785414
 40
5.172580267785414
 40
5.172580267785414
 10
-31.49480635064364
 20
-55.94421644128527
 30
0.0
 10
-31.78676270530033
 20
-55.43266661140686
 30
0.0
 10
-32.01433514388511
 20
-54.73895077622316
 30
0.0
 10
-32.20294408902291
 20
-53.14556964467429
 30
0.0
 10
-32.19280816743513
 20
-52.2851251191161
 30
0.0
 10
-31.9448657492842
 20
-50.42718478148639
 30
0.0
 10
-31.70585003410059
 20
-49.42933616152514
 30
0.0
 10
-31.00639793781138
 20
-47.39722885407771
 30
0.0
 10
-30.54274321672727
 20
-46.36291022303929
 30
0.0
 10
-29.43473722745545
 20
-44.37779004720752
 30
0.0
 10
-28.78935294903392
 20
-43.42787070770532
 30
0.0
 10
-27.39368516536432
 20
-41.72332055631409
 30
0.0
 10
-26.64399567554484
 20
-40.96816463942335
 30
0.0
 10
-25.13970872254818
 20
-39.73238354030345
 30
0.0
 10
-24.38557468621395
 20
-39.24856302280877
 30
0.0
 10
-22.97400827154796
 20
-38.57646175209538
 30
0.0
 10
-22.31754162048251
 20
-38.38591109841718
 30
0.0
 10
-21.59499481609481
 20
-38.30171741250246
 30
0.0
 10
-21.44566211233908
 20
-38.29272552294309
 30
0.0
 10
-21.30330399355384
 20
-38.29201655334775
 30
0.0
  0
SPLINE
  5
659B
330
64B7
100
AcDbEntity
  8
0
100
AcDbSpline
210
0.0
220
0.0
230
1.0
 70
     8
 71
     3
 72
    24
 73
    20
 74
     0
 42
0.000000001
 43
0.0000000001
 40
2.681401366189077
 40
2.681401366189077
 40
2.681401366189077
 40
2.681401366189077
 40
3.014345191289621
 40
3.014345191289621
 40
3.307025466620236
 40
3.307025466620236
 40
3.602050720618002
 40
3.602050720618002
 40
3.901852555931288
 40
3.901852555931288
 40
4.203660984601161
 40
4.203660984601161
 40
4.50401297134457
 40
4.50401297134457
 40
4.799817405389999
 40
4.799817405389999
 40
5.092108631578068
 40
5.092108631578068
 40
5.172580267785405
 40
5.172580267785405
 40
5.172580267785405
 40
5.172580267785405
 10
-31.49480635064368
 20
-88.60407967839426
 30
0.0
 10
-31.78676270530036
 20
-88.09252984851584
 30
0.0
 10
-32.01433514388516
 20
-87.39881401333214
 30
0.0
 10
-32.20294408902294
 20
-85.80543288178331
 30
0.0
 10
-32.19280816743513
 20
-84.94498835622508
 30
0.0
 10
-31.94486574928419
 20
-83.08704801859537
 30
0.0
 10
-31.7058500341006
 20
-82.08919939863411
 30
0.0
 10
-31.00639793781137
 20
-80.0570920911867
 30
0.0
 10
-30.54274321672729
 20
-79.02277346014827
 30
0.0
 10
-29.43473722745545
 20
-77.03765328431652
 30
0.0
 10
-28.7893529490339
 20
-76.08773394481431
 30
0.0
 10
-27.39368516536431
 20
-74.38318379342309
 30
0.0
 10
-26.64399567554484
 20
-73.62802787653236
 30
0.0
 10
-25.13970872254816
 20
-72.39224677741247
 30
0.0
 10
-24.38557468621393
 20
-71.90842625991777
 30
0.0
 10
-22.97400827154794
 20
-71.23632498920442
 30
0.0
 10
-22.3175416204825
 20
-71.04577433552622
 30
0.0
 10
-21.59499481609483
 20
-70.96158064961151
 30
0.0
 10
-21.44566211233912
 20
-70.95258876005215
 30
0.0
 10
-21.30330399355392
 20
-70.95187979045679
 30
0.0
  0
SPLINE
  5
659C
330
64B7
100
AcDbEntity
  8
0
100
AcDbSpline
210
0.0
220
0.0
230
1.0
 70
     8
 71
     3
 72
    22
 73
    18
 74
     0
 42
0.000000001
 43
0.0000000001
 40
5.822994019778872
 40
5.822994019778872
 40
5.822994019778872
 40
5.822994019778872
 40
6.088087961568489
 40
6.088087961568489
 40
6.421273080242093
 40
6.421273080242093
 40
6.789766923390131
 40
6.789766923390131
 40
7.154709371790278
 40
7.154709371790278
 40
7.517479361661496
 40
7.517479361661496
 40
7.885319521951044
 40
7.885319521951044
 40
8.244512209762332
 40
8.244512209762332
 40
8.314172921375195
 40
8.314172921375195
 40
8.314172921375195
 40
8.314172921375195
 10
7.79882370122666
 20
10.10297200375578
 30
0.0
 10
8.136066231284729
 20
9.51207423384136
 30
0.0
 10
8.350711979526987
 20
8.876874675172556
 30
0.0
 10
8.627249217934739
 20
7.420642824313617
 30
0.0
 10
8.638426668664859
 20
6.589909463604119
 30
0.0
 10
8.441139864224442
 20
4.836777648789302
 30
0.0
 10
8.207430664241726
 20
3.912278982805879
 30
0.0
 10
7.533312981852664
 20
2.120242122247215
 30
0.0
 10
7.094267091617529
 20
1.252835462400492
 30
0.0
 10
6.05315634187435
 20
-0.3593302719744962
 30
0.0
 10
5.452526718627166
 20
-1.104482478216777
 30
0.0
 10
4.112777523746453
 20
-2.419140614383117
 30
0.0
 10
3.372720461699083
 20
-2.987333667088631
 30
0.0
 10
1.786968077621948
 20
-3.845467601999432
 30
0.0
 10
0.9393068445634655
 20
-4.145759763264669
 30
0.0
 10
-0.1412745616968847
 20
-4.25596675539039
 30
0.0
 10
-0.3187277320238779
 20
-4.265808006391185
 30
0.0
 10
-0.4975093582364698
 20
-4.266698371747734
 30
0.0
  0
SPLINE
  5
659D
330
64B7
100
AcDbEntity
  8
0
100
AcDbSpline
210
0.0
220
0.0
230
1.0
 70
     8
 71
     3
 72
    22
 73
    18
 74
     0
 42
0.000000001
 43
0.0000000001
 40
5.822994019778872
 40
5.822994019778872
 40
5.822994019778872
 40
5.822994019778872
 40
6.088087961568489
 40
6.088087961568489
 40
6.421273080242093
 40
6.421273080242093
 40
6.789766923390131
 40
6.789766923390131
 40
7.154709371790278
 40
7.154709371790278
 40
7.517479361661496
 40
7.517479361661496
 40
7.885319521951044
 40
7.885319521951044
 40
8.244512209762332
 40
8.244512209762332
 40
8.314172921375195
 40
8.314172921375195
 40
8.314172921375195
 40
8.314172921375195
 10
7.798823701226651
 20
-22.55689123335326
 30
0.0
 10
8.136066231284718
 20
-23.14778900326768
 30
0.0
 10
8.350711979526987
 20
-23.78298856193647
 30
0.0
 10
8.627249217934744
 20
-25.23922041279542
 30
0.0
 10
8.638426668664859
 20
-26.06995377350492
 30
0.0
 10
8.441139864224433
 20
-27.82308558831974
 30
0.0
 10
8.207430664241716
 20
-28.74758425430317
 30
0.0
 10
7.533312981852655
 20
-30.53962111486182
 30
0.0
 10
7.094267091617525
 20
-31.40702777470855
 30
0.0
 10
6.053156341874346
 20
-33.01919350908355
 30
0.0
 10
5.452526718627157
 20
-33.7643457153258
 30
0.0
 10
4.112777523746449
 20
-35.07900385149215
 30
0.0
 10
3.372720461699074
 20
-35.64719690419766
 30
0.0
 10
1.786968077621944
 20
-36.50533083910847
 30
0.0
 10
0.9393068445634611
 20
-36.80562300037372
 30
0.0
 10
-0.1412745616968891
 20
-36.91582999249944
 30
0.0
 10
-0.3187277320238824
 20
-36.92567124350022
 30
0.0
 10
-0.4975093582364743
 20
-36.92656160885678
 30
0.0
  0
SPLINE
  5
659E
330
64B7
100
AcDbEntity
  8
0
100
AcDbSpline
210
0.0
220
0.0
230
1.0
 70
     8
 71
     3
 72
    22
 73
    18
 74
     0
 42
0.000000001
 43
0.0000000001
 40
5.822994019778872
 40
5.822994019778872
 40
5.822994019778872
 40
5.822994019778872
 40
6.088087961568489
 40
6.088087961568489
 40
6.421273080242093
 40
6.421273080242093
 40
6.789766923390131
 40
6.789766923390131
 40
7.154709371790278
 40
7.154709371790278
 40
7.517479361661496
 40
7.517479361661496
 40
7.885319521951044
 40
7.885319521951044
 40
8.244512209762332
 40
8.244512209762332
 40
8.314172921375195
 40
8.314172921375195
 40
8.314172921375195
 40
8.314172921375195
 10
7.798823701226647
 20
-55.21675447046231
 30
0.0
 10
8.136066231284715
 20
-55.80765224037671
 30
0.0
 10
8.350711979526973
 20
-56.44285179904551
 30
0.0
 10
8.627249217934732
 20
-57.89908364990447
 30
0.0
 10
8.638426668664852
 20
-58.72981701061397
 30
0.0
 10
8.441139864224428
 20
-60.48294882542878
 30
0.0
 10
8.207430664241712
 20
-61.40744749141221
 30
0.0
 10
7.533312981852651
 20
-63.19948435197087
 30
0.0
 10
7.094267091617516
 20
-64.0668910118176
 30
0.0
 10
6.053156341874337
 20
-65.67905674619257
 30
0.0
 10
5.452526718627153
 20
-66.42420895243486
 30
0.0
 10
4.112777523746444
 20
-67.7388670886012
 30
0.0
 10
3.37272046169907
 20
-68.30706014130672
 30
0.0
 10
1.786968077621935
 20
-69.16519407621752
 30
0.0
 10
0.9393068445634522
 20
-69.46548623748274
 30
0.0
 10
-0.1412745616968936
 20
-69.57569322960847
 30
0.0
 10
-0.3187277320238913
 20
-69.58553448060925
 30
0.0
 10
-0.4975093582364832
 20
-69.5864248459658
 30
0.0
  0
ELLIPSE
  5
659F
330
64B7
100
AcDbEntity
  8
0
100
AcDbEllipse
 10
21.63461487749025
 20
65.17879479849267
 30
0.0
 11
1.2026210757808
 21
2.083000805505488
 31
0.0
210
0.0
220
0.0
230
0.9999999999999998
 40
0.5773502691896254
 41
5.497787143782092
 42
6.608392183176319
  0
ELLIPSE
  5
65A0
330
64B7
100
AcDbEntity
  8
0
100
AcDbEllipse
 10
23.95350917461675
 20
67.10596687553532
 30
0.0
 11
-1.75
 21
0.0000000000001078
 31
0.0
210
0.0
220
0.0
230
1.0
 40
0.5773502691896246
 41
1.209787871990776
 42
2.356194490192581
  0
ELLIPSE
  5
65A1
330
64B7
100
AcDbEntity
  8
0
100
AcDbEllipse
 10
22.36251891694701
 20
64.75853920536808
 30
0.0
 11
2.000000000000198
 21
3.464101615137623
 31
0.0
210
0.0
220
0.0
230
1.0
 40
0.5773502691896254
 41
5.497787143782369
 42
8.639379797372169
  0
ELLIPSE
  5
65A2
330
64B7
100
AcDbEntity
  8
0
100
AcDbEllipse
 10
22.45233325416739
 20
64.81039353713936
 30
0.0
 11
-2.5
 21
0.0000000000000068
 31
0.0
210
0.0
220
0.0
230
1.0
 40
0.5773502691896235
 41
4.351380525580432
 42
5.495874389475098
  0
ELLIPSE
  5
65A3
330
64B7
100
AcDbEntity
  8
0
100
AcDbEllipse
 10
20.59475196398064
 20
-41.9983887509321
 30
0.0
 11
-0.0635083268963
 21
-0.1099996488880846
 31
0.0
210
0.0
220
0.0
230
1.0
 40
0.5773502691896255
 41
5.497787143782141
 42
8.639379797371933
  0
LINE
  5
65A4
330
64B7
100
AcDbEntity
  8
0
100
AcDbLine
 10
20.68456630120101
 20
65.82733072920451
 30
0.0
 11
20.68456630120101
 21
-41.94653441916083
 31
0.0
  0
LINE
  5
65A5
330
64B7
100
AcDbEntity
  8
0
100
AcDbLine
 10
23.33537791325524
 20
66.16073079501932
 30
0.0
 11
23.33537791325524
 21
-41.61681788744051
 31
0.0
  0
ELLIPSE
  5
65A6
330
64B7
100
AcDbEntity
  8
0
100
AcDbEllipse
 10
23.95350917461676
 20
-40.67158180692452
 30
0.0
 11
-1.75
 21
0.0000000000001078
 31
0.0
210
0.0
220
0.0
230
1.0
 40
0.5773502691896246
 41
1.209787871990776
 42
2.356194490192581
  0
LINE
  5
65A7
330
64B7
100
AcDbEntity
  8
0
100
AcDbLine
 10
25.19094604169321
 20
66.39153236722354
 30
0.0
 11
25.19094604169321
 21
-41.38601631523631
 31
0.0
  0
ELLIPSE
  5
65A8
330
64B7
100
AcDbEntity
  8
0
100
AcDbEllipse
 10
22.45233325416739
 20
-42.96715514532047
 30
0.0
 11
-2.5
 21
0.0000000000000068
 31
0.0
210
0.0
220
0.0
230
1.0
 40
0.5773502691896235
 41
4.351380525580432
 42
5.497787143782139
  0
ELLIPSE
  5
65A9
330
64B7
100
AcDbEntity
  8
0
100
AcDbEllipse
 10
21.63461487749027
 20
-42.59875388396718
 30
0.0
 11
-1.202621075780956
 21
-2.08300080550547
 31
0.0
210
0.0
220
0.0
230
1.0
 40
0.5773502691896253
 41
5.9579784311832
 42
8.639379797372171
  0
ELLIPSE
  5
65AA
330
64B7
100
AcDbEntity
  8
0
100
AcDbEllipse
 10
22.36251891694703
 20
-43.01900947709174
 30
0.0
 11
-2.000000000000208
 21
-3.464101615137639
 31
0.0
210
0.0
220
0.0
230
1.0
 40
0.5773502691896254
 41
5.497787143782373
 42
8.639379797372175
  0
SPLINE
  5
65AB
330
64B7
100
AcDbEntity
  8
0
100
AcDbSpline
210
0.0
220
0.0
230
1.0
 70
     8
 71
     3
 72
    24
 73
    20
 74
     0
 42
0.000000001
 43
0.0000000001
 40
3.141592653589793
 40
3.141592653589793
 40
3.141592653589793
 40
3.141592653589793
 40
3.363002096328805
 40
3.363002096328805
 40
3.600681815233281
 40
3.600681815233281
 40
3.852352465744871
 40
3.852352465744871
 40
4.110948982971207
 40
4.110948982971207
 40
4.367600266020783
 40
4.367600266020783
 40
4.613344275145482
 40
4.613344275145482
 40
4.84195828958259
 40
4.84195828958259
 40
5.056505913629746
 40
5.056505913629746
 40
5.172580267785393
 40
5.172580267785393
 40
5.172580267785393
 40
5.172580267785393
 10
20.0466549251244
 20
63.8399805518244
 30
0.0
 10
20.0466549251244
 20
63.96916867127074
 30
0.0
 10
20.0594952458684
 20
64.12414634445608
 30
0.0
 10
20.1215821943566
 20
64.4784813446067
 30
0.0
 10
20.17332438304041
 20
64.68016409254296
 30
0.0
 10
20.32032860878424
 20
65.10843325094024
 30
0.0
 10
20.41790510342208
 20
65.33575280869704
 30
0.0
 10
20.65204725447941
 20
65.78500100236986
 30
0.0
 10
20.78959008352298
 20
66.00657570337765
 30
0.0
 10
21.08547249551634
 20
66.41186561717521
 30
0.0
 10
21.24366328851587
 20
66.59578441419947
 30
0.0
 10
21.55275360938541
 20
66.90241514177344
 30
0.0
 10
21.70369001818073
 20
67.027253574289
 30
0.0
 10
21.96933198687579
 20
67.21110243934758
 30
0.0
 10
22.08570577081989
 20
67.27386370775896
 30
0.0
 10
22.26386242884544
 20
67.34991764637346
 30
0.0
 10
22.32805402535196
 20
67.36583742042452
 30
0.0
 10
22.37994621274066
 20
67.37432353687712
 30
0.0
 10
22.38929749610713
 20
67.37445403734269
 30
0.0
 10
22.38995691062673
 20
67.37445732134817
 30
0.0
  0
SPLINE
  5
65AC
330
64B7
100
AcDbEntity
  8
0
100
AcDbSpline
210
0.0
220
0.0
230
1.0
 70
     8
 71
     3
 72
    16
 73
    12
 74
     0
 42
0.000000001
 43
0.0000000001
 40
2.681401366189073
 40
2.681401366189073
 40
2.681401366189073
 40
2.681401366189073
 40
2.773439623669216
 40
2.773439623669216
 40
2.86547788114936
 40
2.86547788114936
 40
2.957516138629503
 40
2.957516138629503
 40
3.049554396109647
 40
3.049554396109647
 40
3.14159265358979
 40
3.14159265358979
 40
3.14159265358979
 40
3.14159265358979
 10
20.11078637112815
 20
-44.35073053463731
 30
0.0
 10
20.1105271931028
 20
-44.35027641718907
 30
0.0
 10
20.10761286321061
 20
-44.34508181665193
 30
0.0
 10
20.0986939593264
 20
-44.32353268043477
 30
0.0
 10
20.09270821311972
 20
-44.30718773392644
 30
0.0
 10
20.08004572733559
 20
-44.26289704870962
 30
0.0
 10
20.0733778161828
 20
-44.23496344371091
 30
0.0
 10
20.06146142515978
 20
-44.1679387975619
 30
0.0
 10
20.05621514200824
 20
-44.12885769894963
 30
0.0
 10
20.04881240777591
 20
-44.04052028009164
 30
0.0
 10
20.04665492512434
 20
-43.99127067039116
 30
0.0
 10
20.04665492512434
 20
-43.93756813063546
 30
0.0
  0
ELLIPSE
  5
65AD
330
64B7
100
AcDbEntity
  8
0
100
AcDbEllipse
 10
18.29665492512437
 20
63.8399805518244
 30
0.0
 11
1.75
 21
0.0000000000000028
 31
0.0
210
0.0
220
0.0
230
1.0
 40
0.5773502691896271
 41
5.497787143782133
 42
6.283185307179583
  0
LINE
  5
65AE
330
64B7
100
AcDbEntity
  8
0
100
AcDbLine
 10
20.5049376267603
 20
65.5019243015689
 30
0.0
 11
20.50493762676027
 21
-42.05024308270338
 31
0.0
  0
ELLIPSE
  5
65AF
330
64B7
100
AcDbEntity
  8
0
100
AcDbEllipse
 10
18.29665492512434
 20
-43.93756813063546
 30
0.0
 11
1.75
 21
0.0000000000000028
 31
0.0
210
0.0
220
0.0
230
1.0
 40
0.5773502691896271
 41
5.497787143782133
 42
6.283185307179574
  0
ELLIPSE
  5
65B0
330
64B7
100
AcDbEntity
  8
0
100
AcDbEllipse
 10
22.27270457972663
 20
-43.07086380886303
 30
0.0
 11
2.5
 21
-0.0000000000001463
 31
0.0
210
0.0
220
0.0
230
1.0
 40
0.5773502691896275
 41
2.356194490192665
 42
2.669063154849792
  0
LINE
  5
65B1
330
64B7
100
AcDbEntity
  8
0
100
AcDbLine
 10
19.53409179220081
 20
-44.65200263894722
 30
0.0
 11
19.53409179220084
 21
63.12554604351264
 31
0.0
  0
LINE
  5
65B2
330
64B7
100
AcDbEntity
  8
0
100
AcDbLine
 10
20.04665492512435
 20
-43.93756813063546
 30
0.0
 11
20.04665492512438
 21
63.83998055182438
 31
0.0
  0
ENDBLK
  5
64B9
330
64B7
100
AcDbEntity
  8
0
100
AcDbBlockEnd
  0
ENDSEC
  0
SECTION
  2
ENTITIES
  0
INSERT
  5
65B3
330
1F
100
AcDbEntity
  8
0
100
AcDbBlockReference
  2
TU24-Front
 10
0.0
 20
0.0
 30
0.0
  0
INSERT
  5
65B4
330
1F
100
AcDbEntity
  8
0
100
AcDbBlockReference
  2
TU24-Left
 10
94.20040879948654
 20
0.0
 30
0.0
  0
INSERT
  5
65B5
330
1F
100
AcDbEntity
  8
0
100
AcDbBlockReference
  2
TU24-Right
 10
-94.20040879948642
 20
0.0
 30
0.0
  0
INSERT
  5
65B6
330
1F
100
AcDbEntity
  8
0
100
AcDbBlockReference
  2
TU24-Top
 10
0.0
 20
-171.2
 30
0.0
  0
INSERT
  5
65B7
330
1F
100
AcDbEntity
  8
0
100
AcDbBlockReference
  2
TU24-Bottom
 10
0.0
 20
171.2
 30
0.0
  0
INSERT
  5
65B8
330
1F
100
AcDbEntity
  8
0
100
AcDbBlockReference
  2
TU24-ISO
 10
133.1789943509861
 20
-292.0806445741168
 30
0.0
  0
MTEXT
  5
65B9
330
1F
100
AcDbEntity
  8
0
100
AcDbMText
 10
0.0
 20
-342.6483854891472
 30
0.0
 40
21.40000000000001
 41
0.0
 71
     5
 72
     5
  1
TU24
 73
     1
 44
1.0
1001
ACAD
1000
MTEXTBEGIN
1070
    73
1070
     1
1070
    44
1040
1.0
1070
    74
1070
     0
1000
MTEXTEND
  0
ENDSEC
  0
SECTION
  2
OBJECTS
  0
DICTIONARY
  5
C
330
0
100
AcDbDictionary
281
     1
  3
ACAD_CIP_PREVIOUS_PRODUCT_INFO
350
216
  3
ACAD_COLOR
350
6B
  3
ACAD_DETAILVIEWSTYLE
350
21B
  3
ACAD_GROUP
350
D
  3
ACAD_LAYOUT
350
1A
  3
ACAD_MATERIAL
350
6A
  3
ACAD_MLEADERSTYLE
350
12D
  3
ACAD_MLINESTYLE
350
17
  3
ACAD_PLOTSETTINGS
350
19
  3
ACAD_PLOTSTYLENAME
350
E
  3
ACAD_SCALELIST
350
10C
  3
ACAD_SECTIONVIEWSTYLE
350
219
  3
ACAD_TABLESTYLE
350
7E
  3
ACAD_VISUALSTYLE
350
EF
  3
ACDB_RECOMPOSE_DATA
350
66BA
  3
AcDbVariableDictionary
350
5E
  3
DWGPROPS
350
66BB
  0
DICTIONARY
  5
660A
330
8
100
AcDbDictionary
280
     1
281
     1
  0
DICTIONARY
  5
1FF
330
2
100
AcDbDictionary
280
     1
281
     1
  3
ACAD_LAYERSTATES
360
200
  0
DICTIONARY
  5
13C
330
10
100
AcDbDictionary
280
     1
281
     1
  0
DICTIONARY
  5
1CE
330
1F
100
AcDbDictionary
280
     1
281
     1
  3
ACAD_LAYOUTSELFREF
360
6612
  0
DICTIONARY
  5
65BD
330
D2
100
AcDbDictionary
280
     1
281
     1
  3
ACAD_LAYOUTSELFREF
360
661B
  0
DICTIONARY
  5
65BF
330
D6
100
AcDbDictionary
280
     1
281
     1
  3
ACAD_LAYOUTSELFREF
360
661E
  0
XRECORD
  5
216
102
{ACAD_REACTORS
330
C
102
}
330
C
100
AcDbXrecord
280
     1
300
ACD
300
2021
300

  0
DICTIONARY
  5
6B
102
{ACAD_REACTORS
330
C
102
}
330
C
100
AcDbDictionary
281
     1
  0
DICTIONARY
  5
21B
102
{ACAD_REACTORS
330
C
102
}
330
C
100
AcDbDictionary
281
     1
  3
Metric50
350
21C
  0
DICTIONARY
  5
D
102
{ACAD_REACTORS
330
C
102
}
330
C
100
AcDbDictionary
281
     1
  0
DICTIONARY
  5
1A
102
{ACAD_REACTORS
330
C
102
}
330
C
100
AcDbDictionary
281
     1
  3
Layout1
350
D3
  3
Layout2
350
D7
  3
Model
350
22
  0
DICTIONARY
  5
6A
102
{ACAD_REACTORS
330
C
102
}
330
C
100
AcDbDictionary
281
     1
  3
ByBlock
350
ED
  3
ByLayer
350
EC
  3
Global
350
EE
  0
DICTIONARY
  5
12D
102
{ACAD_REACTORS
330
C
102
}
330
C
100
AcDbDictionary
281
     1
  3
Standard
350
12E
  0
DICTIONARY
  5
17
102
{ACAD_REACTORS
330
C
102
}
330
C
100
AcDbDictionary
281
     1
  3
Standard
350
18
  0
DICTIONARY
  5
19
102
{ACAD_REACTORS
330
C
102
}
330
C
100
AcDbDictionary
281
     1
  0
ACDBDICTIONARYWDFLT
  5
E
102
{ACAD_REACTORS
330
C
102
}
330
C
100
AcDbDictionary
281
     1
  3
Normal
350
F
100
AcDbDictionaryWithDefault
340
F
  0
DICTIONARY
  5
10C
102
{ACAD_REACTORS
330
C
102
}
330
C
100
AcDbDictionary
281
     1
  3
A0
350
10D
  3
A1
350
1BE
  3
A2
350
1BF
  3
A3
350
1C0
  3
A4
350
1C1
  3
A5
350
1C2
  3
A6
350
1C3
  3
A7
350
1C4
  3
A8
350
1C5
  3
A9
350
1C6
  3
B0
350
1C7
  3
B1
350
1C8
  3
B2
350
1C9
  3
B3
350
1CA
  3
B4
350
1CB
  3
B5
350
1CC
  3
B6
350
1CD
  0
DICTIONARY
  5
219
102
{ACAD_REACTORS
330
C
102
}
330
C
100
AcDbDictionary
281
     1
  3
Metric50
350
21A
  0
DICTIONARY
  5
7E
102
{ACAD_REACTORS
330
C
102
}
330
C
100
AcDbDictionary
281
     1
  3
Standard
350
7F
  0
DICTIONARY
  5
EF
102
{ACAD_REACTORS
330
C
102
}
330
C
100
AcDbDictionary
281
     1
  3
2dWireframe
350
F5
  3
Basic
350
F4
  3
Brighten
350
FB
  3
ColorChange
350
FF
  3
Conceptual
350
F8
  3
Dim
350
FA
  3
EdgeColorOff
350
1E6
  3
Facepattern
350
FE
  3
Flat
350
F0
  3
FlatWithEdges
350
F1
  3
Gouraud
350
F2
  3
GouraudWithEdges
350
F3
  3
Hidden
350
F7
  3
JitterOff
350
1E4
  3
Linepattern
350
FD
  3
OverhangOff
350
1E5
  3
Realistic
350
F9
  3
Shaded
350
1F3
  3
Shaded with edges
350
1F2
  3
Shades of Gray
350
1EF
  3
Sketchy
350
1F0
  3
Thicken
350
FC
  3
Wireframe
350
F6
  3
X-Ray
350
1F1
  0
XRECORD
  5
66BA
102
{ACAD_REACTORS
330
C
102
}
330
C
100
AcDbXrecord
280
     1
 90
        1
330
7F
  0
DICTIONARY
  5
5E
102
{ACAD_REACTORS
330
C
102
}
330
C
100
AcDbDictionary
281
     1
  3
CANNOSCALE
350
146
  3
CENTEREXE
350
259
  3
CENTERLTYPEFILE
350
25A
  3
CMLEADERSTYLE
350
145
  3
CTABLESTYLE
350
84
  3
CVIEWDETAILSTYLE
350
227
  3
CVIEWSECTIONSTYLE
350
228
  3
DIMASSOC
350
5F
  3
HIDETEXT
350
63
  3
INDEXCTL
350
6667
  3
LAYEREVAL
350
1AE
  3
LAYERNOTIFY
350
1AF
  3
LIGHTINGUNITS
350
6665
  3
MSLTSCALE
350
6664
  3
PSOLHEIGHT
350
66B7
  3
PSOLWIDTH
350
66B6
  3
SORTENTS
350
6666
  3
XCLIPFRAME
350
66B8
  0
XRECORD
  5
66BB
102
{ACAD_REACTORS
330
C
102
}
330
C
100
AcDbXrecord
280
     1
  1
DWGPROPS COOKIE
  2

  3

  4

  6

  7

  8
tronnguyen
  9

300
=
301
=
302
=
303
=
304
=
305
=
306
=
307
=
308
=
309
=
 40
0.0037847222222222
 41
2460367.705740741
 42
2460367.714039352
  1

 90
        0
  0
DICTIONARY
  5
200
102
{ACAD_REACTORS
330
1FF
102
}
330
1FF
100
AcDbDictionary
281
     1
  0
XRECORD
  5
6612
102
{ACAD_REACTORS
330
1CE
102
}
330
1CE
100
AcDbXrecord
280
     1
340
1F
  0
XRECORD
  5
661B
102
{ACAD_REACTORS
330
65BD
102
}
330
65BD
100
AcDbXrecord
280
     1
340
D2
  0
XRECORD
  5
661E
102
{ACAD_REACTORS
330
65BF
102
}
330
65BF
100
AcDbXrecord
280
     1
340
D6
  0
ACDBDETAILVIEWSTYLE
  5
21C
102
{ACAD_XDICTIONARY
360
66FA
102
}
102
{ACAD_REACTORS
330
21B
102
}
330
21B
100
AcDbModelDocViewStyle
 70
     0
  3
Metric50
290
     0
100
AcDbDetailViewStyle
 70
     0
 71
     0
 90
        3
 71
     1
340
11
 40
5.0
340
0
 40
5.0
300

 40
0.0
280
     1
 71
     2
340
16
 90
       25
 71
     3
340
11
 40
5.0
 90
        0
 40
15.0
 90
        1
300
%<\AcVar ViewDetailId>% (%<\AcVar ViewScale \f "%sn">%)
 71
     4
340
16
 90
       25
340
16
 90
       25
280
     0
  0
LAYOUT
  5
D3
102
{ACAD_XDICTIONARY
360
66BF
102
}
102
{ACAD_REACTORS
330
1A
102
}
330
1A
100
AcDbPlotSettings
  1

  2
C:\Documents and Settings\basas\Application Data\Autodesk\AutoCAD 2005\R16.1\enu\plotters\Default Windows System Printer.pc3
  4

  6

 40
0.0
 41
0.0
 42
0.0
 43
0.0
 44
0.0
 45
0.0
 46
0.0
 47
0.0
 48
0.0
 49
0.0
140
0.0
141
0.0
142
1.0
143
1.0
 70
   688
 72
     0
 73
     0
 74
     5
  7

 75
    16
147
1.0
148
0.0
149
0.0
100
AcDbLayout
  1
Layout1
 70
     1
 71
     1
 10
0.0
 20
0.0
 11
12.0
 21
9.0
 12
0.0
 22
0.0
 32
0.0
 14
0.0
 24
0.0
 34
0.0
 15
0.0
 25
0.0
 35
0.0
146
0.0
 13
0.0
 23
0.0
 33
0.0
 16
1.0
 26
0.0
 36
0.0
 17
0.0
 27
1.0
 37
0.0
 76
     0
330
D2
  0
LAYOUT
  5
D7
102
{ACAD_XDICTIONARY
360
66C1
102
}
102
{ACAD_REACTORS
330
1A
102
}
330
1A
100
AcDbPlotSettings
  1

  2
C:\Documents and Settings\basas\Application Data\Autodesk\AutoCAD 2005\R16.1\enu\plotters\Default Windows System Printer.pc3
  4

  6

 40
0.0
 41
0.0
 42
0.0
 43
0.0
 44
0.0
 45
0.0
 46
0.0
 47
0.0
 48
0.0
 49
0.0
140
0.0
141
0.0
142
1.0
143
1.0
 70
   688
 72
     0
 73
     0
 74
     5
  7

 75
    16
147
1.0
148
0.0
149
0.0
100
AcDbLayout
  1
Layout2
 70
     1
 71
     2
 10
0.0
 20
0.0
 11
12.0
 21
9.0
 12
0.0
 22
0.0
 32
0.0
 14
0.0
 24
0.0
 34
0.0
 15
0.0
 25
0.0
 35
0.0
146
0.0
 13
0.0
 23
0.0
 33
0.0
 16
1.0
 26
0.0
 36
0.0
 17
0.0
 27
1.0
 37
0.0
 76
     0
330
D6
  0
LAYOUT
  5
22
102
{ACAD_XDICTIONARY
360
66BC
102
}
102
{ACAD_REACTORS
330
1A
102
}
330
1A
100
AcDbPlotSettings
  1

  2
none_device
  4
ISO_A4_(210.00_x_297.00_MM)
  6

 40
7.5
 41
20.0
 42
7.5
 43
20.0
 44
210.0
 45
297.0
 46
11.54999923706054
 47
-13.65000009536743
 48
0.0
 49
0.0
140
0.0
141
0.0
142
1.0
143
8.704084754739808
 70
 11952
 72
     1
 73
     0
 74
     0
  7

 75
     0
147
0.1148885871608098
148
0.0
149
0.0
100
AcDbLayout
  1
Model
 70
     1
 71
     0
 10
0.0
 20
0.0
 11
12.0
 21
9.0
 12
0.0
 22
0.0
 32
0.0
 14
0.0
 24
0.0
 34
0.0
 15
0.0
 25
0.0
 35
0.0
146
0.0
 13
0.0
 23
0.0
 33
0.0
 16
1.0
 26
0.0
 36
0.0
 17
0.0
 27
1.0
 37
0.0
 76
     0
330
1F
331
EA
1001
ACAD_PSEXT
1000
None
1000
None
1000
Not applicable
1000
The layout will not be plotted unless a new plotter configuration name is selected.
1070
     0
  0
MATERIAL
  5
ED
102
{ACAD_XDICTIONARY
360
1F9
102
}
102
{ACAD_REACTORS
330
6A
102
}
330
6A
100
AcDbMaterial
  1
ByBlock
  0
MATERIAL
  5
EC
102
{ACAD_XDICTIONARY
360
1F7
102
}
102
{ACAD_REACTORS
330
6A
102
}
330
6A
100
AcDbMaterial
  1
ByLayer
  0
MATERIAL
  5
EE
102
{ACAD_XDICTIONARY
360
173
102
}
102
{ACAD_REACTORS
330
6A
102
}
330
6A
100
AcDbMaterial
  1
Global
 43
0.0007999999797903
 43
0.0
 43
0.0
 43
0.0
 43
0.0
 43
0.0007999999797903
 43
0.0
 43
0.0
 43
0.0
 43
0.0
 43
1.0
 43
0.0
 43
0.0
 43
0.0
 43
0.0
 43
1.0
 49
0.0007999999797903
 49
0.0
 49
0.0
 49
0.0
 49
0.0
 49
0.0007999999797903
 49
0.0
 49
0.0
 49
0.0
 49
0.0
 49
1.0
 49
0.0
 49
0.0
 49
0.0
 49
0.0
 49
1.0
142
0.0007999999797903
142
0.0
142
0.0
142
0.0
142
0.0
142
0.0007999999797903
142
0.0
142
0.0
142
0.0
142
0.0
142
1.0
142
0.0
142
0.0
142
0.0
142
0.0
142
1.0
144
0.0007999999797903
144
0.0
144
0.0
144
0.0
144
0.0
144
0.0007999999797903
144
0.0
144
0.0
144
0.0
144
0.0
144
1.0
144
0.0
144
0.0
144
0.0
144
0.0
144
1.0
1001
ACAD
1070
    -1
1070
     3
1070
     0
1000

1071
        0
1070
     0
  0
MLEADERSTYLE
  5
12E
102
{ACAD_XDICTIONARY
360
66E6
102
}
102
{ACAD_REACTORS
330
12D
102
}
330
12D
100
AcDbMLeaderStyle
170
     2
171
     1
172
     0
 90
        2
 40
0.0
 41
0.0
173
     1
 91
-1056964608
340
14
 92
       -2
290
     1
 42
2.0
291
     1
 43
8.0
  3
Standard
 44
4.0
300

342
11
174
     1
178
     1
175
     1
176
     0
 93
-1056964608
 45
4.0
292
     0
297
     0
 46
4.0
 94
-1056964608
 47
1.0
 49
1.0
140
1.0
293
     1
141
0.0
294
     1
177
     0
142
1.0
295
     0
296
     0
143
3.75
1001
ACAD_MLEADERVER
1070
     2
  0
MLINESTYLE
  5
18
102
{ACAD_REACTORS
330
17
102
}
330
17
100
AcDbMlineStyle
  2
STANDARD
 70
     0
  3

 62
   256
 51
90.0
 52
90.0
 71
     2
 49
0.5
 62
   256
  6
BYLAYER
 49
-0.5
 62
   256
  6
BYLAYER
  0
ACDBPLACEHOLDER
  5
F
102
{ACAD_REACTORS
330
E
102
}
330
E
  0
SCALE
  5
10D
102
{ACAD_REACTORS
330
10C
102
}
330
10C
100
AcDbScale
 70
     0
300
1:1
140
1.0
141
1.0
290
     1
  0
SCALE
  5
1BE
102
{ACAD_REACTORS
330
10C
102
}
330
10C
100
AcDbScale
 70
     0
300
1:2
140
1.0
141
2.0
290
     0
  0
SCALE
  5
1BF
102
{ACAD_REACTORS
330
10C
102
}
330
10C
100
AcDbScale
 70
     0
300
1:4
140
1.0
141
4.0
290
     0
  0
SCALE
  5
1C0
102
{ACAD_REACTORS
330
10C
102
}
330
10C
100
AcDbScale
 70
     0
300
1:5
140
1.0
141
5.0
290
     0
  0
SCALE
  5
1C1
102
{ACAD_REACTORS
330
10C
102
}
330
10C
100
AcDbScale
 70
     0
300
1:8
140
1.0
141
8.0
290
     0
  0
SCALE
  5
1C2
102
{ACAD_REACTORS
330
10C
102
}
330
10C
100
AcDbScale
 70
     0
300
1:10
140
1.0
141
10.0
290
     0
  0
SCALE
  5
1C3
102
{ACAD_REACTORS
330
10C
102
}
330
10C
100
AcDbScale
 70
     0
300
1:16
140
1.0
141
16.0
290
     0
  0
SCALE
  5
1C4
102
{ACAD_REACTORS
330
10C
102
}
330
10C
100
AcDbScale
 70
     0
300
1:20
140
1.0
141
20.0
290
     0
  0
SCALE
  5
1C5
102
{ACAD_REACTORS
330
10C
102
}
330
10C
100
AcDbScale
 70
     0
300
1:30
140
1.0
141
30.0
290
     0
  0
SCALE
  5
1C6
102
{ACAD_REACTORS
330
10C
102
}
330
10C
100
AcDbScale
 70
     0
300
1:40
140
1.0
141
40.0
290
     0
  0
SCALE
  5
1C7
102
{ACAD_REACTORS
330
10C
102
}
330
10C
100
AcDbScale
 70
     0
300
1:50
140
1.0
141
50.0
290
     0
  0
SCALE
  5
1C8
102
{ACAD_REACTORS
330
10C
102
}
330
10C
100
AcDbScale
 70
     0
300
1:100
140
1.0
141
100.0
290
     0
  0
SCALE
  5
1C9
102
{ACAD_REACTORS
330
10C
102
}
330
10C
100
AcDbScale
 70
     0
300
2:1
140
2.0
141
1.0
290
     0
  0
SCALE
  5
1CA
102
{ACAD_REACTORS
330
10C
102
}
330
10C
100
AcDbScale
 70
     0
300
4:1
140
4.0
141
1.0
290
     0
  0
SCALE
  5
1CB
102
{ACAD_REACTORS
330
10C
102
}
330
10C
100
AcDbScale
 70
     0
300
8:1
140
8.0
141
1.0
290
     0
  0
SCALE
  5
1CC
102
{ACAD_REACTORS
330
10C
102
}
330
10C
100
AcDbScale
 70
     0
300
10:1
140
10.0
141
1.0
290
     0
  0
SCALE
  5
1CD
102
{ACAD_REACTORS
330
10C
102
}
330
10C
100
AcDbScale
 70
     0
300
100:1
140
100.0
141
1.0
290
     0
  0
ACDBSECTIONVIEWSTYLE
  5
21A
102
{ACAD_XDICTIONARY
360
66F8
102
}
102
{ACAD_REACTORS
330
219
102
}
330
219
100
AcDbModelDocViewStyle
 70
     0
  3
Metric50
290
     0
100
AcDbSectionViewStyle
 70
     0
 71
     0
 90
      102
 71
     1
340
11
 40
5.0
340
0
340
0
 40
5.0
300
I, O, Q, S, X, Z
 40
10.0
 90
        0
 40
2.5
 90
        0
 71
     2
340
16
 90
       25
340
16
 90
       50
 40
5.0
 40
2.5
 40
5.0
 71
     3
340
11
 40
5.0
 90
        0
 40
15.0
 90
        1
300
%<\AcVar ViewSectionStartId>%-%<\AcVar ViewSectionEndId>% (%<\AcVar ViewScale \f "%sn">%)
 71
     4
300
ANSI31
 40
1.0
 90
        0
290
     0
290
     0
 90
        6
 40
0.0
 40
1.570796326794896
 40
0.2617993877991494
 40
1.308996938995747
 40
-0.2617993877991494
 40
1.832595714594046
  0
TABLESTYLE
  5
7F
102
{ACAD_XDICTIONARY
360
162
102
}
102
{ACAD_REACTORS
330
7E
102
}
330
7E
100
AcDbTableStyle
  3
Standard
 70
     0
 71
     0
 40
1.5
 41
1.5
280
     0
281
     0
  7
Standard
140
4.5
170
     2
 62
     0
 63
     7
283
     0
274
    -2
284
     1
 64
     0
275
    -2
285
     1
 65
     0
276
    -2
286
     1
 66
     0
277
    -2
287
     1
 67
     0
278
    -2
288
     1
 68
     0
279
    -2
289
     1
 69
     0
  7
Standard
140
6.0
170
     5
 62
     0
 63
     7
283
     0
274
    -2
284
     1
 64
     0
275
    -2
285
     1
 65
     0
276
    -2
286
     1
 66
     0
277
    -2
287
     1
 67
     0
278
    -2
288
     1
 68
     0
279
    -2
289
     1
 69
     0
  7
Standard
140
4.5
170
     5
 62
     0
 63
     7
283
     0
274
    -2
284
     1
 64
     0
275
    -2
285
     1
 65
     0
276
    -2
286
     1
 66
     0
277
    -2
287
     1
 67
     0
278
    -2
288
     1
 68
     0
279
    -2
289
     1
 69
     0
  0
VISUALSTYLE
  5
F5
102
{ACAD_XDICTIONARY
360
66D0
102
}
102
{ACAD_REACTORS
330
EF
102
}
330
EF
100
AcDbVisualStyle
  2
2dWireframe
 70
     4
 71
     0
 72
     2
 73
     1
 90
        0
 40
-0.6
 41
-30.0
 62
     5
 63
     7
 74
     1
 91
        4
 64
     7
 65
   257
 75
     1
175
     1
 42
1.0
 92
        0
 66
   257
 43
1.0
 76
     1
 77
     6
 78
     2
 67
     7
 79
     5
170
     0
171
     0
290
     0
174
     0
 93
        1
 44
0.0
173
     0
291
     0
 45
0.0
1001
ACAD
1000
AcDbSavedByObjectVersion
1070
     0
  0
VISUALSTYLE
  5
F4
102
{ACAD_XDICTIONARY
360
66CE
102
}
102
{ACAD_REACTORS
330
EF
102
}
330
EF
100
AcDbVisualStyle
  2
Basic
 70
     7
 71
     1
 72
     0
 73
     1
 90
        0
 40
-0.6
 41
-30.0
 62
     5
 63
     7
 74
     0
 91
        4
 64
     7
 65
   257
 75
     1
175
     1
 42
1.0
 92
        8
 66
     7
 43
1.0
 76
     1
 77
     6
 78
     2
 67
     7
 79
     5
170
     0
171
     0
290
     0
174
     0
 93
        1
 44
0.0
173
     0
291
     1
 45
0.0
1001
ACAD
1000
AcDbSavedByObjectVersion
1070
     0
  0
VISUALSTYLE
  5
FB
102
{ACAD_XDICTIONARY
360
66DC
102
}
102
{ACAD_REACTORS
330
EF
102
}
330
EF
100
AcDbVisualStyle
  2
Brighten
 70
    12
 71
     2
 72
     2
 73
     1
 90
        0
 40
-0.6
 41
-30.0
 62
     5
 63
     7
 74
     1
 91
        4
 64
     7
 65
   257
 75
     1
175
     1
 42
1.0
 92
        8
 66
     7
 43
1.0
 76
     1
 77
     6
 78
     2
 67
     7
 79
     5
170
     0
171
     0
290
     0
174
     0
 93
        1
 44
50.0
173
     0
291
     1
 45
0.0
1001
ACAD
1000
AcDbSavedByObjectVersion
1070
     0
  0
VISUALSTYLE
  5
FF
102
{ACAD_XDICTIONARY
360
66E4
102
}
102
{ACAD_REACTORS
330
EF
102
}
330
EF
100
AcDbVisualStyle
  2
ColorChange
 70
    16
 71
     2
 72
     2
 73
     3
 90
        0
 40
-0.6
 41
-30.0
 62
     5
 63
     8
 74
     1
 91
        4
 64
     7
 65
   257
 75
     1
175
     1
 42
1.0
 92
        8
 66
     8
 43
1.0
 76
     1
 77
     6
 78
     2
 67
     7
 79
     5
170
     0
171
     0
290
     0
174
     0
 93
        1
 44
0.0
173
     0
291
     1
 45
0.0
1001
ACAD
1000
AcDbSavedByObjectVersion
1070
     0
  0
VISUALSTYLE
  5
F8
102
{ACAD_XDICTIONARY
360
66D6
102
}
102
{ACAD_REACTORS
330
EF
102
}
330
EF
100
AcDbVisualStyle
  2
Conceptual
 70
     9
 71
     3
 72
     2
 73
     1
 90
        0
 40
-0.6
 41
-30.0
 62
     5
 63
     7
 74
     2
 91
        2
 64
     7
 65
   257
 75
     1
175
     1
 42
40.0
 92
        8
 66
     7
 43
1.0
 76
     1
 77
     6
 78
     2
 67
     7
 79
     3
170
     0
171
     0
290
     0
174
     0
 93
        1
 44
0.0
173
     0
291
     0
 45
0.0
1001
ACAD
1000
AcDbSavedByObjectVersion
1070
     0
  0
VISUALSTYLE
  5
FA
102
{ACAD_XDICTIONARY
360
66DA
102
}
102
{ACAD_REACTORS
330
EF
102
}
330
EF
100
AcDbVisualStyle
  2
Dim
 70
    11
 71
     2
 72
     2
 73
     1
 90
        0
 40
-0.6
 41
-30.0
 62
     5
 63
     7
 74
     1
 91
        4
 64
     7
 65
   257
 75
     1
175
     1
 42
1.0
 92
        8
 66
     7
 43
1.0
 76
     1
 77
     6
 78
     2
 67
     7
 79
     5
170
     0
171
     0
290
     0
174
     0
 93
        1
 44
-50.0
173
     0
291
     1
 45
0.0
1001
ACAD
1000
AcDbSavedByObjectVersion
1070
     0
  0
VISUALSTYLE
  5
1E6
102
{ACAD_XDICTIONARY
360
66EC
102
}
102
{ACAD_REACTORS
330
EF
102
}
330
EF
100
AcDbVisualStyle
  2
EdgeColorOff
 70
    22
 71
     2
 72
     2
 73
     0
 90
        0
 40
-0.6
 41
-30.0
 62
     5
 63
     7
 74
     1
 91
        4
 64
     7
 65
   257
 75
     1
175
     1
 42
1.0
 92
        8
 66
     7
 43
1.0
 76
     1
 77
     6
 78
     2
 67
     7
 79
     5
170
     0
171
     0
290
     0
174
     0
 93
        1
 44
0.0
173
     0
291
     1
 45
0.0
1001
ACAD
1000
AcDbSavedByObjectVersion
1070
     0
  0
VISUALSTYLE
  5
FE
102
{ACAD_XDICTIONARY
360
66E2
102
}
102
{ACAD_REACTORS
330
EF
102
}
330
EF
100
AcDbVisualStyle
  2
Facepattern
 70
    15
 71
     2
 72
     2
 73
     1
 90
        0
 40
-0.6
 41
-30.0
 62
     5
 63
     7
 74
     1
 91
        4
 64
     7
 65
   257
 75
     1
175
     1
 42
1.0
 92
        8
 66
     7
 43
1.0
 76
     1
 77
     6
 78
     2
 67
     7
 79
     5
170
     0
171
     0
290
     0
174
     0
 93
        1
 44
0.0
173
     0
291
     1
 45
0.0
1001
ACAD
1000
AcDbSavedByObjectVersion
1070
     0
  0
VISUALSTYLE
  5
F0
102
{ACAD_XDICTIONARY
360
66C6
102
}
102
{ACAD_REACTORS
330
EF
102
}
330
EF
100
AcDbVisualStyle
  2
Flat
 70
     0
 71
     2
 72
     1
 73
     1
 90
        2
 40
-0.6
 41
30.0
 62
     5
 63
     7
 74
     0
 91
        0
 64
     7
 65
   257
 75
     1
175
     1
 42
1.0
 92
        8
 66
     7
 43
1.0
 76
     1
 77
     6
 78
     2
 67
     7
 79
     5
170
     0
171
     0
290
     0
174
     0
 93
       13
 44
0.0
173
     0
291
     1
 45
0.0
1001
ACAD
1000
AcDbSavedByObjectVersion
1070
     0
  0
VISUALSTYLE
  5
F1
102
{ACAD_XDICTIONARY
360
66C8
102
}
102
{ACAD_REACTORS
330
EF
102
}
330
EF
100
AcDbVisualStyle
  2
FlatWithEdges
 70
     1
 71
     2
 72
     1
 73
     1
 90
        2
 40
-0.6
 41
30.0
 62
     5
 63
     7
 74
     1
 91
        0
 64
     7
 65
   257
 75
     1
175
     1
 42
1.0
 92
        0
 66
   257
 43
1.0
 76
     1
 77
     6
 78
     2
 67
     7
 79
     5
170
     0
171
     0
290
     0
174
     0
 93
       13
 44
0.0
173
     0
291
     1
 45
0.0
1001
ACAD
1000
AcDbSavedByObjectVersion
1070
     0
  0
VISUALSTYLE
  5
F2
102
{ACAD_XDICTIONARY
360
66CA
102
}
102
{ACAD_REACTORS
330
EF
102
}
330
EF
100
AcDbVisualStyle
  2
Gouraud
 70
     2
 71
     2
 72
     2
 73
     1
 90
        2
 40
-0.6
 41
30.0
 62
     5
 63
     7
 74
     0
 91
        0
 64
     7
 65
   257
 75
     1
175
     1
 42
1.0
 92
        0
 66
     7
 43
1.0
 76
     1
 77
     6
 78
     2
 67
     7
 79
     5
170
     0
171
     0
290
     0
174
     0
 93
       13
 44
0.0
173
     0
291
     1
 45
0.0
1001
ACAD
1000
AcDbSavedByObjectVersion
1070
     0
  0
VISUALSTYLE
  5
F3
102
{ACAD_XDICTIONARY
360
66CC
102
}
102
{ACAD_REACTORS
330
EF
102
}
330
EF
100
AcDbVisualStyle
  2
GouraudWithEdges
 70
     3
 71
     2
 72
     2
 73
     1
 90
        2
 40
-0.6
 41
30.0
 62
     5
 63
     7
 74
     1
 91
        0
 64
     7
 65
   257
 75
     1
175
     1
 42
1.0
 92
        0
 66
   257
 43
1.0
 76
     1
 77
     6
 78
     2
 67
     7
 79
     5
170
     0
171
     0
290
     0
174
     0
 93
       13
 44
0.0
173
     0
291
     1
 45
0.0
1001
ACAD
1000
AcDbSavedByObjectVersion
1070
     0
  0
VISUALSTYLE
  5
F7
102
{ACAD_XDICTIONARY
360
66D4
102
}
102
{ACAD_REACTORS
330
EF
102
}
330
EF
100
AcDbVisualStyle
  2
Hidden
 70
     6
 71
     1
 72
     2
 73
     2
 90
        0
 40
-0.6
 41
-30.0
 62
     5
 63
     7
 74
     2
 91
        2
 64
     7
 65
   257
 75
     2
175
     1
 42
40.0
 92
        0
 66
   257
 43
1.0
 76
     1
 77
     6
 78
     2
 67
     7
 79
     3
170
     0
171
     0
290
     0
174
     0
 93
        1
 44
0.0
173
     0
291
     0
 45
0.0
1001
ACAD
1000
AcDbSavedByObjectVersion
1070
     0
  0
VISUALSTYLE
  5
1E4
102
{ACAD_XDICTIONARY
360
66E8
102
}
102
{ACAD_REACTORS
330
EF
102
}
330
EF
100
AcDbVisualStyle
  2
JitterOff
 70
    20
 71
     2
 72
     2
 73
     0
 90
        0
 40
-0.6
 41
-30.0
 62
     5
 63
     7
 74
     1
 91
        4
 64
     7
 65
   257
 75
     1
175
     1
 42
1.0
 92
       10
 66
     7
 43
1.0
 76
     1
 77
     6
 78
     2
 67
     7
 79
     5
170
     0
171
     0
290
     0
174
     0
 93
        1
 44
0.0
173
     0
291
     1
 45
0.0
1001
ACAD
1000
AcDbSavedByObjectVersion
1070
     0
  0
VISUALSTYLE
  5
FD
102
{ACAD_XDICTIONARY
360
66E0
102
}
102
{ACAD_REACTORS
330
EF
102
}
330
EF
100
AcDbVisualStyle
  2
Linepattern
 70
    14
 71
     2
 72
     2
 73
     1
 90
        0
 40
-0.6
 41
-30.0
 62
     5
 63
     7
 74
     1
 91
        4
 64
     7
 65
   257
 75
     7
175
     7
 42
1.0
 92
        8
 66
     7
 43
1.0
 76
     1
 77
     6
 78
     2
 67
     7
 79
     5
170
     0
171
     0
290
     0
174
     0
 93
        1
 44
0.0
173
     0
291
     1
 45
0.0
1001
ACAD
1000
AcDbSavedByObjectVersion
1070
     0
  0
VISUALSTYLE
  5
1E5
102
{ACAD_XDICTIONARY
360
66EA
102
}
102
{ACAD_REACTORS
330
EF
102
}
330
EF
100
AcDbVisualStyle
  2
OverhangOff
 70
    21
 71
     2
 72
     2
 73
     0
 90
        0
 40
-0.6
 41
-30.0
 62
     5
 63
     7
 74
     1
 91
        4
 64
     7
 65
   257
 75
     1
175
     1
 42
1.0
 92
        9
 66
     7
 43
1.0
 76
     1
 77
     6
 78
     2
 67
     7
 79
     5
170
     0
171
     0
290
     0
174
     0
 93
        1
 44
0.0
173
     0
291
     1
 45
0.0
1001
ACAD
1000
AcDbSavedByObjectVersion
1070
     0
  0
VISUALSTYLE
  5
F9
102
{ACAD_XDICTIONARY
360
66D8
102
}
102
{ACAD_REACTORS
330
EF
102
}
330
EF
100
AcDbVisualStyle
  2
Realistic
 70
     8
 71
     2
 72
     2
 73
     0
 90
        2
 40
-0.6
 41
30.0
 62
     5
 63
     7
 74
     0
 91
        0
 64
     7
 65
   257
 75
     1
175
     1
 42
1.0
 92
        8
 66
   257
 43
1.0
 76
     1
 77
     6
 78
     2
 67
     7
 79
     3
170
     0
171
     0
290
     0
174
     0
 93
       13
 44
0.0
173
     0
291
     0
 45
0.0
1001
ACAD
1000
AcDbSavedByObjectVersion
1070
     0
  0
VISUALSTYLE
  5
1F3
102
{ACAD_XDICTIONARY
360
66F6
102
}
102
{ACAD_REACTORS
330
EF
102
}
330
EF
100
AcDbVisualStyle
  2
Shaded
 70
    27
 71
     2
 72
     2
 73
     1
 90
        2
 40
-0.6
 41
30.0
 62
     5
 63
     7
 74
     0
 91
        4
 64
     7
 65
   257
 75
     1
175
     1
 42
1.0
 92
        8
 66
   257
 43
1.0
 76
     1
 77
     6
 78
     2
 67
     8
 79
     3
170
     0
171
     0
290
     0
174
     0
 93
        5
 44
0.0
173
     0
291
     0
 45
0.0
1001
ACAD
1000
AcDbSavedByObjectVersion
1070
     0
  0
VISUALSTYLE
  5
1F2
102
{ACAD_XDICTIONARY
360
66F4
102
}
102
{ACAD_REACTORS
330
EF
102
}
330
EF
100
AcDbVisualStyle
  2
Shaded with edges
 70
    26
 71
     2
 72
     2
 73
     1
 90
        2
 40
-0.6
 41
30.0
 62
     5
 63
     7
 74
     1
 91
        2
 64
     7
 65
   257
 75
     2
175
     1
 42
1.0
 92
        8
 66
   257
 43
1.0
 76
     1
 77
     6
 78
     2
 67
     7
 79
     3
170
     0
171
     0
290
     0
174
     0
 93
        5
 44
0.0
173
     0
291
     0
 45
0.0
1001
ACAD
1000
AcDbSavedByObjectVersion
1070
     0
  0
VISUALSTYLE
  5
1EF
102
{ACAD_XDICTIONARY
360
66EE
102
}
102
{ACAD_REACTORS
330
EF
102
}
330
EF
100
AcDbVisualStyle
  2
Shades of Gray
 70
    23
 71
     2
 72
     2
 73
     3
 90
        0
 40
-0.6
 41
-30.0
 62
     5
 63
     7
 74
     2
 91
        2
 64
     7
 65
     7
 75
     1
175
     1
 42
40.0
 92
        8
 66
     7
 43
1.0
 76
     1
 77
     6
 78
     2
 67
     7
 79
     3
170
     0
171
     0
290
     0
174
     0
 93
        1
 44
0.0
173
     0
291
     0
 45
0.0
1001
ACAD
1000
AcDbSavedByObjectVersion
1070
     0
  0
VISUALSTYLE
  5
1F0
102
{ACAD_XDICTIONARY
360
66F0
102
}
102
{ACAD_REACTORS
330
EF
102
}
330
EF
100
AcDbVisualStyle
  2
Sketchy
 70
    24
 71
     1
 72
     2
 73
     2
 90
        0
 40
-0.6
 41
-30.0
 62
     5
 63
     7
 74
     2
 91
        2
 64
     7
 65
     7
 75
     1
175
     1
 42
40.0
 92
       11
 66
     7
 43
1.0
 76
     1
 77
     6
 78
     2
 67
     7
 79
     6
170
     0
171
     0
290
     0
174
     0
 93
        1
 44
0.0
173
     0
291
     0
 45
0.0
1001
ACAD
1000
AcDbSavedByObjectVersion
1070
     0
  0
VISUALSTYLE
  5
FC
102
{ACAD_XDICTIONARY
360
66DE
102
}
102
{ACAD_REACTORS
330
EF
102
}
330
EF
100
AcDbVisualStyle
  2
Thicken
 70
    13
 71
     2
 72
     2
 73
     1
 90
        0
 40
-0.6
 41
-30.0
 62
     5
 63
     7
 74
     1
 91
        4
 64
     7
 65
   257
 75
     1
175
     1
 42
1.0
 92
       12
 66
     7
 43
1.0
 76
     1
 77
     6
 78
     2
 67
     7
 79
     5
170
     0
171
     0
290
     0
174
     0
 93
        1
 44
0.0
173
     0
291
     1
 45
0.0
1001
ACAD
1000
AcDbSavedByObjectVersion
1070
     0
  0
VISUALSTYLE
  5
F6
102
{ACAD_XDICTIONARY
360
66D2
102
}
102
{ACAD_REACTORS
330
EF
102
}
330
EF
100
AcDbVisualStyle
  2
Wireframe
 70
     5
 71
     0
 72
     2
 73
     0
 90
        0
 40
-0.6
 41
-30.0
 62
     5
 63
     7
 74
     1
 91
        4
 64
     7
 65
   257
 75
     1
175
     1
 42
1.0
 92
        0
 66
   257
 43
1.0
 76
     1
 77
     6
 78
     2
 67
     7
 79
     3
170
     0
171
     0
290
     0
174
     0
 93
        1
 44
0.0
173
     0
291
     0
 45
0.0
1001
ACAD
1000
AcDbSavedByObjectVersion
1070
     0
  0
VISUALSTYLE
  5
1F1
102
{ACAD_XDICTIONARY
360
66F2
102
}
102
{ACAD_REACTORS
330
EF
102
}
330
EF
100
AcDbVisualStyle
  2
X-Ray
 70
    25
 71
     2
 72
     2
 73
     1
 90
        1
 40
0.5
 41
-30.0
 62
     5
 63
     7
 74
     1
 91
        0
 64
     7
 65
   257
 75
     1
175
     1
 42
1.0
 92
        8
 66
     7
 43
1.0
 76
     1
 77
     6
 78
     2
 67
     7
 79
     3
170
     0
171
     0
290
     0
174
     0
 93
       13
 44
0.0
173
     0
291
     0
 45
0.0
1001
ACAD
1000
AcDbSavedByObjectVersion
1070
     0
  0
DICTIONARYVAR
  5
146
102
{ACAD_REACTORS
330
5E
102
}
330
5E
100
DictionaryVariables
280
     0
  1
1:1
  0
DICTIONARYVAR
  5
259
102
{ACAD_REACTORS
330
5E
102
}
330
5E
100
DictionaryVariables
280
     0
  1
3.500000
  0
DICTIONARYVAR
  5
25A
102
{ACAD_REACTORS
330
5E
102
}
330
5E
100
DictionaryVariables
280
     0
  1
acadiso.lin
  0
DICTIONARYVAR
  5
145
102
{ACAD_REACTORS
330
5E
102
}
330
5E
100
DictionaryVariables
280
     0
  1
STANDARD
  0
DICTIONARYVAR
  5
84
102
{ACAD_REACTORS
330
5E
102
}
330
5E
100
DictionaryVariables
280
     0
  1
STANDARD
  0
DICTIONARYVAR
  5
227
102
{ACAD_REACTORS
330
5E
102
}
330
5E
100
DictionaryVariables
280
     0
  1
Metric50
  0
DICTIONARYVAR
  5
228
102
{ACAD_REACTORS
330
5E
102
}
330
5E
100
DictionaryVariables
280
     0
  1
Metric50
  0
DICTIONARYVAR
  5
5F
102
{ACAD_REACTORS
330
5E
102
}
330
5E
100
DictionaryVariables
280
     0
  1
2
  0
DICTIONARYVAR
  5
63
102
{ACAD_REACTORS
330
5E
102
}
330
5E
100
DictionaryVariables
280
     0
  1
1
  0
DICTIONARYVAR
  5
6667
102
{ACAD_REACTORS
330
5E
102
}
330
5E
100
DictionaryVariables
280
     0
  1
0
  0
DICTIONARYVAR
  5
1AE
102
{ACAD_REACTORS
330
5E
102
}
330
5E
100
DictionaryVariables
280
     0
  1
0
  0
DICTIONARYVAR
  5
1AF
102
{ACAD_REACTORS
330
5E
102
}
330
5E
100
DictionaryVariables
280
     0
  1
0
  0
DICTIONARYVAR
  5
6665
102
{ACAD_REACTORS
330
5E
102
}
330
5E
100
DictionaryVariables
280
     0
  1
2
  0
DICTIONARYVAR
  5
6664
102
{ACAD_REACTORS
330
5E
102
}
330
5E
100
DictionaryVariables
280
     0
  1
1
  0
DICTIONARYVAR
  5
66B7
102
{ACAD_REACTORS
330
5E
102
}
330
5E
100
DictionaryVariables
280
     0
  1
80.000000
  0
DICTIONARYVAR
  5
66B6
102
{ACAD_REACTORS
330
5E
102
}
330
5E
100
DictionaryVariables
280
     0
  1
5.000000
  0
DICTIONARYVAR
  5
6666
102
{ACAD_REACTORS
330
5E
102
}
330
5E
100
DictionaryVariables
280
     0
  1
127
  0
DICTIONARYVAR
  5
66B8
102
{ACAD_REACTORS
330
5E
102
}
330
5E
100
DictionaryVariables
280
     0
  1
2
  0
DICTIONARY
  5
66FA
330
21C
100
AcDbDictionary
280
     1
281
     1
  3
ACAD_XREC_ROUNDTRIP
360
66FB
  0
DICTIONARY
  5
66BF
330
D3
100
AcDbDictionary
280
     1
281
     1
  3
ACAD_XREC_ROUNDTRIP
360
66C0
  0
DICTIONARY
  5
66C1
330
D7
100
AcDbDictionary
280
     1
281
     1
  3
ACAD_XREC_ROUNDTRIP
360
66C2
  0
DICTIONARY
  5
66BC
330
22
100
AcDbDictionary
280
     1
281
     1
  3
ACAD_XREC_ROUNDTRIP
360
66BD
  0
DICTIONARY
  5
1F9
330
ED
100
AcDbDictionary
280
     1
281
     1
  3
ACAD_XREC_ROUNDTRIP
360
66C4
  3
FBXASSET
360
1FA
  0
DICTIONARY
  5
1F7
330
EC
100
AcDbDictionary
280
     1
281
     1
  3
ACAD_XREC_ROUNDTRIP
360
66C3
  3
FBXASSET
360
1F8
  0
DICTIONARY
  5
173
330
EE
100
AcDbDictionary
280
     1
281
     1
  3
ACAD_XREC_ROUNDTRIP
360
66C5
  3
BUMPTILE
360
175
  3
DIFFUSETILE
360
174
  3
FBXASSET
360
1FB
  3
OPACITYTILE
360
176
  3
REFLECTIONTILE
360
177
  0
DICTIONARY
  5
66E6
330
12E
100
AcDbDictionary
280
     1
281
     1
  3
ACAD_XREC_ROUNDTRIP
360
66E7
  0
DICTIONARY
  5
66F8
330
21A
100
AcDbDictionary
280
     1
281
     1
  3
ACAD_XREC_ROUNDTRIP
360
66F9
  0
DICTIONARY
  5
162
330
7F
100
AcDbDictionary
280
     1
281
     1
  3
ACAD_ROUNDTRIP_2008_TABLESTYLE_CELLSTYLEMAP
360
66B9
  3
ACAD_XREC_ROUNDTRIP
360
66BE
  0
DICTIONARY
  5
66D0
330
F5
100
AcDbDictionary
280
     1
281
     1
  3
ACAD_XREC_ROUNDTRIP
360
66D1
  0
DICTIONARY
  5
66CE
330
F4
100
AcDbDictionary
280
     1
281
     1
  3
ACAD_XREC_ROUNDTRIP
360
66CF
  0
DICTIONARY
  5
66DC
330
FB
100
AcDbDictionary
280
     1
281
     1
  3
ACAD_XREC_ROUNDTRIP
360
66DD
  0
DICTIONARY
  5
66E4
330
FF
100
AcDbDictionary
280
     1
281
     1
  3
ACAD_XREC_ROUNDTRIP
360
66E5
  0
DICTIONARY
  5
66D6
330
F8
100
AcDbDictionary
280
     1
281
     1
  3
ACAD_XREC_ROUNDTRIP
360
66D7
  0
DICTIONARY
  5
66DA
330
FA
100
AcDbDictionary
280
     1
281
     1
  3
ACAD_XREC_ROUNDTRIP
360
66DB
  0
DICTIONARY
  5
66EC
330
1E6
100
AcDbDictionary
280
     1
281
     1
  3
ACAD_XREC_ROUNDTRIP
360
66ED
  0
DICTIONARY
  5
66E2
330
FE
100
AcDbDictionary
280
     1
281
     1
  3
ACAD_XREC_ROUNDTRIP
360
66E3
  0
DICTIONARY
  5
66C6
330
F0
100
AcDbDictionary
280
     1
281
     1
  3
ACAD_XREC_ROUNDTRIP
360
66C7
  0
DICTIONARY
  5
66C8
330
F1
100
AcDbDictionary
280
     1
281
     1
  3
ACAD_XREC_ROUNDTRIP
360
66C9
  0
DICTIONARY
  5
66CA
330
F2
100
AcDbDictionary
280
     1
281
     1
  3
ACAD_XREC_ROUNDTRIP
360
66CB
  0
DICTIONARY
  5
66CC
330
F3
100
AcDbDictionary
280
     1
281
     1
  3
ACAD_XREC_ROUNDTRIP
360
66CD
  0
DICTIONARY
  5
66D4
330
F7
100
AcDbDictionary
280
     1
281
     1
  3
ACAD_XREC_ROUNDTRIP
360
66D5
  0
DICTIONARY
  5
66E8
330
1E4
100
AcDbDictionary
280
     1
281
     1
  3
ACAD_XREC_ROUNDTRIP
360
66E9
  0
DICTIONARY
  5
66E0
330
FD
100
AcDbDictionary
280
     1
281
     1
  3
ACAD_XREC_ROUNDTRIP
360
66E1
  0
DICTIONARY
  5
66EA
330
1E5
100
AcDbDictionary
280
     1
281
     1
  3
ACAD_XREC_ROUNDTRIP
360
66EB
  0
DICTIONARY
  5
66D8
330
F9
100
AcDbDictionary
280
     1
281
     1
  3
ACAD_XREC_ROUNDTRIP
360
66D9
  0
DICTIONARY
  5
66F6
330
1F3
100
AcDbDictionary
280
     1
281
     1
  3
ACAD_XREC_ROUNDTRIP
360
66F7
  0
DICTIONARY
  5
66F4
330
1F2
100
AcDbDictionary
280
     1
281
     1
  3
ACAD_XREC_ROUNDTRIP
360
66F5
  0
DICTIONARY
  5
66EE
330
1EF
100
AcDbDictionary
280
     1
281
     1
  3
ACAD_XREC_ROUNDTRIP
360
66EF
  0
DICTIONARY
  5
66F0
330
1F0
100
AcDbDictionary
280
     1
281
     1
  3
ACAD_XREC_ROUNDTRIP
360
66F1
  0
DICTIONARY
  5
66DE
330
FC
100
AcDbDictionary
280
     1
281
     1
  3
ACAD_XREC_ROUNDTRIP
360
66DF
  0
DICTIONARY
  5
66D2
330
F6
100
AcDbDictionary
280
     1
281
     1
  3
ACAD_XREC_ROUNDTRIP
360
66D3
  0
DICTIONARY
  5
66F2
330
1F1
100
AcDbDictionary
280
     1
281
     1
  3
ACAD_XREC_ROUNDTRIP
360
66F3
  0
XRECORD
  5
66FB
102
{ACAD_REACTORS
330
66FA
102
}
330
66FA
100
AcDbXrecord
280
     1
102
DISPLAYNAME
  1
Metric50
102
FLAGS
 90
        0
  0
XRECORD
  5
66C0
102
{ACAD_REACTORS
330
66BF
102
}
330
66BF
100
AcDbXrecord
280
     1
102
SHADEPLOT
 70
     0
102
SHADEPLOTRESLEVEL
 70
     2
102
SHADEPLOTCUSTOMDPI
 70
   300
  0
XRECORD
  5
66C2
102
{ACAD_REACTORS
330
66C1
102
}
330
66C1
100
AcDbXrecord
280
     1
102
SHADEPLOT
 70
     0
102
SHADEPLOTRESLEVEL
 70
     2
102
SHADEPLOTCUSTOMDPI
 70
   300
  0
XRECORD
  5
66BD
102
{ACAD_REACTORS
330
66BC
102
}
330
66BC
100
AcDbXrecord
280
     1
102
SHADEPLOT
 70
     0
102
SHADEPLOTRESLEVEL
 70
     2
102
SHADEPLOTCUSTOMDPI
 70
   300
  0
XRECORD
  5
66C4
102
{ACAD_REACTORS
330
1F9
102
}
330
1F9
100
AcDbXrecord
280
     1
102
MATERIAL
148
0.0
149
0.0
149
0.0
 93
        0
 94
       63
282
     0
 72
     1
 77
     1
171
     1
175
     1
179
     1
273
     0
  0
XRECORD
  5
1FA
102
{ACAD_REACTORS
330
1F9
102
}
330
1F9
100
AcDbXrecord
280
     1
 70
     1
 90
429727718
  1
D62C5603-E3A1-4AEA-B7FB-FE5D8D0755AF
310
504B03040A0000080000CC70623B3DEE336E79000000790000001B0000006175746F6465736B2D64657369676E2D7061636B6167652E786D6C3C3F786D6C2076657273696F6E3D22312E302220656E636F64696E673D227574662D3822203F3E3C666F726D6174733E3C666F726D61743E687474703A2F2F736368656D612E
310
6175746F6465736B2E636F6D2F64657369676E2D7061636B6167652F323030393C2F666F726D61743E3C2F666F726D6174733E504B0304140006080800CC70623BD486FD9CA0000000F4000000130000005B436F6E74656E745F54797065735D2E786D6C7D8EC10E82300C865F65E91D8A1E8C310C0EEA1BF002731658846E
310
D98AC1B77784ABF1D8FE5FBFBF75BBCE937A534CCEB38643598122B6FEE978D0B0485F9C41B54DDD7D022595594E1A469170414C76A4D9A4D207E29CF43ECE46F218070CC6BECC4078ACAA135ACF422C856C0E68EA1BF5669944DDD7BCDE7B1F8E415D77AECB980613C2E4AC91FC167A2B244592486606FC29C8FD7F045B9A
310
EF7053A7E60B504B0304140006080800CC70623B853B8169EB0000007C01000008000000636F72652E786D6C8D90416EC3201045AF62CDB6C206821CC7C244919D9CA01740401C94182C03558F5F9C3852BBEB6A467FFE9B197D7EFC9E1EC5975982F5AE035262288C535E5B377690E21535501C055FBC8FBF6C503839990E
310
5619041F179FE64D52DE45E362569DD7661365082642A11EB9E920A89B99642953CC8E702F67A9EE7234257977194EC9EAE275C4EABCCF5EAD5940D4AC6F0E35A568B8F43562CD7046CD199FD07E60174276A7BE677B5EADB0E0D14EEFFB6A31321A0D82627C4084204C3F096B71DD52F6819B16635EADF63F509AF53FA164
310
5DDCD1EDDD17164090FCC8732078B56691CB33A85CD7DCC40F504B0304140006080800CC70623B55019EA25F0000007C00000007000000636E782E786D6C4DCB3B0E80201045D1AD90E915ED2CF8AC45050C11660C8261F98AB1B07AC9C97D42D718D865D3E909258CFD00CCE24AC6E326A164D74DC0B4128928FF32603847
310
2BA13128B1252AC747C6BAB984FC68F0B87FE8960A5C09FE86CFB69FBA01504B0304140006080800CC70623BDBABAAF470010000D40300000C0000006662782F636F72652E786D6CC553D16E823014FD95A6AF4B694182CC941A83FA05FB810A9511A125A5257EFE2E82712ECEB8A7F100CD39F7F69E734AF9FADC366850B6
310
AF8DCE7018308C942E4C59EB2AC3DE1D498AD15A706B8CFB56869196ADCAF00863C12B6B7C374385D14E6907A836A59A41D9F7CA615434B0C8705F7CAA5606D23BA8E84F41278B93AC54100640439DE0BDB320004D43C63716C7C399D30917DCFBBA9CD9BA8469F5B156168B24CED3F7248AC8769F27244EB73B92EED8862C
310
B7F13E0C179B3C8F979C8ECD82BBBABDAA2BAC924E9558448CBD9330242CFA08E3154B5651FCC6D215639C8EE5774DBE2B5F6CF2B5768B68963BB5F5588420E442FC700B1139D4CB01F450C1E918227C2E09DF070D8140C84E1E9AAB8F1340832A9CB13130A5F1376A908D57309505ECF2A0DF179C4E9D30F5B239B87E3823
310
7A79C6F31DE1A8A5AEC08474B03C7837EAE4938639B44E5932B833D2C6B6B279CDC613877FA26EE21F4A2A4C63EC7F29A2F301D1F9F7A0E37D145F504B0304140006080800CC70623B9C113CC27E0000009D0000000B0000006662782F636E782E786D6C4DCCDF0A83201C86E15B91DFB94BFB330DD428C8FB886521330DA7
310
6397BF1A1DECE883878F57749FCDA1B7892F1BBC047A23808C7F84D9FA55424E0BE6803A256208E9EF06C84F9B91703228B1C690F78B66B34CD9A5439DF5CF0BFBF65E35BCA1B8D6A5C6F540381E886698B5741C695F9503EBA150A2F8958E3DC3EA0B504B0304140006080800CC70623B7DF2F77C2A010000120200003100
310
00006662782F41393633353835312D344632462D344230382D423046372D3739314545314133324237412F636F72652E786D6C8D51DB8EC22014FC15C2939B0D2DB4B45643319AE817EC0F6041255A68B86CFCFC856D4D76DF7CE190393373060EDB3DC707F856CE6B6B7A480A0C81328395DA5C7B18C3057510EC3873D686
310
3F34088C18550F330C39BB3A1BA7051AAC09CA84841A2BD5020AEF55806078A44B0FFD7053A328440C89E1EFC52486BBB8AA8214A99D789CF9E05200300FC927E4FB4D5B375D43103D5527440FB843077C5AA3F5861C8F645F5787F59E95B390B318B55CE45AA638FAA2957BD7248B390B7A7CC51F9C124149C82B8C378810
310
84AB2F42B7B8DD56F413775B8C5999E9FF4471926F8AA236A1AE96B8B3CC434E5839373893369E1FAF30EA395917409EB7F26AF8801C171837A4A6AC9C89E9F9C9B1A58BA30FD6A5EF5DDDCF894B9AD9B6A59C957943A9FCAE2FD5BC4DFE03504B0304140006080800CC70623BAD7543B64E01000033030000300000006662
310
782F41393633353835312D344632462D344230382D423046372D3739314545314133324237412F636E782E786D6CD593CD6EC32010845F0571AD6CE3D48AD20813A9873E410FBD12D82434182C7EAAE6EDBB2424CD25871E7B41D6EC30B3FA84F9E67BB2E40B4234DE8DB46F1925E094D7C6ED479AD3AE5951B2113C789FEE
310
6C943839C1488B4C05DF079FE72A69D8C96C13AAD6B8631503449F83828872B949AC57D26200B826A308D316B4064D6E46FCDA41C05550DC9E483A00797BFD207EFB092A45DE9514C1BBD22178396BD39D891265658C238DEA00936C654E5E433CB65A26D9F6EDB5EBC14EBF49A45CB856E66048291F6939A9A81BB5C89177
310
38143CA680F4AA299D66A042CEB3354A2684DC9D8D178FE0D9B8B41CAAD720F880EE7EF93C0C18769E099ECC04D5A102C8049A8A05632F4DDF376CF1DE0F6BB65C2F8627B65A33C6BB62177CEBBDAD973006829F89F22E814B54F4BC2BE347F8AA8F681390B50FA73F804400B5F542E796F19FF974E7F78DB802FE05E20750
310
4B0304140006080800CC70623BE75B7789680500003C100000340000006662782F41393633353835312D344632462D344230382D423046372D3739314545314133324237412F6F626A656374732E786D6CAD575B8F9B3818FD2B887D06C22499CB8AA1CA655245D5B455A356FB305264C061D8018C6C3393D95FBFC7600890
310
A4CD5EF210B0B1BFEBF98E3F7B1FF6596ABC522E1296DF9BAE3D320D9A872C4AF2F8DE2CE5CEBA358D0FBEC719939D65A691938CDE9B6ADAF4BD98B3B2D05311DD91329583D9D5FC0F438434A7A611A644887B5384CF34233629258BA878B12322891DEFF6B66BD70BFB62634E8AE781D082709A4B588AF91C528CDA28B73F
310
1C998EEF39EABBEFA97FBD6A7C7E9553F9D3D79FE442923C3C523610337627CB87ABE99D359D4CC6D6E4FACAB5E6ABF9D2726FC6A3C5F56271377BB88362213924694B38DD99FE47C48627A1E7D49F5A8BB5E1A74C0A599ED3B0F21F1E56366B89112D681E218F0915D0D6F17AD41FBA2A369DCF6335D62ABBD39779D5DDD1
310
11D4D8DE3CBB96B2E04FB8202E41051754A1AA8E8F76B4C6DFE810B580B1547F4B84911149794252234D024EF8BBE963A95AE27B3D310A9D5C215C7960FAEE415ED75694C6AFB17BCACA5D99A60A9AA65F217B0BFC53292ACB92BF283FAD0D3621576592CB5BED907C2FA8E9DF794E35E97BEA31BED21FEB401ABB94C44839
310
DCACBF0E1C5DA8DA5B2F4DFFD32AD86F543D9E565E7056502E157C00AD2671CD534549AB752FCA9CDA00677A313F04E51B22FF19E57B300579E3C97EB29F682D92935CEC18CF901B7B54FD8C51F362B56FC72FE0B3C1EAE335EDCCBF5AEC39ADB17DC238973F804BA5E6F6BFE7AF1FB32E523BE9F3BD571418E3631DCA4D48
310
5250CF639223210A9446CA30052EDF057BD35F8329C1ECD84552BF0DC8D18BE7BCE23BFE6BD960AB4A7DE79923A103BEBD80F911CBAA2C60DB19B01CF164A5583B772EE6D3FFA56666CBCDA74DC97724A48F9A58967497E489C4D979006FD7A05E227A1EBDD0F737C623387A9C844D3709995625106D157315F8B8392CD4E0
310
A0B9A720C4BE9829CEF37EA1E13111214D53925356365ADA634861B52519DD27A00AEB808EAF0628E6F435519D446F45CF2C9CF5214F0A15B2F6D06B79DA3EE3CBF7F56780D2F4E7EF73A0F5E5B02A38D07DC852C6B7C1FBB6664213E0C39E3EBA7FF4E1AD23EA2829407C85E586727488B751B2DB9502BC7B228A3FD68B6E
310
A65A22397E690AA8D158D7E404EC8CDA235CC3B7D1898680131CEC2CDF2638C65196279577750F15884AEE19F94199155B92B13297978469D4F8D358DF0AEF7631E28DC8F0D9F437D5D39A83B2231A1D52D543813A824EF8D44BCFF2FA6A31BD1E8DAD87F1CCB526B3879935BF59CDADD5C37479BB1CDD4CA7B3556B516589
310
EF352754B706114D9C885EC9131DE6EFEB43D99AFE2391C2F958179413D7CFEF6B1B6DB1E7600F00DE6E5C67454A339A4BA2E0FBA85ED26F045D454F463DBFCE484C2F90F2E5E3666003662ED8F755951A7D1BECD5B30B550B2785C8E7320B7292A4838DDA71BBC863ED7613CAF659337A3354231D4FF4A182A54904C2898C
310
98B28C4AD0CE056CCF332A80986E571EE9DBC305BB5FEB7E509220A58D25CF042D712A806AC0AD0C657FDEF80D2D9CEAA2EE4D1C76F60BFE74219A06527D6F82DF6412526107381E55E353090704D085B52408A8913C4ED159D79BDA71BB4BC506F4831350EB6F975CD22D69BF7AC49B91A2C0A9DDA3D5CA36AD20FC478E37
310
E61844E2352865EBCB61A275A65283CAAA9DD27703B4102F5AF51EF5F573B75CBB5AD38BC845F7A49F82A0966A49C2E3EA5EA0ECD326CD965F1DB402C6FA8B51A4658C5C5E2EC9E214602E55810345408596591009A82E7E7FFACA19EEA299B14A0081A705CB3296EBC14CDF658DCD336EA6D1136881AAEB87B81AB9EE53D5
310
F5EB8BC8362082DA24122F98680A4E7930C01A0079749CEA14382A0783E5EBA5A10F8C098456A03D6A4AEB6BB881E2513747552A5DB22C7EDAF83BD5528081A365F7FF06504B0304140006080000CC70623B000000000000000000000000350000006662782F41393633353835312D344632462D344230382D423046372D37
310
39314545314133324237412F76657274696365732E62696E504B0304140006080800CC70623BF270F1330600000004000000360000006662782F41393633353835312D344632462D344230382D423046372D3739314545314133324237412F747269616E676C65732E62696E636660600000504B0304140006080000CC7062
310
3B000000000000000000000000370000006662782F41393633353835312D344632462D344230382D423046372D3739314545314133324237412F617474726962757465732E62696E504B0304140006080800CC70623B08DA0BD19000000041010000360000006662782F41393633353835312D344632462D344230382D4230
310
46372D3739314545314133324237412F6469726563746F72792E786D6C858F410AC3201045AF22B36F53E9A60B35CBEEBAE80D244E44489C6234F4F835464A48035D0DF398FF9F8AF63D0E6CC63039F212F8F9020C7D47C6792B21C5FE7403D62A1188E2E60C98D7234A5830286103A55745067B9D86B8A3CF9C7F90C11DE6
310
07FB144396D7B6A82D282E9A152AD114D5EF2CB866EEE831B8EEA07A7BB5A8D7D61A2BAAEB7FD5F70921FF497D00504B0304140006080800CC70623BEDD1DC58FD000000A00100003B0000006662782F41393633353835312D344632462D344230382D423046372D3739314545314133324237412F7265736F75726365732F
310
636F72652E786D6C8D504B6E833010BD0A9A6D65B00922041947112427E8052C33A156828DFCA97AFC9A40A576D7CDCCE87D344F8F9FBFE667F689CE6B6B3A6039850C8DB2A336530731DC4903D95970676DF82583CCC8193B5861107C72362E3BA4AC096842428D1D7107A5F7182053CF7474E0D507CE32973124857FE48B
310
540F3961CEF244279DE03EB81420DB9EAC1384436FA353E879B1B182C7A8C75DA3C7F453DF353A1075D537A7BA6464B8F535A99AE14A9A2BBD90E350DD183B5CFABE3AF262350B1EF4FC9351399401471025A527C218A1E53BAB5A5AB765F5469B96525EACF23FA6B88CFF34456DC2A1DCE36E360F82A5202F42F062ED2BAD
310
579969AFDD8A6F504B010214000A0000080000CC70623B3DEE336E79000000790000001B00000000000000000000000000000000006175746F6465736B2D64657369676E2D7061636B6167652E786D6C504B01021400140006080800CC70623BD486FD9CA0000000F40000001300000000000000000000000000B20000005B
310
436F6E74656E745F54797065735D2E786D6C504B01021400140006080800CC70623B853B8169EB0000007C010000080000000000000000000000000083010000636F72652E786D6C504B01021400140006080800CC70623B55019EA25F0000007C000000070000000000000000000000000094020000636E782E786D6C504B
310
01021400140006080800CC70623BDBABAAF470010000D40300000C00000000000000000000000000180300006662782F636F72652E786D6C504B01021400140006080800CC70623B9C113CC27E0000009D0000000B00000000000000000000000000B20400006662782F636E782E786D6C504B01021400140006080800CC70
310
623B7DF2F77C2A010000120200003100000000000000000000000000590500006662782F41393633353835312D344632462D344230382D423046372D3739314545314133324237412F636F72652E786D6C504B01021400140006080800CC70623BAD7543B64E010000330300003000000000000000000000000000D2060000
310
6662782F41393633353835312D344632462D344230382D423046372D3739314545314133324237412F636E782E786D6C504B01021400140006080800CC70623BE75B7789680500003C10000034000000000000000000000000006E0800006662782F41393633353835312D344632462D344230382D423046372D3739314545
310
314133324237412F6F626A656374732E786D6C504B01021400140006080000CC70623B0000000000000000000000003500000000000000000000000000280E00006662782F41393633353835312D344632462D344230382D423046372D3739314545314133324237412F76657274696365732E62696E504B01021400140006
310
080800CC70623BF270F133060000000400000036000000000000000000000000007B0E00006662782F41393633353835312D344632462D344230382D423046372D3739314545314133324237412F747269616E676C65732E62696E504B01021400140006080000CC70623B0000000000000000000000003700000000000000
310
000000000000D50E00006662782F41393633353835312D344632462D344230382D423046372D3739314545314133324237412F617474726962757465732E62696E504B01021400140006080800CC70623B08DA0BD1900000004101000036000000000000000000000000002A0F00006662782F41393633353835312D344632
310
462D344230382D423046372D3739314545314133324237412F6469726563746F72792E786D6C504B01021400140006080800CC70623BEDD1DC58FD000000A00100003B000000000000000000000000000E1000006662782F41393633353835312D344632462D344230382D423046372D3739314545314133324237412F7265
310
736F75726365732F636F72652E786D6C504B0506000000000E000E0080040000641100000000
  0
XRECORD
  5
66C3
102
{ACAD_REACTORS
330
1F7
102
}
330
1F7
100
AcDbXrecord
280
     1
102
MATERIAL
148
0.0
149
0.0
149
0.0
 93
        0
 94
       63
282
     0
 72
     1
 77
     1
171
     1
175
     1
179
     1
273
     0
  0
XRECORD
  5
1F8
102
{ACAD_REACTORS
330
1F7
102
}
330
1F7
100
AcDbXrecord
280
     1
 70
     1
 90
429727718
  1
30362254-06B7-45E0-A893-8CFA70E3D6BC
310
504B03040A0000080000CC70623B3DEE336E79000000790000001B0000006175746F6465736B2D64657369676E2D7061636B6167652E786D6C3C3F786D6C2076657273696F6E3D22312E302220656E636F64696E673D227574662D3822203F3E3C666F726D6174733E3C666F726D61743E687474703A2F2F736368656D612E
310
6175746F6465736B2E636F6D2F64657369676E2D7061636B6167652F323030393C2F666F726D61743E3C2F666F726D6174733E504B0304140006080800CC70623BD486FD9CA0000000F4000000130000005B436F6E74656E745F54797065735D2E786D6C7D8EC10E82300C865F65E91D8A1E8C310C0EEA1BF002731658846E
310
D98AC1B77784ABF1D8FE5FBFBF75BBCE937A534CCEB38643598122B6FEE978D0B0485F9C41B54DDD7D022595594E1A469170414C76A4D9A4D207E29CF43ECE46F218070CC6BECC4078ACAA135ACF422C856C0E68EA1BF5669944DDD7BCDE7B1F8E415D77AECB980613C2E4AC91FC167A2B244592486606FC29C8FD7F045B9A
310
EF7053A7E60B504B0304140006080800CC70623B1EC5D7A3EB0000007C01000008000000636F72652E786D6C8D90416EC3201045AF82665B6103C6756C6122AB4D4ED00B204C5C94182C03558F5F9C3852BBEB6A467FFE9B197D71FC9E6FE8CBACC17AD7032D0820E3B41FAD9B7A48F1820F808E52ACDEC75F36404ECDA687
310
4D0629A6D5A76597B477D1B89855E747B38B2A041301E95B6E7A08FAD3CCAA50296647B8168BD2573599823EBB0CA76447F43862C7BCCF5EAC59410E4DDD9C7973C2755553CCCFA4C603E3040F1565ED3B1FDE4E432BCA0D9622DAF9795FAF464533826484B498524CD807E51D79ED187F21878E10516EF63F505AC67F42C9
310
BA58B1FDDD071640D2FCC87D2045B96591CB3DA85CB7DCE40F504B0304140006080800CC70623B55019EA25F0000007C00000007000000636E782E786D6C4DCB3B0E80201045D1AD90E915ED2CF8AC45050C11660C8261F98AB1B07AC9C97D42D718D865D3E909258CFD00CCE24AC6E326A164D74DC0B4128928FF32603847
310
2BA13128B1252AC747C6BAB984FC68F0B87FE8960A5C09FE86CFB69FBA01504B0304140006080800CC70623B8C9102E971010000D40300000C0000006662782F636F72652E786D6CC5535B6E833010BC8AE5DF0A6C08340F1947A84D4ED00B38C6A128602363A31CBFCB234A53A551FA553EC09AD9F5CE8C31DB9E9B1AF5CA
310
7695D1198E428A91D2D214952E33ECDD315861B4E5CC1AE3BE9561A445A3323CC098B3D21ADFCE9034DA29ED00D5A6503328BA4E398C640D8B0C77F253352214DE4145770A5B214FA2546114020D759C75CE8200340D19DE981F0F6746269C33EFAB6266AB02A655C74A59CCF365BADC27CB5D902ED22848F6340DF238A141
310
BE88E2F57B92BFEDF23523433367AE6A2EEAA455C2A902F398D2751045018D3FA264435F3771F242571B4A1919CA6F9A7C5B3CD9E42BED16F12C776AEB308F40C848FC700B1139D4891EF410CEC810227CC6846F8386402064270EF5C5C709A05E49676C024C61FC95EA45ED154CA5211D1FF4FB8291A913A68E9B83EBBB33
310
E2A7673CDE118E5AE8124C0807CB8377834E366998436B950D7A7746DAD846D4CFD978E0F04FD455FC5D49D2D4C6FE9722321F10997F0F32DC47FE05504B0304140006080800CC70623BFFEA85907E0000009D0000000B0000006662782F636E782E786D6C4DCCD10A83201886E15B91FFDC95D95A811AB6F23E625948A6C3
310
E9D8E5AF46073BFAE0E1E365ED67B3E8ADC3CB78C7815C7240DA3DFC64DCC221C519D7805AC182F7F1EF06C88D9BE6703008B6049F9E274D7A1E938DBB5AE3D6131B2589BA0D3D965551E0B2EA732C9B9A624AAEB41E3A557677029960D9AFB4EF11165F504B0304140006080800CC70623B4FEEA4082C0100001202000031
310
0000006662782F39464131463745442D413632322D343644302D413938332D3331353338454246344243312F636F72652E786D6C8D515B6EC32010BC0AE2AB55850DD871ED0813254D72825EC00192A2C460F1A872FC42ED48ED5F7E00CDCECCCEB26C731F6FE05B39AFADE921293004CA082BB5B9F43086336A21D870E6AC
310
0D7F68109861543DCC30E4ECE26C9C164858139409093556AA051CBC570102714B8F1E7AF1A5C6A11862480C7F2DA6415C878B2A4891CA89C7990F2E050073937C42DE1DB7E4F87ED8A36D4329AA9B3D46DBAEAD504556557BD81DEBDD0761E52CE42C462D17B996298E3E6BE59E35C962CE821E1FF18553435012728A7187
310
0841987E927A8D9B35ADDF70BBC6989599FE4F1427F9A4286A132ABAC49D651EF234CD5CE04CDA78BA3DC2A8FB645D00B9DF8B57E215725C60BCA2A463E54C4CE327C7A65E1C7DB02E7DEFCBF594B864C5CA6CDBD49C957943E9FA5D5FBAF336F90F504B0304140006080800CC70623BAD7543B64E01000033030000300000
310
006662782F39464131463745442D413632322D343644302D413938332D3331353338454246344243312F636E782E786D6CD593CD6EC32010845F0571AD6CE3D48AD20813A9873E410FBD12D82434182C7EAAE6EDBB2424CD25871E7B41D6EC30B3FA84F9E67BB2E40B4234DE8DB46F1925E094D7C6ED479AD3AE5951B2113C
310
789FEE6C943839C1488B4C05DF079FE72A69D8C96C13AAD6B8631503449F83828872B949AC57D26200B826A308D316B4064D6E46FCDA41C05550DC9E483A00797BFD207EFB092A45DE9514C1BBD22178396BD39D891265658C238DEA00936C654E5E433CB65A26D9F6EDB5EBC14EBF49A45CB856E66048291F6939A9A81BB5
310
C8917738143CA680F4AA299D66A042CEB3354A2684DC9D8D178FE0D9B8B41CAAD720F880EE7EF93C0C18769E099ECC04D5A102C8049A8A05632F4DDF376CF1DE0F6BB65C2F8627B65A33C6BB62177CEBBDAD973006829F89F22E814B54F4BC2BE347F8AA8F681390B50FA73F804400B5F542E796F19FF974E7F78DB802FE05
310
E207504B0304140006080800CC70623B16AB87BA640500003C100000340000006662782F39464131463745442D413632322D343644302D413938332D3331353338454246344243312F6F626A656374732E786D6CAD575B6FA33818FD2B887DE6924B3BED8A326A92B68A663B534DD4D13E548A0C38942D60649B369D5FBFC7
310
600890A493BDE42160637FD7F31D7FF63E6FB3D478A55C242CBF3247B66B1A340F5994E4F19559CA8D75611A9F7D8F33263BCB4C232719BD32D5B4E97B316765A1A722BA21652A07B3B7B33F0D11D29C9A46981221AE4C113ED38CD8A4942CA2E2C58E882476BCD9DA23BB5ED8171B73523C0F841684D35CC252CCE79062D4
310
468DFA43D7747CCF51DF7D4FFDEB5593E3AB9CCA9FBEFE241792E4E19EB28198C968BAB8199F5D5A67D3E9C49A9E8F47D6EC76B6B0469F26EEFC7C3EBFBCBEB98462213924694B38DD98FE1D62C393D073EA4FADC5DAF04326852CCF6958F90F0F2B9BB5C48816348F90C7840A68EB78EDF68723159BCEE7891A6B95DDE9D3
310
BCEAEEE8086A6C6F9E5D4B59F0175C10A7A0820BAA5055C7473B5AE3CFDD452D602CD5DF12616444529E90D448938013FE6EFA58AA96F85E4F8C42275708571E98FE6827AF6B2B4AE3D7D83D64E5A64C53054DD3AF90BD06FEA9149565C94FCA0F6B834DC85599E4F2423B24DF0B6AFA979E534DFA9E7A4CC6FA631D486393
310
921829879BF5D781A373557BCB85E97FB90DB62B558F8795179C15944B051F40AB495CF35451D26A4727654E6D8033BD98EF82F21D91FF8AF2DD9982BCF1643BDD4EB516C9492E368C67C88DED563FC36D5EACF66DFF057C3658BDBFA69DF9578B3DA735B64F18C7F20770A9D45CFCF7FCF563D6456A277DBEF78A02637CA2
310
43B90A490AEAB94F72244481D24819A6C0E59B606BFA4B3025981DBB48EAB701D97BF19C577CC77F2D1B6C55A9EF3C732474C0B727303F625995056C3B02963D9EAC146BE78EC5FCEC7FA999EBC5EACBAAE41B12D27B4D2C0BBA49F244E2ECDC81B76B502F113D8F5EE8FB1BE3111CDD4FC2AA9B844CAB1288B68AB90A7CDC
310
1C166AB0D3DC5310625FCC14E779BFD0709F8890A629C9292B1B2DED31A4B0DA928CEE135085754027E3018A397D4D5427D15BD1330B677DC8934285AC3DF45A9EB68FF8F2B8FC0A509AFEECFD0FF2DE25CC6047F7214B195F07EFEB9A094D800F7BFAE8FED187B78EA8A3A400F115961BCAD1215E47C966530AF0EE8128FE
310
58CEBB996A8964FFA529A046635D9353B0336A8F700DDF46271A024E70B0B37C9DE01847591E54DED53D54202AB947E4076556AC49C6CA5C9E1226B7F1A7B1BE15DEED62C41B91E1B3E9AFAAA735036547343A925075041DF0A9979E893B391F8FCFA6967B3EFB644DCF6E5CEBFAE272625DCC6FAF3FB93793C5F90CE1EF57
310
407342756B10D1C489E8953CD1617E5CEECAD6F4EF8914CE5D5D504E5C3F1F9736DA62CFC11E00BCDDB8CC8A9466349744C1F75EBDA4DF09BA8A9E8C7A7E9991989E20E5DBDD6A6003664ED8F7A04A8DBE0DF6EAD9B9AA858342E47399053949D2C146EDB85DE4B176BB0965FBAC19BD19AA918E27FA50C1D22402E144464C
310
59462568E704B6E71915404CB72B8FF4EDE184DDAF753F284990D2C6926782963815403548A70C657FDEF80D2D9CEAA2AE4C1C76F60BFE74219A06527D6582DF6412526107381E55E353090704D085B52408D0933C4ED159D79BDA71BB4BC506F4831350EB6F979CD22D69BF7AC49B91A2C0A9DDA3D5CA36AD20FC478E37E6
310
1844E2352865EBCB6EA275A652E3836BE04EFB400BF1A2556F515F1FBB35B2AB35BD889C744FFA1004B5544B121E57F70215746DD2F5E2C1412B602CBF19455AC6C8E5E9922C4E01E65215385004546899059180EAFCF7A707CE7017CD8CDB0410789AB32C63B91E5CEBBBACB17AC6CD347A022D5075FD106377347AAABA7E
310
7D11590744509B44E205134DC1290F06580320F78E537D3D73540E06CB970B431F185308AD40BBD794D6D77003C5A36E8EAA54BA64597CD8F83BD552A080A365F7FF06504B0304140006080000CC70623B000000000000000000000000350000006662782F39464131463745442D413632322D343644302D413938332D3331
310
353338454246344243312F76657274696365732E62696E504B0304140006080800CC70623BF270F1330600000004000000360000006662782F39464131463745442D413632322D343644302D413938332D3331353338454246344243312F747269616E676C65732E62696E636660600000504B0304140006080000CC70623B
310
000000000000000000000000370000006662782F39464131463745442D413632322D343644302D413938332D3331353338454246344243312F617474726962757465732E62696E504B0304140006080800CC70623B08DA0BD19000000041010000360000006662782F39464131463745442D413632322D343644302D413938
310
332D3331353338454246344243312F6469726563746F72792E786D6C858F410AC3201045AF22B36F53E9A60B35CBEEBAE80D244E44489C6234F4F835464A48035D0DF398FF9F8AF63D0E6CC63039F212F8F9020C7D47C6792B21C5FE7403D62A1188E2E60C98D7234A5830286103A55745067B9D86B8A3CF9C7F90C11DE607
310
FB144396D7B6A82D282E9A152AD114D5EF2CB866EEE831B8EEA07A7BB5A8D7D61A2BAAEB7FD5F70921FF497D00504B0304140006080800CC70623B0D6EF93BFE000000A00100003B0000006662782F39464131463745442D413632322D343644302D413938332D3331353338454246344243312F7265736F75726365732F63
310
6F72652E786D6C8D50596E833010BD0A9ADFCA60B334011947A8694ED00B586642AC041B79A97AFC9A40A5F6AF3F33A3B7689E1E3F7DCD8FEC139DD7D6F4C0720A191A65476DA61E62B892236427C19DB5E1970C322367EC618541F0C9D9B8EC90B226A009093576C41D94DE63804C3DD2D18357379C652E63480A7FCF17A9
310
EE72C29CE5894E3AC17D702940B63D59270887DE46A7D0F36263058F518FBB468FE9A7BE6A7420864373B8D4873369AA8691FA421B3294352543C5CAF65C0F6FEF43CB8BD52C78D0F34F46E550061C419494B6843142CB0F5677F4B52BEB177AEC28E5C52AFF638ACBF84F53D42654E51E77B379102C05791282176B5F693D
310
CB4C7BED567C03504B010214000A0000080000CC70623B3DEE336E79000000790000001B00000000000000000000000000000000006175746F6465736B2D64657369676E2D7061636B6167652E786D6C504B01021400140006080800CC70623BD486FD9CA0000000F40000001300000000000000000000000000B20000005B
310
436F6E74656E745F54797065735D2E786D6C504B01021400140006080800CC70623B1EC5D7A3EB0000007C010000080000000000000000000000000083010000636F72652E786D6C504B01021400140006080800CC70623B55019EA25F0000007C000000070000000000000000000000000094020000636E782E786D6C504B
310
01021400140006080800CC70623B8C9102E971010000D40300000C00000000000000000000000000180300006662782F636F72652E786D6C504B01021400140006080800CC70623BFFEA85907E0000009D0000000B00000000000000000000000000B30400006662782F636E782E786D6C504B01021400140006080800CC70
310
623B4FEEA4082C0100001202000031000000000000000000000000005A0500006662782F39464131463745442D413632322D343644302D413938332D3331353338454246344243312F636F72652E786D6C504B01021400140006080800CC70623BAD7543B64E010000330300003000000000000000000000000000D5060000
310
6662782F39464131463745442D413632322D343644302D413938332D3331353338454246344243312F636E782E786D6C504B01021400140006080800CC70623B16AB87BA640500003C1000003400000000000000000000000000710800006662782F39464131463745442D413632322D343644302D413938332D3331353338
310
454246344243312F6F626A656374732E786D6C504B01021400140006080000CC70623B0000000000000000000000003500000000000000000000000000270E00006662782F39464131463745442D413632322D343644302D413938332D3331353338454246344243312F76657274696365732E62696E504B01021400140006
310
080800CC70623BF270F133060000000400000036000000000000000000000000007A0E00006662782F39464131463745442D413632322D343644302D413938332D3331353338454246344243312F747269616E676C65732E62696E504B01021400140006080000CC70623B0000000000000000000000003700000000000000
310
000000000000D40E00006662782F39464131463745442D413632322D343644302D413938332D3331353338454246344243312F617474726962757465732E62696E504B01021400140006080800CC70623B08DA0BD190000000410100003600000000000000000000000000290F00006662782F39464131463745442D413632
310
322D343644302D413938332D3331353338454246344243312F6469726563746F72792E786D6C504B01021400140006080800CC70623B0D6EF93BFE000000A00100003B000000000000000000000000000D1000006662782F39464131463745442D413632322D343644302D413938332D3331353338454246344243312F7265
310
736F75726365732F636F72652E786D6C504B0506000000000E000E0080040000641100000000
  0
XRECORD
  5
66C5
102
{ACAD_REACTORS
330
173
102
}
330
173
100
AcDbXrecord
280
     1
102
MATERIAL
148
0.0
149
0.0
149
0.0
 93
        0
 94
       63
282
     0
 72
     1
 77
     1
171
     1
175
     1
179
     1
273
     0
  0
XRECORD
  5
175
102
{ACAD_REACTORS
330
173
102
}
330
173
100
AcDbXrecord
280
     1
270
     1
271
     1
  0
XRECORD
  5
174
102
{ACAD_REACTORS
330
173
102
}
330
173
100
AcDbXrecord
280
     1
270
     1
271
     1
  0
XRECORD
  5
1FB
102
{ACAD_REACTORS
330
173
102
}
330
173
100
AcDbXrecord
280
     1
 70
     0
 90
1673772943
  1
ECE7A1D2-D628-4531-984C-D00F80459256
310
504B03040A0000080000CC70623B3DEE336E79000000790000001B0000006175746F6465736B2D64657369676E2D7061636B6167652E786D6C3C3F786D6C2076657273696F6E3D22312E302220656E636F64696E673D227574662D3822203F3E3C666F726D6174733E3C666F726D61743E687474703A2F2F736368656D612E
310
6175746F6465736B2E636F6D2F64657369676E2D7061636B6167652F323030393C2F666F726D61743E3C2F666F726D6174733E504B0304140006080800CC70623BD486FD9CA0000000F4000000130000005B436F6E74656E745F54797065735D2E786D6C7D8EC10E82300C865F65E91D8A1E8C310C0EEA1BF002731658846E
310
D98AC1B77784ABF1D8FE5FBFBF75BBCE937A534CCEB38643598122B6FEE978D0B0485F9C41B54DDD7D022595594E1A469170414C76A4D9A4D207E29CF43ECE46F218070CC6BECC4078ACAA135ACF422C856C0E68EA1BF5669944DDD7BCDE7B1F8E415D77AECB980613C2E4AC91FC167A2B244592486606FC29C8FD7F045B9A
310
EF7053A7E60B504B0304140006080800CC70623BD9DDAED0EC0000007C01000008000000636F72652E786D6C8D90416EC3201045AF82665B61836D9CD8C2444DD39CA01740405C94182C03558F5F9C3852BBEB6A467FFE9B197D7EF89E6EE8CB2CC17A37002D0820E394D7D68D03A478C17B4007C117EFE32F1B20272733C0
310
2A83E0E3E2D3BC49CABB685CCCAAF3DA6CA20CC14440EA969B0182FA34932C648AD911AEC52CD5558EA6A0CF2EC329598D1E47ACCEFBECC59A050463A7EA5833865FEBDD0E37353BE3EE8DBDE3F6786A48D375FBF6CC78B9C282473B3DEFABC5C86834888A900E538A49F5419B9EB47DD5BC907D4F082F57FB1F28CDFA9F50
310
B22ED6D5F6EE030B20687EE43E10BC5CB3C8E51E54AE6B6EE207504B0304140006080800CC70623B55019EA25F0000007C00000007000000636E782E786D6C4DCB3B0E80201045D1AD90E915ED2CF8AC45050C11660C8261F98AB1B07AC9C97D42D718D865D3E909258CFD00CCE24AC6E326A164D74DC0B4128928FF326038
310
472BA13128B1252AC747C6BAB984FC68F0B87FE8960A5C09FE86CFB69FBA01504B0304140006080800CC70623BA24EB22D72010000D40300000C0000006662782F636F72652E786D6CC5535B6E833010BC8AE5DF0A6C5E49888CA3A6694ED00B38E05014B091B1518EDFE511A5A9D228FD2A1F60CDEC7A67C6986DCE4D8D7A
310
69BA4AAB0C073EC548AA5C17952A33ECECD15B61B4E1CC686DBF9561A44423333CC098B3D268D7CE50AE9595CA02AA74216750749DB418E5352C32DCE59FB211BE70162ABA93DF8AFC244AE9073ED050C759670D0840D390E18DF9F1706664C23973AE2A66B62A605A75ACA4C13C4976E1364A12EF355A2EBD384AF65EFA96
310
BC7B8BED2EA6719AAE16FB8491A199335B351775B991C2CA02F390D2D40B028F861F41BCA68B7518BFD0D59A524686F29B26D7164F36B94AD9289CE54E6D1DE6010819891F6E21228B3AD1831EC219194284CF98F06DD01008846CC5A1BEF83801D4CBDC6A1303536877A57A513B0953A94FC707FDBE6064EA84A9E3E6E0FA
310
EE8CF0E9198F7784A316AA0413C2C2F2E0ECA0934D1AE6D05A69BCDE9E91D2A611F573361E38FC1375157F5752AE6B6DFE4B11990F88CCBF0719EE23FF02504B0304140006080800CC70623B408A7D3B7C0000009D0000000B0000006662782F636E782E786D6C4DCCD10A83201886E15B91FFDC552A92A0064DBC8F581632
310
D3703A76F9ABD1C18E3E78F878E5F0D9027ABBFCF2292AE86E2D20171F69F6715550CB827B40839639A5F2770314A7CD293819B45C73AAFB45B35BA61ACAA1C1C7E7855C58C15BC331339661262CC762340413D68D77DA5B42298546CBE6573AF60CEB2F504B0304140006080800CC70623B449FB9BD290100001202000031
310
0000006662782F36394639363044362D344446342D343946362D394244322D3234314243333846323333332F636F72652E786D6C8D515B6EC32010BC0AE22B55850D98B871848994463E412FE002495162B07854397EA176A4F62F3F2C9A9D991D587EB84F37F0AD7D30CEF6905418026DA553C65E7A98E219ED203808EE9D
310
8B7F6810D871D23D2C3014FCE25D9A57483A1BB58D19B54EE9151C43D0110279CB971E06F9A5A7B11A53CC8C70ADE6515EC78BAE4895DB992778883E0700CB907242D17643D7E2538BD869608875438BBAE38922CAC8F1BDD90DB4691A5E2F42C153326A951B95E398B3D1FE599322163C9AE9115F7A3D46ADA0A018778810
310
84E907617BDCEE297BC5BB3DC6BC2EF47FA234AB2745C9D8D8D035EE220B50105E2F0DC1954B9FB747187D9F9D8FA0CCDB042D5FA0C015C65B42DF78BD10F3F3B363CB56C7109DCFDFBBB97E662ED92EB62D13BC2E1BCAE5777DB9966D8A1F504B0304140006080800CC70623BAD7543B64E01000033030000300000006662
310
782F36394639363044362D344446342D343946362D394244322D3234314243333846323333332F636E782E786D6CD593CD6EC32010845F0571AD6CE3D48AD20813A9873E410FBD12D82434182C7EAAE6EDBB2424CD25871E7B41D6EC30B3FA84F9E67BB2E40B4234DE8DB46F1925E094D7C6ED479AD3AE5951B2113C789FEE
310
6C943839C1488B4C05DF079FE72A69D8C96C13AAD6B8631503449F83828872B949AC57D26200B826A308D316B4064D6E46FCDA41C05550DC9E483A00797BFD207EFB092A45DE9514C1BBD22178396BD39D891265658C238DEA00936C654E5E433CB65A26D9F6EDB5EBC14EBF49A45CB856E66048291F6939A9A81BB5C89177
310
38143CA680F4AA299D66A042CEB3354A2684DC9D8D178FE0D9B8B41CAAD720F880EE7EF93C0C18769E099ECC04D5A102C8049A8A05632F4DDF376CF1DE0F6BB65C2F8627B65A33C6BB62177CEBBDAD973006829F89F22E814B54F4BC2BE347F8AA8F681390B50FA73F804400B5F542E796F19FF974E7F78DB802FE05E20750
310
4B0304140006080800CC70623B8D05915C650500003B100000340000006662782F36394639363044362D344446342D343946362D394244322D3234314243333846323333332F6F626A656374732E786D6CAD575B6FA33814FE2B887D06429276DA1565D4266D158D3A339A6846FB502932E050B66023DB74D2FDF5FB190C01
310
9276B2973C046C8ECFF53B17071F77456EBD502133CEAE6CDF9DD81665314F32965ED995DA3A17B6F5310C04E7AA47665B8C14F4CAD6DB7618A48257A5D94AE89654B91AEDDEDDFC61C998326A5B714EA4BCB265FC440BE2924AF184CA6737218AB8E976E7FA6E4338649B0A523E8D98964450A6A029F619B8588D52FE7039
310
B1BD30F0F4F730D0FF866AF6369557DB33949F31A9088B0F848DD8CCFCF9F2767A76E99CCDE733677E3EF59D9BBB9BA5E37F984D16E78BC5E5F5ED25044B25C0C96822E8D60EEFE11B91C581D77CEA34368A1F5329E68CD1B8B61F16D63A1B8E092D294B10C78C4A48EB593D192E7DED9BDEE7995E1B91FDEDD3ACEA9FE831
310
6A756F9F7D4D79F4274C90A7A04248AA51D5F8C718DAE06FB2F75AC4796EBE65D22A88A22223B995679120E2D50E41AA49C260C046A35368846B0BECD0DFF3EBEB8AD4F835768F69B9ADF25C43D30E6B646F807FAA64AD59F61715C7A54127C4AACA98BA3006A9D792DAE165E0D59B61A01FB3A9F9D838D2DAE62445C86166
310
F37564E842E7DE6A69879FEEA2DD5AE7E371E1A5E025154AC307D06A03D73EB5978C58FFA4C8E9033066E0F3BD53BEC1F39F91BE7B55103791EDE6BBB991A2046172CB4581D8B893FA674DDA17A77B3B7C413D1B511FD2743BFF8A38F03A658705E3ADF8015C3A3417FF3D7E439FF591DA0B5F18BC20C1B8981957AE6392A3
310
F43C640C01D1A0B4728E2DD4F26DB4B3C3152A252A3B4E913CEC1C72F012782FF88EFF8637AA552DBEF76408E8A8DE9E50F9E1CB3A2DA0DB1B6039A893B56063DC5B3E3FFB5F72E67AB9FEB4AEC496C4F4C1149625DD662C53E89D7BF0F6151A046260D1337DFDC94502430F83B0EE07A130A224BCAD7DAE1D9FB6CD422FF6
310
920702629C4BB9AE79C12F243C6432A6794E18E5552BA56B431AAB5D91317302B2B071E86C3A42B1A02F999E24061403B5D0EB639195DA655DD3EBEAB4FB862DDF579F014AD0E73C22F99E28DA57FB98E75C6CA2D74D53086D600F4786E0FE3144B771A8A7B900F03594DB8A633CBC49B2EDB69228BB479CF863B5E807AAAB
310
23872F6DFEB4129B949CA33823F58830E86D65621E10047D9DB34D862E8EAC3C2ABC2F7B2C40D67CDFE01F5545B92105AF983AC54D93D69E56FB8E797F88913F898A9FEC705D3F9D1B54EC8426FB500D40A03BD0119B06E1B95DDC7EB8F6975367793EBD70E66733DFB9BC982F9CE564727731999F5D4ECFCE3B8D6A4DC2A0
310
6D50FD148437D110834A64C6CDDF57FBACB5C307A2A477DFE4939736CFEF2B175371E0E10CF0DD1D5C15654E0BCA14D1E87DD02FF93782A162C0A3D95F1524A52770F972BF1EE9809D13CE7DD599467F8ECE9ADD85CE85A34CD45355448C64F9E8A031DC2D596ACC6E5DD93D9B82DE2EF5CAF81363A8E47996A0DE24564A79
310
4115AACE09C55E14540231FDA13C319787134EBF34E3A022514E5B4D9E0826E25C02D5805B15ABE1BEF51B26383D445DD9E875EE33FE4C22DA16427D65A3BCA92CA6D28DD01DF5DC53330704308475351050232CCD31583787BA75774AFB06E5070DD0C8EF484E19968C5D83BA5B90B244D31E54D55A372320FE4786B7EA58
310
44E135AA5467CB7EA333A61683CC6A8C3257034C10CF46F40EF9F5BE59BE5BD30C3C72D235E95D10345C1D45445A5F0BB47E46A5EBE5570F9380B5FA629579952296A773720405982B9DE04011506178964401AA8BDF1FBF0A8EAB6861DD6580C0E38217056766716DAEB2D6FA0917D3E4116581EADB879C4E7CFFB11EFACD
310
3D641311495D92C8676CB409A72D18610D803CE8A626049E8EC1887CB5B44CC39883690DDA8399B4B9855B481E7D71D4A9D22F96E5BB73BF5793020C02137BF837504B0304140006080000CC70623B000000000000000000000000350000006662782F36394639363044362D344446342D343946362D394244322D32343142
310
43333846323333332F76657274696365732E62696E504B0304140006080800CC70623BF270F1330600000004000000360000006662782F36394639363044362D344446342D343946362D394244322D3234314243333846323333332F747269616E676C65732E62696E636660600000504B0304140006080000CC70623B0000
310
00000000000000000000370000006662782F36394639363044362D344446342D343946362D394244322D3234314243333846323333332F617474726962757465732E62696E504B0304140006080800CC70623B08DA0BD19000000041010000360000006662782F36394639363044362D344446342D343946362D394244322D
310
3234314243333846323333332F6469726563746F72792E786D6C858F410AC3201045AF22B36F53E9A60B35CBEEBAE80D244E44489C6234F4F835464A48035D0DF398FF9F8AF63D0E6CC63039F212F8F9020C7D47C6792B21C5FE7403D62A1188E2E60C98D7234A5830286103A55745067B9D86B8A3CF9C7F90C11DE607FB14
310
4396D7B6A82D282E9A152AD114D5EF2CB866EEE831B8EEA07A7BB5A8D7D61A2BAAEB7FD5F70921FF497D00504B0304140006080800CC70623BCA768048FE000000A00100003B0000006662782F36394639363044362D344446342D343946362D394244322D3234314243333846323333332F7265736F75726365732F636F72
310
652E786D6C8D50596E833010BD0A9ADFCA60D600328E9AA639412F609909B1126CE4A5EAF16B0295DABFFECC8CDEA2797AECF8353F924FB44E193D409E5248504B332A3D0D10FC95B4901C39B3C6F85F3248B49871801506CE266BC2B243D2688FDA47549B11775038871E12F988C7004EDE7016A9083E2ADC3D5D84BC8B09
310
D33C8D74D471E6BC8D0192EDC93A815B742658898E651BCB59086ADC356A8C3FD555A1055ED7E7E254D615792D0F075295F585746FF53B694EE78A565DD736979A65AB9933AFE69F8CD2A2F038022F28ED489E135A7CE4554F9BBEA85E68DB53CAB255FEC71496F19FA6A0B42F8B3DEE6673C0F318E4497096AD7DC5F52C33
310
EEB55BFE0D504B010214000A0000080000CC70623B3DEE336E79000000790000001B00000000000000000000000000000000006175746F6465736B2D64657369676E2D7061636B6167652E786D6C504B01021400140006080800CC70623BD486FD9CA0000000F40000001300000000000000000000000000B20000005B436F
310
6E74656E745F54797065735D2E786D6C504B01021400140006080800CC70623BD9DDAED0EC0000007C010000080000000000000000000000000083010000636F72652E786D6C504B01021400140006080800CC70623B55019EA25F0000007C000000070000000000000000000000000095020000636E782E786D6C504B0102
310
1400140006080800CC70623BA24EB22D72010000D40300000C00000000000000000000000000190300006662782F636F72652E786D6C504B01021400140006080800CC70623B408A7D3B7C0000009D0000000B00000000000000000000000000B50400006662782F636E782E786D6C504B01021400140006080800CC70623B
310
449FB9BD290100001202000031000000000000000000000000005A0500006662782F36394639363044362D344446342D343946362D394244322D3234314243333846323333332F636F72652E786D6C504B01021400140006080800CC70623BAD7543B64E010000330300003000000000000000000000000000D20600006662
310
782F36394639363044362D344446342D343946362D394244322D3234314243333846323333332F636E782E786D6C504B01021400140006080800CC70623B8D05915C650500003B10000034000000000000000000000000006E0800006662782F36394639363044362D344446342D343946362D394244322D32343142433338
310
46323333332F6F626A656374732E786D6C504B01021400140006080000CC70623B0000000000000000000000003500000000000000000000000000250E00006662782F36394639363044362D344446342D343946362D394244322D3234314243333846323333332F76657274696365732E62696E504B010214001400060808
310
00CC70623BF270F13306000000040000003600000000000000000000000000780E00006662782F36394639363044362D344446342D343946362D394244322D3234314243333846323333332F747269616E676C65732E62696E504B01021400140006080000CC70623B00000000000000000000000037000000000000000000
310
00000000D20E00006662782F36394639363044362D344446342D343946362D394244322D3234314243333846323333332F617474726962757465732E62696E504B01021400140006080800CC70623B08DA0BD190000000410100003600000000000000000000000000270F00006662782F36394639363044362D344446342D
310
343946362D394244322D3234314243333846323333332F6469726563746F72792E786D6C504B01021400140006080800CC70623BCA768048FE000000A00100003B000000000000000000000000000B1000006662782F36394639363044362D344446342D343946362D394244322D3234314243333846323333332F7265736F
310
75726365732F636F72652E786D6C504B0506000000000E000E0080040000621100000000
  0
XRECORD
  5
176
102
{ACAD_REACTORS
330
173
102
}
330
173
100
AcDbXrecord
280
     1
270
     1
271
     1
  0
XRECORD
  5
177
102
{ACAD_REACTORS
330
173
102
}
330
173
100
AcDbXrecord
280
     1
270
     1
271
     1
  0
XRECORD
  5
66E7
102
{ACAD_REACTORS
330
66E6
102
}
330
66E6
100
AcDbXrecord
280
     1
102
ACAD_ROUNDTRIP_2012_MLEADER_STYLE
298
     1
  0
XRECORD
  5
66F9
102
{ACAD_REACTORS
330
66F8
102
}
330
66F8
100
AcDbXrecord
280
     1
102
DISPLAYNAME
  1
Metric50
102
FLAGS
 90
        0
  0
CELLSTYLEMAP
  5
66B9
102
{ACAD_REACTORS
330
162
102
}
330
162
100
AcDbCellStyleMap
 90
        3
300
CELLSTYLE
  1
TABLEFORMAT_BEGIN
 90
        5
170
     1
 91
        0
 92
    32768
 62
   257
 93
        1
300
CONTENTFORMAT
  1
CONTENTFORMAT_BEGIN
 90
        0
 91
        0
 92
      512
 93
        0
300

 40
0.0
140
1.0
 94
        5
 62
     0
340
11
144
6.0
309
CONTENTFORMAT_END
171
     1
301
MARGIN
  1
CELLMARGIN_BEGIN
 40
1.5
 40
1.5
 40
1.5
 40
1.5
 40
4.5
 40
4.5
309
CELLMARGIN_END
 94
        6
 95
        1
302
GRIDFORMAT
  1
GRIDFORMAT_BEGIN
 90
        0
 91
        1
 62
     0
 92
       -2
340
14
 93
        0
 40
1.125
309
GRIDFORMAT_END
 95
        2
302
GRIDFORMAT
  1
GRIDFORMAT_BEGIN
 90
        0
 91
        1
 62
     0
 92
       -2
340
14
 93
        0
 40
1.125
309
GRIDFORMAT_END
 95
        4
302
GRIDFORMAT
  1
GRIDFORMAT_BEGIN
 90
        0
 91
        1
 62
     0
 92
       -2
340
14
 93
        0
 40
1.125
309
GRIDFORMAT_END
 95
        8
302
GRIDFORMAT
  1
GRIDFORMAT_BEGIN
 90
        0
 91
        1
 62
     0
 92
       -2
340
14
 93
        0
 40
1.125
309
GRIDFORMAT_END
 95
       16
302
GRIDFORMAT
  1
GRIDFORMAT_BEGIN
 90
        0
 91
        1
 62
     0
 92
       -2
340
14
 93
        0
 40
1.125
309
GRIDFORMAT_END
 95
       32
302
GRIDFORMAT
  1
GRIDFORMAT_BEGIN
 90
        0
 91
        1
 62
     0
 92
       -2
340
14
 93
        0
 40
1.125
309
GRIDFORMAT_END
309
TABLEFORMAT_END
  1
CELLSTYLE_BEGIN
 90
        1
 91
        1
300
_TITLE
309
CELLSTYLE_END
300
CELLSTYLE
  1
TABLEFORMAT_BEGIN
 90
        5
170
     1
 91
        0
 92
        0
 62
   257
 93
        1
300
CONTENTFORMAT
  1
CONTENTFORMAT_BEGIN
 90
        0
 91
        0
 92
      512
 93
        0
300

 40
0.0
140
1.0
 94
        5
 62
     0
340
11
144
4.5
309
CONTENTFORMAT_END
171
     1
301
MARGIN
  1
CELLMARGIN_BEGIN
 40
1.5
 40
1.5
 40
1.5
 40
1.5
 40
4.5
 40
4.5
309
CELLMARGIN_END
 94
        6
 95
        1
302
GRIDFORMAT
  1
GRIDFORMAT_BEGIN
 90
        0
 91
        1
 62
     0
 92
       -2
340
14
 93
        0
 40
1.125
309
GRIDFORMAT_END
 95
        2
302
GRIDFORMAT
  1
GRIDFORMAT_BEGIN
 90
        0
 91
        1
 62
     0
 92
       -2
340
14
 93
        0
 40
1.125
309
GRIDFORMAT_END
 95
        4
302
GRIDFORMAT
  1
GRIDFORMAT_BEGIN
 90
        0
 91
        1
 62
     0
 92
       -2
340
14
 93
        0
 40
1.125
309
GRIDFORMAT_END
 95
        8
302
GRIDFORMAT
  1
GRIDFORMAT_BEGIN
 90
        0
 91
        1
 62
     0
 92
       -2
340
14
 93
        0
 40
1.125
309
GRIDFORMAT_END
 95
       16
302
GRIDFORMAT
  1
GRIDFORMAT_BEGIN
 90
        0
 91
        1
 62
     0
 92
       -2
340
14
 93
        0
 40
1.125
309
GRIDFORMAT_END
 95
       32
302
GRIDFORMAT
  1
GRIDFORMAT_BEGIN
 90
        0
 91
        1
 62
     0
 92
       -2
340
14
 93
        0
 40
1.125
309
GRIDFORMAT_END
309
TABLEFORMAT_END
  1
CELLSTYLE_BEGIN
 90
        2
 91
        1
300
_HEADER
309
CELLSTYLE_END
300
CELLSTYLE
  1
TABLEFORMAT_BEGIN
 90
        5
170
     1
 91
        0
 92
        0
 62
   257
 93
        1
300
CONTENTFORMAT
  1
CONTENTFORMAT_BEGIN
 90
        0
 91
        0
 92
      512
 93
        0
300

 40
0.0
140
1.0
 94
        2
 62
     0
340
11
144
4.5
309
CONTENTFORMAT_END
171
     1
301
MARGIN
  1
CELLMARGIN_BEGIN
 40
1.5
 40
1.5
 40
1.5
 40
1.5
 40
4.5
 40
4.5
309
CELLMARGIN_END
 94
        6
 95
        1
302
GRIDFORMAT
  1
GRIDFORMAT_BEGIN
 90
        0
 91
        1
 62
     0
 92
       -2
340
14
 93
        0
 40
1.125
309
GRIDFORMAT_END
 95
        2
302
GRIDFORMAT
  1
GRIDFORMAT_BEGIN
 90
        0
 91
        1
 62
     0
 92
       -2
340
14
 93
        0
 40
1.125
309
GRIDFORMAT_END
 95
        4
302
GRIDFORMAT
  1
GRIDFORMAT_BEGIN
 90
        0
 91
        1
 62
     0
 92
       -2
340
14
 93
        0
 40
1.125
309
GRIDFORMAT_END
 95
        8
302
GRIDFORMAT
  1
GRIDFORMAT_BEGIN
 90
        0
 91
        1
 62
     0
 92
       -2
340
14
 93
        0
 40
1.125
309
GRIDFORMAT_END
 95
       16
302
GRIDFORMAT
  1
GRIDFORMAT_BEGIN
 90
        0
 91
        1
 62
     0
 92
       -2
340
14
 93
        0
 40
1.125
309
GRIDFORMAT_END
 95
       32
302
GRIDFORMAT
  1
GRIDFORMAT_BEGIN
 90
        0
 91
        1
 62
     0
 92
       -2
340
14
 93
        0
 40
1.125
309
GRIDFORMAT_END
309
TABLEFORMAT_END
  1
CELLSTYLE_BEGIN
 90
        3
 91
        2
300
_DATA
309
CELLSTYLE_END
  0
XRECORD
  5
66BE
102
{ACAD_REACTORS
330
162
102
}
330
162
100
AcDbXrecord
280
     1
102
ACAD_ROUNDTRIP_PRE2007_TABLESTYLE
 90
      512
 91
        0
  1

 92
      512
 93
        0
  2

 94
      512
 95
        0
  3

  0
XRECORD
  5
66D1
102
{ACAD_REACTORS
330
66D0
102
}
330
66D0
100
AcDbXrecord
280
     1
102
RTVSPost2010Prop28
280
     1
102
RTVSPost2010PropOp28
 70
     1
102
RTVSPost2010Prop29
280
     1
102
RTVSPost2010PropOp29
 70
     1
102
RTVSPost2010Prop30
280
     0
102
RTVSPost2010PropOp30
 70
     1
102
RTVSPost2010Prop31
280
     0
102
RTVSPost2010PropOp31
 70
     1
102
RTVSPost2010Prop32
280
     0
102
RTVSPost2010PropOp32
 70
     1
102
RTVSPost2010Prop33
280
     0
102
RTVSPost2010PropOp33
 70
     1
102
RTVSPost2010Prop34
280
     0
102
RTVSPost2010PropOp34
 70
     1
102
RTVSPost2010Prop35
280
     0
102
RTVSPost2010PropOp35
 70
     1
102
RTVSPost2010Prop36
280
     0
102
RTVSPost2010PropOp36
 70
     1
102
RTVSPost2010Prop37
 90
       50
102
RTVSPost2010PropOp37
 70
     1
102
RTVSPost2010Prop38
140
0.0
102
RTVSPost2010PropOp38
 70
     1
102
RTVSPost2010Prop39
140
1.0
102
RTVSPost2010PropOp39
 70
     1
102
RTVSPost2010Prop40
 90
        0
102
RTVSPost2010PropOp40
 70
     1
102
RTVSPost2010Prop41ColorIndex
 90
       18
102
RTVSPost2010Prop41ColorRGB
 90
        0
102
RTVSPost2010PropOp41
 70
     1
102
RTVSPost2010Prop42
 90
       50
102
RTVSPost2010PropOp42
 70
     1
102
RTVSPost2010Prop43
 90
        3
102
RTVSPost2010PropOp43
 70
     1
102
RTVSPost2010Prop44ColorIndex
 90
        5
102
RTVSPost2010Prop44ColorRGB
 90
      255
102
RTVSPost2010PropOp44
 70
     1
102
RTVSPost2010Prop45
280
     0
102
RTVSPost2010PropOp45
 70
     1
102
RTVSPost2010Prop46
 90
       50
102
RTVSPost2010PropOp46
 70
     1
102
RTVSPost2010Prop47
 90
       50
102
RTVSPost2010PropOp47
 70
     1
102
RTVSPost2010Prop48
 90
       50
102
RTVSPost2010PropOp48
 70
     1
102
RTVSPost2010Prop49
280
     0
102
RTVSPost2010PropOp49
 70
     1
102
RTVSPost2010Prop50
 90
       50
102
RTVSPost2010PropOp50
 70
     1
102
RTVSPost2010Prop51ColorIndex
 90
      256
102
RTVSPost2010Prop51ColorRGB
 90
-16777216
102
RTVSPost2010PropOp51
 70
     0
102
RTVSPost2010Prop52
140
1.0
102
RTVSPost2010PropOp52
 70
     0
102
RTVSPost2010Prop53
 90
        2
102
RTVSPost2010PropOp53
 70
     1
102
RTVSPost2010Prop54
  1
strokes_ogs.tif
102
RTVSPost2010PropOp54
 70
     1
102
RTVSPost2010Prop55
280
     0
102
RTVSPost2010PropOp55
 70
     1
102
RTVSPost2010Prop56
140
1.0
102
RTVSPost2010PropOp56
 70
     1
102
RTVSPost2010Prop57
140
1.0
102
RTVSPost2010PropOp57
 70
     1
102
RTVSPropertyOp0
 70
     1
102
RTVSPropertyOp1
 70
     1
102
RTVSPropertyOp2
 70
     1
102
RTVSPropertyOp3
 70
     1
102
RTVSPropertyOp4
 70
     1
102
RTVSPropertyOp5
 70
     1
102
RTVSPropertyOp6
 70
     1
102
RTVSPropertyOp7
 70
     1
102
RTVSPropertyOp8
 70
     1
102
RTVSPropertyOp9
 70
     1
102
RTVSPropertyOp10
 70
     1
102
RTVSPropertyOp11
 70
     1
102
RTVSPropertyOp12
 70
     1
102
RTVSPropertyOp13
 70
     1
102
RTVSPropertyOp14
 70
     1
102
RTVSPropertyOp15
 70
     1
102
RTVSPropertyOp16
 70
     1
102
RTVSPropertyOp17
 70
     1
102
RTVSPropertyOp18
 70
     1
102
RTVSPropertyOp19
 70
     1
102
RTVSPropertyOp20
 70
     1
102
RTVSPropertyOp21
 70
     1
102
RTVSPropertyOp22
 70
     1
102
RTVSPropertyOp23
 70
     1
102
RTVSPropertyOp24
 70
     1
102
RTVSPropertyOp25
 70
     1
102
RTVSPropertyOp26
 70
     1
102
RTVSPropertyOp27
 70
     1
102
RTVSPropertyOp28
 70
     1
102
RTVSPropertyOp29
 70
     1
102
RTVSPropertyOp30
 70
     1
102
RTVSPropertyOp31
 70
     1
102
RTVSPropertyOp32
 70
     1
102
RTVSPropertyOp33
 70
     1
102
RTVSPropertyOp34
 70
     1
102
RTVSPropertyOp35
 70
     1
102
RTVSPropertyOp36
 70
     1
102
RTVSPropertyOp37
 70
     1
102
RTVSPropertyOp38
 70
     1
102
RTVSPropertyOp39
 70
     1
102
RTVSPropertyOp40
 70
     1
102
RTVSPropertyOp41
 70
     1
102
RTVSPropertyOp42
 70
     1
102
RTVSPropertyOp43
 70
     1
102
RTVSPropertyOp44
 70
     1
102
RTVSPropertyOp45
 70
     1
102
RTVSPropertyOp46
 70
     1
102
RTVSPropertyOp47
 70
     1
102
RTVSPropertyOp48
 70
     1
102
RTVSPropertyOp49
 70
     1
102
RTVSPropertyOp50
 70
     1
102
RTVSPropertyOp51
 70
     0
102
RTVSPropertyOp52
 70
     0
102
RTVSPropertyOp53
 70
     1
102
RTVSPropertyOp54
 70
     1
102
RTVSPropertyOp55
 70
     1
102
RTVSPropertyOp56
 70
     1
102
RTVSPropertyOp57
 70
     1
102
RTVSPropertyOp58
 70
     1
102
RTVSPropertyOp59
 70
     1
102
RTVSPropertyOp60
 70
     1
102
RTVSPropertyOp61
 70
     1
102
RTVSPropertyOp62
 70
     1
  0
XRECORD
  5
66CF
102
{ACAD_REACTORS
330
66CE
102
}
330
66CE
100
AcDbXrecord
280
     1
102
RTVSPost2010Prop28
280
     0
102
RTVSPost2010PropOp28
 70
     1
102
RTVSPost2010Prop29
280
     1
102
RTVSPost2010PropOp29
 70
     1
102
RTVSPost2010Prop30
280
     1
102
RTVSPost2010PropOp30
 70
     1
102
RTVSPost2010Prop31
280
     0
102
RTVSPost2010PropOp31
 70
     1
102
RTVSPost2010Prop32
280
     0
102
RTVSPost2010PropOp32
 70
     1
102
RTVSPost2010Prop33
280
     0
102
RTVSPost2010PropOp33
 70
     1
102
RTVSPost2010Prop34
280
     0
102
RTVSPost2010PropOp34
 70
     1
102
RTVSPost2010Prop35
280
     0
102
RTVSPost2010PropOp35
 70
     1
102
RTVSPost2010Prop36
280
     0
102
RTVSPost2010PropOp36
 70
     1
102
RTVSPost2010Prop37
 90
       50
102
RTVSPost2010PropOp37
 70
     1
102
RTVSPost2010Prop38
140
0.0
102
RTVSPost2010PropOp38
 70
     1
102
RTVSPost2010Prop39
140
1.0
102
RTVSPost2010PropOp39
 70
     1
102
RTVSPost2010Prop40
 90
        0
102
RTVSPost2010PropOp40
 70
     1
102
RTVSPost2010Prop41ColorIndex
 90
       18
102
RTVSPost2010Prop41ColorRGB
 90
        0
102
RTVSPost2010PropOp41
 70
     1
102
RTVSPost2010Prop42
 90
       50
102
RTVSPost2010PropOp42
 70
     1
102
RTVSPost2010Prop43
 90
        3
102
RTVSPost2010PropOp43
 70
     1
102
RTVSPost2010Prop44ColorIndex
 90
        5
102
RTVSPost2010Prop44ColorRGB
 90
      255
102
RTVSPost2010PropOp44
 70
     1
102
RTVSPost2010Prop45
280
     0
102
RTVSPost2010PropOp45
 70
     1
102
RTVSPost2010Prop46
 90
       50
102
RTVSPost2010PropOp46
 70
     1
102
RTVSPost2010Prop47
 90
       50
102
RTVSPost2010PropOp47
 70
     1
102
RTVSPost2010Prop48
 90
       50
102
RTVSPost2010PropOp48
 70
     1
102
RTVSPost2010Prop49
280
     0
102
RTVSPost2010PropOp49
 70
     1
102
RTVSPost2010Prop50
 90
       50
102
RTVSPost2010PropOp50
 70
     1
102
RTVSPost2010Prop51ColorIndex
 90
      256
102
RTVSPost2010Prop51ColorRGB
 90
-16777216
102
RTVSPost2010PropOp51
 70
     0
102
RTVSPost2010Prop52
140
1.0
102
RTVSPost2010PropOp52
 70
     0
102
RTVSPost2010Prop53
 90
        2
102
RTVSPost2010PropOp53
 70
     1
102
RTVSPost2010Prop54
  1
strokes_ogs.tif
102
RTVSPost2010PropOp54
 70
     1
102
RTVSPost2010Prop55
280
     0
102
RTVSPost2010PropOp55
 70
     1
102
RTVSPost2010Prop56
140
1.0
102
RTVSPost2010PropOp56
 70
     1
102
RTVSPost2010Prop57
140
1.0
102
RTVSPost2010PropOp57
 70
     1
102
RTVSPropertyOp0
 70
     1
102
RTVSPropertyOp1
 70
     1
102
RTVSPropertyOp2
 70
     1
102
RTVSPropertyOp3
 70
     1
102
RTVSPropertyOp4
 70
     1
102
RTVSPropertyOp5
 70
     1
102
RTVSPropertyOp6
 70
     1
102
RTVSPropertyOp7
 70
     1
102
RTVSPropertyOp8
 70
     1
102
RTVSPropertyOp9
 70
     1
102
RTVSPropertyOp10
 70
     1
102
RTVSPropertyOp11
 70
     1
102
RTVSPropertyOp12
 70
     1
102
RTVSPropertyOp13
 70
     1
102
RTVSPropertyOp14
 70
     1
102
RTVSPropertyOp15
 70
     1
102
RTVSPropertyOp16
 70
     1
102
RTVSPropertyOp17
 70
     1
102
RTVSPropertyOp18
 70
     1
102
RTVSPropertyOp19
 70
     1
102
RTVSPropertyOp20
 70
     1
102
RTVSPropertyOp21
 70
     1
102
RTVSPropertyOp22
 70
     1
102
RTVSPropertyOp23
 70
     1
102
RTVSPropertyOp24
 70
     1
102
RTVSPropertyOp25
 70
     1
102
RTVSPropertyOp26
 70
     1
102
RTVSPropertyOp27
 70
     1
102
RTVSPropertyOp28
 70
     1
102
RTVSPropertyOp29
 70
     1
102
RTVSPropertyOp30
 70
     1
102
RTVSPropertyOp31
 70
     1
102
RTVSPropertyOp32
 70
     1
102
RTVSPropertyOp33
 70
     1
102
RTVSPropertyOp34
 70
     1
102
RTVSPropertyOp35
 70
     1
102
RTVSPropertyOp36
 70
     1
102
RTVSPropertyOp37
 70
     1
102
RTVSPropertyOp38
 70
     1
102
RTVSPropertyOp39
 70
     1
102
RTVSPropertyOp40
 70
     1
102
RTVSPropertyOp41
 70
     1
102
RTVSPropertyOp42
 70
     1
102
RTVSPropertyOp43
 70
     1
102
RTVSPropertyOp44
 70
     1
102
RTVSPropertyOp45
 70
     1
102
RTVSPropertyOp46
 70
     1
102
RTVSPropertyOp47
 70
     1
102
RTVSPropertyOp48
 70
     1
102
RTVSPropertyOp49
 70
     1
102
RTVSPropertyOp50
 70
     1
102
RTVSPropertyOp51
 70
     0
102
RTVSPropertyOp52
 70
     0
102
RTVSPropertyOp53
 70
     1
102
RTVSPropertyOp54
 70
     1
102
RTVSPropertyOp55
 70
     1
102
RTVSPropertyOp56
 70
     1
102
RTVSPropertyOp57
 70
     1
102
RTVSPropertyOp58
 70
     1
102
RTVSPropertyOp59
 70
     1
102
RTVSPropertyOp60
 70
     1
102
RTVSPropertyOp61
 70
     1
102
RTVSPropertyOp62
 70
     1
  0
XRECORD
  5
66DD
102
{ACAD_REACTORS
330
66DC
102
}
330
66DC
100
AcDbXrecord
280
     1
102
RTVSPost2010Prop28
280
     0
102
RTVSPost2010PropOp28
 70
     1
102
RTVSPost2010Prop29
280
     1
102
RTVSPost2010PropOp29
 70
     1
102
RTVSPost2010Prop30
280
     1
102
RTVSPost2010PropOp30
 70
     1
102
RTVSPost2010Prop31
280
     0
102
RTVSPost2010PropOp31
 70
     1
102
RTVSPost2010Prop32
280
     0
102
RTVSPost2010PropOp32
 70
     1
102
RTVSPost2010Prop33
280
     0
102
RTVSPost2010PropOp33
 70
     1
102
RTVSPost2010Prop34
280
     0
102
RTVSPost2010PropOp34
 70
     1
102
RTVSPost2010Prop35
280
     0
102
RTVSPost2010PropOp35
 70
     1
102
RTVSPost2010Prop36
280
     0
102
RTVSPost2010PropOp36
 70
     1
102
RTVSPost2010Prop37
 90
       50
102
RTVSPost2010PropOp37
 70
     1
102
RTVSPost2010Prop38
140
0.0
102
RTVSPost2010PropOp38
 70
     1
102
RTVSPost2010Prop39
140
1.0
102
RTVSPost2010PropOp39
 70
     1
102
RTVSPost2010Prop40
 90
        0
102
RTVSPost2010PropOp40
 70
     1
102
RTVSPost2010Prop41ColorIndex
 90
       18
102
RTVSPost2010Prop41ColorRGB
 90
        0
102
RTVSPost2010PropOp41
 70
     1
102
RTVSPost2010Prop42
 90
       50
102
RTVSPost2010PropOp42
 70
     1
102
RTVSPost2010Prop43
 90
        3
102
RTVSPost2010PropOp43
 70
     1
102
RTVSPost2010Prop44ColorIndex
 90
        5
102
RTVSPost2010Prop44ColorRGB
 90
      255
102
RTVSPost2010PropOp44
 70
     1
102
RTVSPost2010Prop45
280
     0
102
RTVSPost2010PropOp45
 70
     1
102
RTVSPost2010Prop46
 90
       50
102
RTVSPost2010PropOp46
 70
     1
102
RTVSPost2010Prop47
 90
       50
102
RTVSPost2010PropOp47
 70
     1
102
RTVSPost2010Prop48
 90
       50
102
RTVSPost2010PropOp48
 70
     1
102
RTVSPost2010Prop49
280
     0
102
RTVSPost2010PropOp49
 70
     1
102
RTVSPost2010Prop50
 90
       50
102
RTVSPost2010PropOp50
 70
     1
102
RTVSPost2010Prop51ColorIndex
 90
      256
102
RTVSPost2010Prop51ColorRGB
 90
-16777216
102
RTVSPost2010PropOp51
 70
     0
102
RTVSPost2010Prop52
140
1.0
102
RTVSPost2010PropOp52
 70
     0
102
RTVSPost2010Prop53
 90
        2
102
RTVSPost2010PropOp53
 70
     1
102
RTVSPost2010Prop54
  1
strokes_ogs.tif
102
RTVSPost2010PropOp54
 70
     1
102
RTVSPost2010Prop55
280
     0
102
RTVSPost2010PropOp55
 70
     1
102
RTVSPost2010Prop56
140
1.0
102
RTVSPost2010PropOp56
 70
     1
102
RTVSPost2010Prop57
140
1.0
102
RTVSPost2010PropOp57
 70
     1
102
RTVSPropertyOp0
 70
     1
102
RTVSPropertyOp1
 70
     1
102
RTVSPropertyOp2
 70
     1
102
RTVSPropertyOp3
 70
     1
102
RTVSPropertyOp4
 70
     1
102
RTVSPropertyOp5
 70
     1
102
RTVSPropertyOp6
 70
     1
102
RTVSPropertyOp7
 70
     1
102
RTVSPropertyOp8
 70
     1
102
RTVSPropertyOp9
 70
     1
102
RTVSPropertyOp10
 70
     1
102
RTVSPropertyOp11
 70
     1
102
RTVSPropertyOp12
 70
     1
102
RTVSPropertyOp13
 70
     1
102
RTVSPropertyOp14
 70
     1
102
RTVSPropertyOp15
 70
     1
102
RTVSPropertyOp16
 70
     1
102
RTVSPropertyOp17
 70
     1
102
RTVSPropertyOp18
 70
     1
102
RTVSPropertyOp19
 70
     1
102
RTVSPropertyOp20
 70
     1
102
RTVSPropertyOp21
 70
     1
102
RTVSPropertyOp22
 70
     1
102
RTVSPropertyOp23
 70
     1
102
RTVSPropertyOp24
 70
     1
102
RTVSPropertyOp25
 70
     1
102
RTVSPropertyOp26
 70
     1
102
RTVSPropertyOp27
 70
     1
102
RTVSPropertyOp28
 70
     1
102
RTVSPropertyOp29
 70
     1
102
RTVSPropertyOp30
 70
     1
102
RTVSPropertyOp31
 70
     1
102
RTVSPropertyOp32
 70
     1
102
RTVSPropertyOp33
 70
     1
102
RTVSPropertyOp34
 70
     1
102
RTVSPropertyOp35
 70
     1
102
RTVSPropertyOp36
 70
     1
102
RTVSPropertyOp37
 70
     1
102
RTVSPropertyOp38
 70
     1
102
RTVSPropertyOp39
 70
     1
102
RTVSPropertyOp40
 70
     1
102
RTVSPropertyOp41
 70
     1
102
RTVSPropertyOp42
 70
     1
102
RTVSPropertyOp43
 70
     1
102
RTVSPropertyOp44
 70
     1
102
RTVSPropertyOp45
 70
     1
102
RTVSPropertyOp46
 70
     1
102
RTVSPropertyOp47
 70
     1
102
RTVSPropertyOp48
 70
     1
102
RTVSPropertyOp49
 70
     1
102
RTVSPropertyOp50
 70
     1
102
RTVSPropertyOp51
 70
     0
102
RTVSPropertyOp52
 70
     0
102
RTVSPropertyOp53
 70
     1
102
RTVSPropertyOp54
 70
     1
102
RTVSPropertyOp55
 70
     1
102
RTVSPropertyOp56
 70
     1
102
RTVSPropertyOp57
 70
     1
102
RTVSPropertyOp58
 70
     1
102
RTVSPropertyOp59
 70
     1
102
RTVSPropertyOp60
 70
     1
102
RTVSPropertyOp61
 70
     1
102
RTVSPropertyOp62
 70
     1
  0
XRECORD
  5
66E5
102
{ACAD_REACTORS
330
66E4
102
}
330
66E4
100
AcDbXrecord
280
     1
102
RTVSPost2010Prop28
280
     0
102
RTVSPost2010PropOp28
 70
     1
102
RTVSPost2010Prop29
280
     1
102
RTVSPost2010PropOp29
 70
     1
102
RTVSPost2010Prop30
280
     1
102
RTVSPost2010PropOp30
 70
     1
102
RTVSPost2010Prop31
280
     0
102
RTVSPost2010PropOp31
 70
     1
102
RTVSPost2010Prop32
280
     0
102
RTVSPost2010PropOp32
 70
     1
102
RTVSPost2010Prop33
280
     0
102
RTVSPost2010PropOp33
 70
     1
102
RTVSPost2010Prop34
280
     0
102
RTVSPost2010PropOp34
 70
     1
102
RTVSPost2010Prop35
280
     0
102
RTVSPost2010PropOp35
 70
     1
102
RTVSPost2010Prop36
280
     0
102
RTVSPost2010PropOp36
 70
     1
102
RTVSPost2010Prop37
 90
       50
102
RTVSPost2010PropOp37
 70
     1
102
RTVSPost2010Prop38
140
0.0
102
RTVSPost2010PropOp38
 70
     1
102
RTVSPost2010Prop39
140
1.0
102
RTVSPost2010PropOp39
 70
     1
102
RTVSPost2010Prop40
 90
        0
102
RTVSPost2010PropOp40
 70
     1
102
RTVSPost2010Prop41ColorIndex
 90
       18
102
RTVSPost2010Prop41ColorRGB
 90
        0
102
RTVSPost2010PropOp41
 70
     1
102
RTVSPost2010Prop42
 90
       50
102
RTVSPost2010PropOp42
 70
     1
102
RTVSPost2010Prop43
 90
        3
102
RTVSPost2010PropOp43
 70
     1
102
RTVSPost2010Prop44ColorIndex
 90
        5
102
RTVSPost2010Prop44ColorRGB
 90
      255
102
RTVSPost2010PropOp44
 70
     1
102
RTVSPost2010Prop45
280
     0
102
RTVSPost2010PropOp45
 70
     1
102
RTVSPost2010Prop46
 90
       50
102
RTVSPost2010PropOp46
 70
     1
102
RTVSPost2010Prop47
 90
       50
102
RTVSPost2010PropOp47
 70
     1
102
RTVSPost2010Prop48
 90
       50
102
RTVSPost2010PropOp48
 70
     1
102
RTVSPost2010Prop49
280
     0
102
RTVSPost2010PropOp49
 70
     1
102
RTVSPost2010Prop50
 90
       50
102
RTVSPost2010PropOp50
 70
     1
102
RTVSPost2010Prop51ColorIndex
 90
      256
102
RTVSPost2010Prop51ColorRGB
 90
-16777216
102
RTVSPost2010PropOp51
 70
     0
102
RTVSPost2010Prop52
140
1.0
102
RTVSPost2010PropOp52
 70
     0
102
RTVSPost2010Prop53
 90
        2
102
RTVSPost2010PropOp53
 70
     1
102
RTVSPost2010Prop54
  1
strokes_ogs.tif
102
RTVSPost2010PropOp54
 70
     1
102
RTVSPost2010Prop55
280
     0
102
RTVSPost2010PropOp55
 70
     1
102
RTVSPost2010Prop56
140
1.0
102
RTVSPost2010PropOp56
 70
     1
102
RTVSPost2010Prop57
140
1.0
102
RTVSPost2010PropOp57
 70
     1
102
RTVSPropertyOp0
 70
     1
102
RTVSPropertyOp1
 70
     1
102
RTVSPropertyOp2
 70
     1
102
RTVSPropertyOp3
 70
     1
102
RTVSPropertyOp4
 70
     1
102
RTVSPropertyOp5
 70
     1
102
RTVSPropertyOp6
 70
     1
102
RTVSPropertyOp7
 70
     1
102
RTVSPropertyOp8
 70
     1
102
RTVSPropertyOp9
 70
     1
102
RTVSPropertyOp10
 70
     1
102
RTVSPropertyOp11
 70
     1
102
RTVSPropertyOp12
 70
     1
102
RTVSPropertyOp13
 70
     1
102
RTVSPropertyOp14
 70
     1
102
RTVSPropertyOp15
 70
     1
102
RTVSPropertyOp16
 70
     1
102
RTVSPropertyOp17
 70
     1
102
RTVSPropertyOp18
 70
     1
102
RTVSPropertyOp19
 70
     1
102
RTVSPropertyOp20
 70
     1
102
RTVSPropertyOp21
 70
     1
102
RTVSPropertyOp22
 70
     1
102
RTVSPropertyOp23
 70
     1
102
RTVSPropertyOp24
 70
     1
102
RTVSPropertyOp25
 70
     1
102
RTVSPropertyOp26
 70
     1
102
RTVSPropertyOp27
 70
     1
102
RTVSPropertyOp28
 70
     1
102
RTVSPropertyOp29
 70
     1
102
RTVSPropertyOp30
 70
     1
102
RTVSPropertyOp31
 70
     1
102
RTVSPropertyOp32
 70
     1
102
RTVSPropertyOp33
 70
     1
102
RTVSPropertyOp34
 70
     1
102
RTVSPropertyOp35
 70
     1
102
RTVSPropertyOp36
 70
     1
102
RTVSPropertyOp37
 70
     1
102
RTVSPropertyOp38
 70
     1
102
RTVSPropertyOp39
 70
     1
102
RTVSPropertyOp40
 70
     1
102
RTVSPropertyOp41
 70
     1
102
RTVSPropertyOp42
 70
     1
102
RTVSPropertyOp43
 70
     1
102
RTVSPropertyOp44
 70
     1
102
RTVSPropertyOp45
 70
     1
102
RTVSPropertyOp46
 70
     1
102
RTVSPropertyOp47
 70
     1
102
RTVSPropertyOp48
 70
     1
102
RTVSPropertyOp49
 70
     1
102
RTVSPropertyOp50
 70
     1
102
RTVSPropertyOp51
 70
     0
102
RTVSPropertyOp52
 70
     0
102
RTVSPropertyOp53
 70
     1
102
RTVSPropertyOp54
 70
     1
102
RTVSPropertyOp55
 70
     1
102
RTVSPropertyOp56
 70
     1
102
RTVSPropertyOp57
 70
     1
102
RTVSPropertyOp58
 70
     1
102
RTVSPropertyOp59
 70
     1
102
RTVSPropertyOp60
 70
     1
102
RTVSPropertyOp61
 70
     1
102
RTVSPropertyOp62
 70
     1
  0
XRECORD
  5
66D7
102
{ACAD_REACTORS
330
66D6
102
}
330
66D6
100
AcDbXrecord
280
     1
102
RTVSPost2010Prop28
280
     0
102
RTVSPost2010PropOp28
 70
     1
102
RTVSPost2010Prop29
280
     1
102
RTVSPost2010PropOp29
 70
     1
102
RTVSPost2010Prop30
280
     1
102
RTVSPost2010PropOp30
 70
     1
102
RTVSPost2010Prop31
280
     0
102
RTVSPost2010PropOp31
 70
     1
102
RTVSPost2010Prop32
280
     0
102
RTVSPost2010PropOp32
 70
     1
102
RTVSPost2010Prop33
280
     0
102
RTVSPost2010PropOp33
 70
     1
102
RTVSPost2010Prop34
280
     0
102
RTVSPost2010PropOp34
 70
     1
102
RTVSPost2010Prop35
280
     0
102
RTVSPost2010PropOp35
 70
     1
102
RTVSPost2010Prop36
280
     0
102
RTVSPost2010PropOp36
 70
     1
102
RTVSPost2010Prop37
 90
       50
102
RTVSPost2010PropOp37
 70
     1
102
RTVSPost2010Prop38
140
0.0
102
RTVSPost2010PropOp38
 70
     1
102
RTVSPost2010Prop39
140
1.0
102
RTVSPost2010PropOp39
 70
     1
102
RTVSPost2010Prop40
 90
        0
102
RTVSPost2010PropOp40
 70
     1
102
RTVSPost2010Prop41ColorIndex
 90
       18
102
RTVSPost2010Prop41ColorRGB
 90
        0
102
RTVSPost2010PropOp41
 70
     1
102
RTVSPost2010Prop42
 90
       50
102
RTVSPost2010PropOp42
 70
     1
102
RTVSPost2010Prop43
 90
        3
102
RTVSPost2010PropOp43
 70
     1
102
RTVSPost2010Prop44ColorIndex
 90
        5
102
RTVSPost2010Prop44ColorRGB
 90
      255
102
RTVSPost2010PropOp44
 70
     1
102
RTVSPost2010Prop45
280
     0
102
RTVSPost2010PropOp45
 70
     1
102
RTVSPost2010Prop46
 90
       50
102
RTVSPost2010PropOp46
 70
     1
102
RTVSPost2010Prop47
 90
       50
102
RTVSPost2010PropOp47
 70
     1
102
RTVSPost2010Prop48
 90
       50
102
RTVSPost2010PropOp48
 70
     1
102
RTVSPost2010Prop49
280
     0
102
RTVSPost2010PropOp49
 70
     1
102
RTVSPost2010Prop50
 90
       50
102
RTVSPost2010PropOp50
 70
     1
102
RTVSPost2010Prop51ColorIndex
 90
      256
102
RTVSPost2010Prop51ColorRGB
 90
-16777216
102
RTVSPost2010PropOp51
 70
     0
102
RTVSPost2010Prop52
140
1.0
102
RTVSPost2010PropOp52
 70
     0
102
RTVSPost2010Prop53
 90
        2
102
RTVSPost2010PropOp53
 70
     1
102
RTVSPost2010Prop54
  1
strokes_ogs.tif
102
RTVSPost2010PropOp54
 70
     1
102
RTVSPost2010Prop55
280
     0
102
RTVSPost2010PropOp55
 70
     1
102
RTVSPost2010Prop56
140
1.0
102
RTVSPost2010PropOp56
 70
     1
102
RTVSPost2010Prop57
140
1.0
102
RTVSPost2010PropOp57
 70
     1
102
RTVSPropertyOp0
 70
     1
102
RTVSPropertyOp1
 70
     1
102
RTVSPropertyOp2
 70
     1
102
RTVSPropertyOp3
 70
     1
102
RTVSPropertyOp4
 70
     1
102
RTVSPropertyOp5
 70
     1
102
RTVSPropertyOp6
 70
     1
102
RTVSPropertyOp7
 70
     1
102
RTVSPropertyOp8
 70
     1
102
RTVSPropertyOp9
 70
     1
102
RTVSPropertyOp10
 70
     1
102
RTVSPropertyOp11
 70
     1
102
RTVSPropertyOp12
 70
     1
102
RTVSPropertyOp13
 70
     1
102
RTVSPropertyOp14
 70
     1
102
RTVSPropertyOp15
 70
     1
102
RTVSPropertyOp16
 70
     1
102
RTVSPropertyOp17
 70
     1
102
RTVSPropertyOp18
 70
     1
102
RTVSPropertyOp19
 70
     1
102
RTVSPropertyOp20
 70
     1
102
RTVSPropertyOp21
 70
     1
102
RTVSPropertyOp22
 70
     1
102
RTVSPropertyOp23
 70
     1
102
RTVSPropertyOp24
 70
     1
102
RTVSPropertyOp25
 70
     1
102
RTVSPropertyOp26
 70
     1
102
RTVSPropertyOp27
 70
     1
102
RTVSPropertyOp28
 70
     1
102
RTVSPropertyOp29
 70
     1
102
RTVSPropertyOp30
 70
     1
102
RTVSPropertyOp31
 70
     1
102
RTVSPropertyOp32
 70
     1
102
RTVSPropertyOp33
 70
     1
102
RTVSPropertyOp34
 70
     1
102
RTVSPropertyOp35
 70
     1
102
RTVSPropertyOp36
 70
     1
102
RTVSPropertyOp37
 70
     1
102
RTVSPropertyOp38
 70
     1
102
RTVSPropertyOp39
 70
     1
102
RTVSPropertyOp40
 70
     1
102
RTVSPropertyOp41
 70
     1
102
RTVSPropertyOp42
 70
     1
102
RTVSPropertyOp43
 70
     1
102
RTVSPropertyOp44
 70
     1
102
RTVSPropertyOp45
 70
     1
102
RTVSPropertyOp46
 70
     1
102
RTVSPropertyOp47
 70
     1
102
RTVSPropertyOp48
 70
     1
102
RTVSPropertyOp49
 70
     1
102
RTVSPropertyOp50
 70
     1
102
RTVSPropertyOp51
 70
     0
102
RTVSPropertyOp52
 70
     0
102
RTVSPropertyOp53
 70
     1
102
RTVSPropertyOp54
 70
     1
102
RTVSPropertyOp55
 70
     1
102
RTVSPropertyOp56
 70
     1
102
RTVSPropertyOp57
 70
     1
102
RTVSPropertyOp58
 70
     1
102
RTVSPropertyOp59
 70
     1
102
RTVSPropertyOp60
 70
     1
102
RTVSPropertyOp61
 70
     1
102
RTVSPropertyOp62
 70
     1
  0
XRECORD
  5
66DB
102
{ACAD_REACTORS
330
66DA
102
}
330
66DA
100
AcDbXrecord
280
     1
102
RTVSPost2010Prop28
280
     0
102
RTVSPost2010PropOp28
 70
     1
102
RTVSPost2010Prop29
280
     1
102
RTVSPost2010PropOp29
 70
     1
102
RTVSPost2010Prop30
280
     1
102
RTVSPost2010PropOp30
 70
     1
102
RTVSPost2010Prop31
280
     0
102
RTVSPost2010PropOp31
 70
     1
102
RTVSPost2010Prop32
280
     0
102
RTVSPost2010PropOp32
 70
     1
102
RTVSPost2010Prop33
280
     0
102
RTVSPost2010PropOp33
 70
     1
102
RTVSPost2010Prop34
280
     0
102
RTVSPost2010PropOp34
 70
     1
102
RTVSPost2010Prop35
280
     0
102
RTVSPost2010PropOp35
 70
     1
102
RTVSPost2010Prop36
280
     0
102
RTVSPost2010PropOp36
 70
     1
102
RTVSPost2010Prop37
 90
       50
102
RTVSPost2010PropOp37
 70
     1
102
RTVSPost2010Prop38
140
0.0
102
RTVSPost2010PropOp38
 70
     1
102
RTVSPost2010Prop39
140
1.0
102
RTVSPost2010PropOp39
 70
     1
102
RTVSPost2010Prop40
 90
        0
102
RTVSPost2010PropOp40
 70
     1
102
RTVSPost2010Prop41ColorIndex
 90
       18
102
RTVSPost2010Prop41ColorRGB
 90
        0
102
RTVSPost2010PropOp41
 70
     1
102
RTVSPost2010Prop42
 90
       50
102
RTVSPost2010PropOp42
 70
     1
102
RTVSPost2010Prop43
 90
        3
102
RTVSPost2010PropOp43
 70
     1
102
RTVSPost2010Prop44ColorIndex
 90
        5
102
RTVSPost2010Prop44ColorRGB
 90
      255
102
RTVSPost2010PropOp44
 70
     1
102
RTVSPost2010Prop45
280
     0
102
RTVSPost2010PropOp45
 70
     1
102
RTVSPost2010Prop46
 90
       50
102
RTVSPost2010PropOp46
 70
     1
102
RTVSPost2010Prop47
 90
       50
102
RTVSPost2010PropOp47
 70
     1
102
RTVSPost2010Prop48
 90
       50
102
RTVSPost2010PropOp48
 70
     1
102
RTVSPost2010Prop49
280
     0
102
RTVSPost2010PropOp49
 70
     1
102
RTVSPost2010Prop50
 90
       50
102
RTVSPost2010PropOp50
 70
     1
102
RTVSPost2010Prop51ColorIndex
 90
      256
102
RTVSPost2010Prop51ColorRGB
 90
-16777216
102
RTVSPost2010PropOp51
 70
     0
102
RTVSPost2010Prop52
140
1.0
102
RTVSPost2010PropOp52
 70
     0
102
RTVSPost2010Prop53
 90
        2
102
RTVSPost2010PropOp53
 70
     1
102
RTVSPost2010Prop54
  1
strokes_ogs.tif
102
RTVSPost2010PropOp54
 70
     1
102
RTVSPost2010Prop55
280
     0
102
RTVSPost2010PropOp55
 70
     1
102
RTVSPost2010Prop56
140
1.0
102
RTVSPost2010PropOp56
 70
     1
102
RTVSPost2010Prop57
140
1.0
102
RTVSPost2010PropOp57
 70
     1
102
RTVSPropertyOp0
 70
     1
102
RTVSPropertyOp1
 70
     1
102
RTVSPropertyOp2
 70
     1
102
RTVSPropertyOp3
 70
     1
102
RTVSPropertyOp4
 70
     1
102
RTVSPropertyOp5
 70
     1
102
RTVSPropertyOp6
 70
     1
102
RTVSPropertyOp7
 70
     1
102
RTVSPropertyOp8
 70
     1
102
RTVSPropertyOp9
 70
     1
102
RTVSPropertyOp10
 70
     1
102
RTVSPropertyOp11
 70
     1
102
RTVSPropertyOp12
 70
     1
102
RTVSPropertyOp13
 70
     1
102
RTVSPropertyOp14
 70
     1
102
RTVSPropertyOp15
 70
     1
102
RTVSPropertyOp16
 70
     1
102
RTVSPropertyOp17
 70
     1
102
RTVSPropertyOp18
 70
     1
102
RTVSPropertyOp19
 70
     1
102
RTVSPropertyOp20
 70
     1
102
RTVSPropertyOp21
 70
     1
102
RTVSPropertyOp22
 70
     1
102
RTVSPropertyOp23
 70
     1
102
RTVSPropertyOp24
 70
     1
102
RTVSPropertyOp25
 70
     1
102
RTVSPropertyOp26
 70
     1
102
RTVSPropertyOp27
 70
     1
102
RTVSPropertyOp28
 70
     1
102
RTVSPropertyOp29
 70
     1
102
RTVSPropertyOp30
 70
     1
102
RTVSPropertyOp31
 70
     1
102
RTVSPropertyOp32
 70
     1
102
RTVSPropertyOp33
 70
     1
102
RTVSPropertyOp34
 70
     1
102
RTVSPropertyOp35
 70
     1
102
RTVSPropertyOp36
 70
     1
102
RTVSPropertyOp37
 70
     1
102
RTVSPropertyOp38
 70
     1
102
RTVSPropertyOp39
 70
     1
102
RTVSPropertyOp40
 70
     1
102
RTVSPropertyOp41
 70
     1
102
RTVSPropertyOp42
 70
     1
102
RTVSPropertyOp43
 70
     1
102
RTVSPropertyOp44
 70
     1
102
RTVSPropertyOp45
 70
     1
102
RTVSPropertyOp46
 70
     1
102
RTVSPropertyOp47
 70
     1
102
RTVSPropertyOp48
 70
     1
102
RTVSPropertyOp49
 70
     1
102
RTVSPropertyOp50
 70
     1
102
RTVSPropertyOp51
 70
     0
102
RTVSPropertyOp52
 70
     0
102
RTVSPropertyOp53
 70
     1
102
RTVSPropertyOp54
 70
     1
102
RTVSPropertyOp55
 70
     1
102
RTVSPropertyOp56
 70
     1
102
RTVSPropertyOp57
 70
     1
102
RTVSPropertyOp58
 70
     1
102
RTVSPropertyOp59
 70
     1
102
RTVSPropertyOp60
 70
     1
102
RTVSPropertyOp61
 70
     1
102
RTVSPropertyOp62
 70
     1
  0
XRECORD
  5
66ED
102
{ACAD_REACTORS
330
66EC
102
}
330
66EC
100
AcDbXrecord
280
     1
102
RTVSPost2010Prop28
280
     0
102
RTVSPost2010PropOp28
 70
     1
102
RTVSPost2010Prop29
280
     1
102
RTVSPost2010PropOp29
 70
     1
102
RTVSPost2010Prop30
280
     1
102
RTVSPost2010PropOp30
 70
     1
102
RTVSPost2010Prop31
280
     0
102
RTVSPost2010PropOp31
 70
     1
102
RTVSPost2010Prop32
280
     0
102
RTVSPost2010PropOp32
 70
     1
102
RTVSPost2010Prop33
280
     0
102
RTVSPost2010PropOp33
 70
     1
102
RTVSPost2010Prop34
280
     0
102
RTVSPost2010PropOp34
 70
     1
102
RTVSPost2010Prop35
280
     0
102
RTVSPost2010PropOp35
 70
     1
102
RTVSPost2010Prop36
280
     0
102
RTVSPost2010PropOp36
 70
     1
102
RTVSPost2010Prop37
 90
       50
102
RTVSPost2010PropOp37
 70
     1
102
RTVSPost2010Prop38
140
0.0
102
RTVSPost2010PropOp38
 70
     1
102
RTVSPost2010Prop39
140
1.0
102
RTVSPost2010PropOp39
 70
     1
102
RTVSPost2010Prop40
 90
        0
102
RTVSPost2010PropOp40
 70
     1
102
RTVSPost2010Prop41ColorIndex
 90
       18
102
RTVSPost2010Prop41ColorRGB
 90
        0
102
RTVSPost2010PropOp41
 70
     1
102
RTVSPost2010Prop42
 90
       50
102
RTVSPost2010PropOp42
 70
     1
102
RTVSPost2010Prop43
 90
        3
102
RTVSPost2010PropOp43
 70
     1
102
RTVSPost2010Prop44ColorIndex
 90
        5
102
RTVSPost2010Prop44ColorRGB
 90
      255
102
RTVSPost2010PropOp44
 70
     1
102
RTVSPost2010Prop45
280
     0
102
RTVSPost2010PropOp45
 70
     1
102
RTVSPost2010Prop46
 90
       50
102
RTVSPost2010PropOp46
 70
     1
102
RTVSPost2010Prop47
 90
       50
102
RTVSPost2010PropOp47
 70
     1
102
RTVSPost2010Prop48
 90
       50
102
RTVSPost2010PropOp48
 70
     1
102
RTVSPost2010Prop49
280
     0
102
RTVSPost2010PropOp49
 70
     1
102
RTVSPost2010Prop50
 90
       50
102
RTVSPost2010PropOp50
 70
     1
102
RTVSPost2010Prop51ColorIndex
 90
      256
102
RTVSPost2010Prop51ColorRGB
 90
-16777216
102
RTVSPost2010PropOp51
 70
     0
102
RTVSPost2010Prop52
140
1.0
102
RTVSPost2010PropOp52
 70
     0
102
RTVSPost2010Prop53
 90
        2
102
RTVSPost2010PropOp53
 70
     1
102
RTVSPost2010Prop54
  1
strokes_ogs.tif
102
RTVSPost2010PropOp54
 70
     1
102
RTVSPost2010Prop55
280
     0
102
RTVSPost2010PropOp55
 70
     1
102
RTVSPost2010Prop56
140
1.0
102
RTVSPost2010PropOp56
 70
     1
102
RTVSPost2010Prop57
140
1.0
102
RTVSPost2010PropOp57
 70
     1
102
RTVSPropertyOp0
 70
     0
102
RTVSPropertyOp1
 70
     0
102
RTVSPropertyOp2
 70
     0
102
RTVSPropertyOp3
 70
     0
102
RTVSPropertyOp4
 70
     0
102
RTVSPropertyOp5
 70
     0
102
RTVSPropertyOp6
 70
     0
102
RTVSPropertyOp7
 70
     0
102
RTVSPropertyOp8
 70
     0
102
RTVSPropertyOp9
 70
     0
102
RTVSPropertyOp10
 70
     0
102
RTVSPropertyOp11
 70
     0
102
RTVSPropertyOp12
 70
     0
102
RTVSPropertyOp13
 70
     0
102
RTVSPropertyOp14
 70
     2
102
RTVSPropertyOp15
 70
     0
102
RTVSPropertyOp16
 70
     0
102
RTVSPropertyOp17
 70
     0
102
RTVSPropertyOp18
 70
     0
102
RTVSPropertyOp19
 70
     0
102
RTVSPropertyOp20
 70
     0
102
RTVSPropertyOp21
 70
     0
102
RTVSPropertyOp22
 70
     0
102
RTVSPropertyOp23
 70
     0
102
RTVSPropertyOp24
 70
     0
102
RTVSPropertyOp25
 70
     0
102
RTVSPropertyOp26
 70
     0
102
RTVSPropertyOp27
 70
     0
102
RTVSPropertyOp28
 70
     1
102
RTVSPropertyOp29
 70
     1
102
RTVSPropertyOp30
 70
     1
102
RTVSPropertyOp31
 70
     1
102
RTVSPropertyOp32
 70
     1
102
RTVSPropertyOp33
 70
     1
102
RTVSPropertyOp34
 70
     1
102
RTVSPropertyOp35
 70
     1
102
RTVSPropertyOp36
 70
     1
102
RTVSPropertyOp37
 70
     1
102
RTVSPropertyOp38
 70
     1
102
RTVSPropertyOp39
 70
     1
102
RTVSPropertyOp40
 70
     1
102
RTVSPropertyOp41
 70
     1
102
RTVSPropertyOp42
 70
     1
102
RTVSPropertyOp43
 70
     1
102
RTVSPropertyOp44
 70
     1
102
RTVSPropertyOp45
 70
     1
102
RTVSPropertyOp46
 70
     1
102
RTVSPropertyOp47
 70
     1
102
RTVSPropertyOp48
 70
     1
102
RTVSPropertyOp49
 70
     1
102
RTVSPropertyOp50
 70
     1
102
RTVSPropertyOp51
 70
     0
102
RTVSPropertyOp52
 70
     0
102
RTVSPropertyOp53
 70
     1
102
RTVSPropertyOp54
 70
     1
102
RTVSPropertyOp55
 70
     1
102
RTVSPropertyOp56
 70
     1
102
RTVSPropertyOp57
 70
     1
102
RTVSPropertyOp58
 70
     1
102
RTVSPropertyOp59
 70
     1
102
RTVSPropertyOp60
 70
     1
102
RTVSPropertyOp61
 70
     1
102
RTVSPropertyOp62
 70
     1
  0
XRECORD
  5
66E3
102
{ACAD_REACTORS
330
66E2
102
}
330
66E2
100
AcDbXrecord
280
     1
102
RTVSPost2010Prop28
280
     0
102
RTVSPost2010PropOp28
 70
     1
102
RTVSPost2010Prop29
280
     1
102
RTVSPost2010PropOp29
 70
     1
102
RTVSPost2010Prop30
280
     1
102
RTVSPost2010PropOp30
 70
     1
102
RTVSPost2010Prop31
280
     0
102
RTVSPost2010PropOp31
 70
     1
102
RTVSPost2010Prop32
280
     0
102
RTVSPost2010PropOp32
 70
     1
102
RTVSPost2010Prop33
280
     0
102
RTVSPost2010PropOp33
 70
     1
102
RTVSPost2010Prop34
280
     0
102
RTVSPost2010PropOp34
 70
     1
102
RTVSPost2010Prop35
280
     0
102
RTVSPost2010PropOp35
 70
     1
102
RTVSPost2010Prop36
280
     0
102
RTVSPost2010PropOp36
 70
     1
102
RTVSPost2010Prop37
 90
       50
102
RTVSPost2010PropOp37
 70
     1
102
RTVSPost2010Prop38
140
0.0
102
RTVSPost2010PropOp38
 70
     1
102
RTVSPost2010Prop39
140
1.0
102
RTVSPost2010PropOp39
 70
     1
102
RTVSPost2010Prop40
 90
        0
102
RTVSPost2010PropOp40
 70
     1
102
RTVSPost2010Prop41ColorIndex
 90
       18
102
RTVSPost2010Prop41ColorRGB
 90
        0
102
RTVSPost2010PropOp41
 70
     1
102
RTVSPost2010Prop42
 90
       50
102
RTVSPost2010PropOp42
 70
     1
102
RTVSPost2010Prop43
 90
        3
102
RTVSPost2010PropOp43
 70
     1
102
RTVSPost2010Prop44ColorIndex
 90
        5
102
RTVSPost2010Prop44ColorRGB
 90
      255
102
RTVSPost2010PropOp44
 70
     1
102
RTVSPost2010Prop45
280
     0
102
RTVSPost2010PropOp45
 70
     1
102
RTVSPost2010Prop46
 90
       50
102
RTVSPost2010PropOp46
 70
     1
102
RTVSPost2010Prop47
 90
       50
102
RTVSPost2010PropOp47
 70
     1
102
RTVSPost2010Prop48
 90
       50
102
RTVSPost2010PropOp48
 70
     1
102
RTVSPost2010Prop49
280
     0
102
RTVSPost2010PropOp49
 70
     1
102
RTVSPost2010Prop50
 90
       50
102
RTVSPost2010PropOp50
 70
     1
102
RTVSPost2010Prop51ColorIndex
 90
      256
102
RTVSPost2010Prop51ColorRGB
 90
-16777216
102
RTVSPost2010PropOp51
 70
     0
102
RTVSPost2010Prop52
140
1.0
102
RTVSPost2010PropOp52
 70
     0
102
RTVSPost2010Prop53
 90
        2
102
RTVSPost2010PropOp53
 70
     1
102
RTVSPost2010Prop54
  1
strokes_ogs.tif
102
RTVSPost2010PropOp54
 70
     1
102
RTVSPost2010Prop55
280
     0
102
RTVSPost2010PropOp55
 70
     1
102
RTVSPost2010Prop56
140
1.0
102
RTVSPost2010PropOp56
 70
     1
102
RTVSPost2010Prop57
140
1.0
102
RTVSPost2010PropOp57
 70
     1
102
RTVSPropertyOp0
 70
     1
102
RTVSPropertyOp1
 70
     1
102
RTVSPropertyOp2
 70
     1
102
RTVSPropertyOp3
 70
     1
102
RTVSPropertyOp4
 70
     1
102
RTVSPropertyOp5
 70
     1
102
RTVSPropertyOp6
 70
     1
102
RTVSPropertyOp7
 70
     1
102
RTVSPropertyOp8
 70
     1
102
RTVSPropertyOp9
 70
     1
102
RTVSPropertyOp10
 70
     1
102
RTVSPropertyOp11
 70
     1
102
RTVSPropertyOp12
 70
     1
102
RTVSPropertyOp13
 70
     1
102
RTVSPropertyOp14
 70
     1
102
RTVSPropertyOp15
 70
     1
102
RTVSPropertyOp16
 70
     1
102
RTVSPropertyOp17
 70
     1
102
RTVSPropertyOp18
 70
     1
102
RTVSPropertyOp19
 70
     1
102
RTVSPropertyOp20
 70
     1
102
RTVSPropertyOp21
 70
     1
102
RTVSPropertyOp22
 70
     1
102
RTVSPropertyOp23
 70
     1
102
RTVSPropertyOp24
 70
     1
102
RTVSPropertyOp25
 70
     1
102
RTVSPropertyOp26
 70
     1
102
RTVSPropertyOp27
 70
     1
102
RTVSPropertyOp28
 70
     1
102
RTVSPropertyOp29
 70
     1
102
RTVSPropertyOp30
 70
     1
102
RTVSPropertyOp31
 70
     1
102
RTVSPropertyOp32
 70
     1
102
RTVSPropertyOp33
 70
     1
102
RTVSPropertyOp34
 70
     1
102
RTVSPropertyOp35
 70
     1
102
RTVSPropertyOp36
 70
     1
102
RTVSPropertyOp37
 70
     1
102
RTVSPropertyOp38
 70
     1
102
RTVSPropertyOp39
 70
     1
102
RTVSPropertyOp40
 70
     1
102
RTVSPropertyOp41
 70
     1
102
RTVSPropertyOp42
 70
     1
102
RTVSPropertyOp43
 70
     1
102
RTVSPropertyOp44
 70
     1
102
RTVSPropertyOp45
 70
     1
102
RTVSPropertyOp46
 70
     1
102
RTVSPropertyOp47
 70
     1
102
RTVSPropertyOp48
 70
     1
102
RTVSPropertyOp49
 70
     1
102
RTVSPropertyOp50
 70
     1
102
RTVSPropertyOp51
 70
     0
102
RTVSPropertyOp52
 70
     0
102
RTVSPropertyOp53
 70
     1
102
RTVSPropertyOp54
 70
     1
102
RTVSPropertyOp55
 70
     1
102
RTVSPropertyOp56
 70
     1
102
RTVSPropertyOp57
 70
     1
102
RTVSPropertyOp58
 70
     1
102
RTVSPropertyOp59
 70
     1
102
RTVSPropertyOp60
 70
     1
102
RTVSPropertyOp61
 70
     1
102
RTVSPropertyOp62
 70
     1
  0
XRECORD
  5
66C7
102
{ACAD_REACTORS
330
66C6
102
}
330
66C6
100
AcDbXrecord
280
     1
102
RTVSPost2010Prop28
280
     0
102
RTVSPost2010PropOp28
 70
     1
102
RTVSPost2010Prop29
280
     1
102
RTVSPost2010PropOp29
 70
     1
102
RTVSPost2010Prop30
280
     1
102
RTVSPost2010PropOp30
 70
     1
102
RTVSPost2010Prop31
280
     0
102
RTVSPost2010PropOp31
 70
     1
102
RTVSPost2010Prop32
280
     0
102
RTVSPost2010PropOp32
 70
     1
102
RTVSPost2010Prop33
280
     0
102
RTVSPost2010PropOp33
 70
     1
102
RTVSPost2010Prop34
280
     0
102
RTVSPost2010PropOp34
 70
     1
102
RTVSPost2010Prop35
280
     0
102
RTVSPost2010PropOp35
 70
     1
102
RTVSPost2010Prop36
280
     0
102
RTVSPost2010PropOp36
 70
     1
102
RTVSPost2010Prop37
 90
       50
102
RTVSPost2010PropOp37
 70
     1
102
RTVSPost2010Prop38
140
0.0
102
RTVSPost2010PropOp38
 70
     1
102
RTVSPost2010Prop39
140
1.0
102
RTVSPost2010PropOp39
 70
     1
102
RTVSPost2010Prop40
 90
        0
102
RTVSPost2010PropOp40
 70
     1
102
RTVSPost2010Prop41ColorIndex
 90
       18
102
RTVSPost2010Prop41ColorRGB
 90
        0
102
RTVSPost2010PropOp41
 70
     1
102
RTVSPost2010Prop42
 90
       50
102
RTVSPost2010PropOp42
 70
     1
102
RTVSPost2010Prop43
 90
        3
102
RTVSPost2010PropOp43
 70
     1
102
RTVSPost2010Prop44ColorIndex
 90
        5
102
RTVSPost2010Prop44ColorRGB
 90
      255
102
RTVSPost2010PropOp44
 70
     1
102
RTVSPost2010Prop45
280
     0
102
RTVSPost2010PropOp45
 70
     1
102
RTVSPost2010Prop46
 90
       50
102
RTVSPost2010PropOp46
 70
     1
102
RTVSPost2010Prop47
 90
       50
102
RTVSPost2010PropOp47
 70
     1
102
RTVSPost2010Prop48
 90
       50
102
RTVSPost2010PropOp48
 70
     1
102
RTVSPost2010Prop49
280
     0
102
RTVSPost2010PropOp49
 70
     1
102
RTVSPost2010Prop50
 90
       50
102
RTVSPost2010PropOp50
 70
     1
102
RTVSPost2010Prop51ColorIndex
 90
      256
102
RTVSPost2010Prop51ColorRGB
 90
-16777216
102
RTVSPost2010PropOp51
 70
     0
102
RTVSPost2010Prop52
140
1.0
102
RTVSPost2010PropOp52
 70
     0
102
RTVSPost2010Prop53
 90
        2
102
RTVSPost2010PropOp53
 70
     1
102
RTVSPost2010Prop54
  1
strokes_ogs.tif
102
RTVSPost2010PropOp54
 70
     1
102
RTVSPost2010Prop55
280
     0
102
RTVSPost2010PropOp55
 70
     1
102
RTVSPost2010Prop56
140
1.0
102
RTVSPost2010PropOp56
 70
     1
102
RTVSPost2010Prop57
140
1.0
102
RTVSPost2010PropOp57
 70
     1
102
RTVSPropertyOp0
 70
     1
102
RTVSPropertyOp1
 70
     1
102
RTVSPropertyOp2
 70
     1
102
RTVSPropertyOp3
 70
     1
102
RTVSPropertyOp4
 70
     1
102
RTVSPropertyOp5
 70
     1
102
RTVSPropertyOp6
 70
     1
102
RTVSPropertyOp7
 70
     1
102
RTVSPropertyOp8
 70
     1
102
RTVSPropertyOp9
 70
     1
102
RTVSPropertyOp10
 70
     1
102
RTVSPropertyOp11
 70
     1
102
RTVSPropertyOp12
 70
     1
102
RTVSPropertyOp13
 70
     1
102
RTVSPropertyOp14
 70
     1
102
RTVSPropertyOp15
 70
     1
102
RTVSPropertyOp16
 70
     1
102
RTVSPropertyOp17
 70
     1
102
RTVSPropertyOp18
 70
     1
102
RTVSPropertyOp19
 70
     1
102
RTVSPropertyOp20
 70
     1
102
RTVSPropertyOp21
 70
     1
102
RTVSPropertyOp22
 70
     1
102
RTVSPropertyOp23
 70
     1
102
RTVSPropertyOp24
 70
     1
102
RTVSPropertyOp25
 70
     1
102
RTVSPropertyOp26
 70
     1
102
RTVSPropertyOp27
 70
     1
102
RTVSPropertyOp28
 70
     1
102
RTVSPropertyOp29
 70
     1
102
RTVSPropertyOp30
 70
     1
102
RTVSPropertyOp31
 70
     1
102
RTVSPropertyOp32
 70
     1
102
RTVSPropertyOp33
 70
     1
102
RTVSPropertyOp34
 70
     1
102
RTVSPropertyOp35
 70
     1
102
RTVSPropertyOp36
 70
     1
102
RTVSPropertyOp37
 70
     1
102
RTVSPropertyOp38
 70
     1
102
RTVSPropertyOp39
 70
     1
102
RTVSPropertyOp40
 70
     1
102
RTVSPropertyOp41
 70
     1
102
RTVSPropertyOp42
 70
     1
102
RTVSPropertyOp43
 70
     1
102
RTVSPropertyOp44
 70
     1
102
RTVSPropertyOp45
 70
     1
102
RTVSPropertyOp46
 70
     1
102
RTVSPropertyOp47
 70
     1
102
RTVSPropertyOp48
 70
     1
102
RTVSPropertyOp49
 70
     1
102
RTVSPropertyOp50
 70
     1
102
RTVSPropertyOp51
 70
     0
102
RTVSPropertyOp52
 70
     0
102
RTVSPropertyOp53
 70
     1
102
RTVSPropertyOp54
 70
     1
102
RTVSPropertyOp55
 70
     1
102
RTVSPropertyOp56
 70
     1
102
RTVSPropertyOp57
 70
     1
102
RTVSPropertyOp58
 70
     1
102
RTVSPropertyOp59
 70
     1
102
RTVSPropertyOp60
 70
     1
102
RTVSPropertyOp61
 70
     1
102
RTVSPropertyOp62
 70
     1
  0
XRECORD
  5
66C9
102
{ACAD_REACTORS
330
66C8
102
}
330
66C8
100
AcDbXrecord
280
     1
102
RTVSPost2010Prop28
280
     0
102
RTVSPost2010PropOp28
 70
     1
102
RTVSPost2010Prop29
280
     1
102
RTVSPost2010PropOp29
 70
     1
102
RTVSPost2010Prop30
280
     1
102
RTVSPost2010PropOp30
 70
     1
102
RTVSPost2010Prop31
280
     0
102
RTVSPost2010PropOp31
 70
     1
102
RTVSPost2010Prop32
280
     0
102
RTVSPost2010PropOp32
 70
     1
102
RTVSPost2010Prop33
280
     0
102
RTVSPost2010PropOp33
 70
     1
102
RTVSPost2010Prop34
280
     0
102
RTVSPost2010PropOp34
 70
     1
102
RTVSPost2010Prop35
280
     0
102
RTVSPost2010PropOp35
 70
     1
102
RTVSPost2010Prop36
280
     0
102
RTVSPost2010PropOp36
 70
     1
102
RTVSPost2010Prop37
 90
       50
102
RTVSPost2010PropOp37
 70
     1
102
RTVSPost2010Prop38
140
0.0
102
RTVSPost2010PropOp38
 70
     1
102
RTVSPost2010Prop39
140
1.0
102
RTVSPost2010PropOp39
 70
     1
102
RTVSPost2010Prop40
 90
        0
102
RTVSPost2010PropOp40
 70
     1
102
RTVSPost2010Prop41ColorIndex
 90
       18
102
RTVSPost2010Prop41ColorRGB
 90
        0
102
RTVSPost2010PropOp41
 70
     1
102
RTVSPost2010Prop42
 90
       50
102
RTVSPost2010PropOp42
 70
     1
102
RTVSPost2010Prop43
 90
        3
102
RTVSPost2010PropOp43
 70
     1
102
RTVSPost2010Prop44ColorIndex
 90
        5
102
RTVSPost2010Prop44ColorRGB
 90
      255
102
RTVSPost2010PropOp44
 70
     1
102
RTVSPost2010Prop45
280
     0
102
RTVSPost2010PropOp45
 70
     1
102
RTVSPost2010Prop46
 90
       50
102
RTVSPost2010PropOp46
 70
     1
102
RTVSPost2010Prop47
 90
       50
102
RTVSPost2010PropOp47
 70
     1
102
RTVSPost2010Prop48
 90
       50
102
RTVSPost2010PropOp48
 70
     1
102
RTVSPost2010Prop49
280
     0
102
RTVSPost2010PropOp49
 70
     1
102
RTVSPost2010Prop50
 90
       50
102
RTVSPost2010PropOp50
 70
     1
102
RTVSPost2010Prop51ColorIndex
 90
      256
102
RTVSPost2010Prop51ColorRGB
 90
-16777216
102
RTVSPost2010PropOp51
 70
     0
102
RTVSPost2010Prop52
140
1.0
102
RTVSPost2010PropOp52
 70
     0
102
RTVSPost2010Prop53
 90
        2
102
RTVSPost2010PropOp53
 70
     1
102
RTVSPost2010Prop54
  1
strokes_ogs.tif
102
RTVSPost2010PropOp54
 70
     1
102
RTVSPost2010Prop55
280
     0
102
RTVSPost2010PropOp55
 70
     1
102
RTVSPost2010Prop56
140
1.0
102
RTVSPost2010PropOp56
 70
     1
102
RTVSPost2010Prop57
140
1.0
102
RTVSPost2010PropOp57
 70
     1
102
RTVSPropertyOp0
 70
     1
102
RTVSPropertyOp1
 70
     1
102
RTVSPropertyOp2
 70
     1
102
RTVSPropertyOp3
 70
     1
102
RTVSPropertyOp4
 70
     1
102
RTVSPropertyOp5
 70
     1
102
RTVSPropertyOp6
 70
     1
102
RTVSPropertyOp7
 70
     1
102
RTVSPropertyOp8
 70
     1
102
RTVSPropertyOp9
 70
     1
102
RTVSPropertyOp10
 70
     1
102
RTVSPropertyOp11
 70
     1
102
RTVSPropertyOp12
 70
     1
102
RTVSPropertyOp13
 70
     1
102
RTVSPropertyOp14
 70
     1
102
RTVSPropertyOp15
 70
     1
102
RTVSPropertyOp16
 70
     1
102
RTVSPropertyOp17
 70
     1
102
RTVSPropertyOp18
 70
     1
102
RTVSPropertyOp19
 70
     1
102
RTVSPropertyOp20
 70
     1
102
RTVSPropertyOp21
 70
     1
102
RTVSPropertyOp22
 70
     1
102
RTVSPropertyOp23
 70
     1
102
RTVSPropertyOp24
 70
     1
102
RTVSPropertyOp25
 70
     1
102
RTVSPropertyOp26
 70
     1
102
RTVSPropertyOp27
 70
     1
102
RTVSPropertyOp28
 70
     1
102
RTVSPropertyOp29
 70
     1
102
RTVSPropertyOp30
 70
     1
102
RTVSPropertyOp31
 70
     1
102
RTVSPropertyOp32
 70
     1
102
RTVSPropertyOp33
 70
     1
102
RTVSPropertyOp34
 70
     1
102
RTVSPropertyOp35
 70
     1
102
RTVSPropertyOp36
 70
     1
102
RTVSPropertyOp37
 70
     1
102
RTVSPropertyOp38
 70
     1
102
RTVSPropertyOp39
 70
     1
102
RTVSPropertyOp40
 70
     1
102
RTVSPropertyOp41
 70
     1
102
RTVSPropertyOp42
 70
     1
102
RTVSPropertyOp43
 70
     1
102
RTVSPropertyOp44
 70
     1
102
RTVSPropertyOp45
 70
     1
102
RTVSPropertyOp46
 70
     1
102
RTVSPropertyOp47
 70
     1
102
RTVSPropertyOp48
 70
     1
102
RTVSPropertyOp49
 70
     1
102
RTVSPropertyOp50
 70
     1
102
RTVSPropertyOp51
 70
     0
102
RTVSPropertyOp52
 70
     0
102
RTVSPropertyOp53
 70
     1
102
RTVSPropertyOp54
 70
     1
102
RTVSPropertyOp55
 70
     1
102
RTVSPropertyOp56
 70
     1
102
RTVSPropertyOp57
 70
     1
102
RTVSPropertyOp58
 70
     1
102
RTVSPropertyOp59
 70
     1
102
RTVSPropertyOp60
 70
     1
102
RTVSPropertyOp61
 70
     1
102
RTVSPropertyOp62
 70
     1
  0
XRECORD
  5
66CB
102
{ACAD_REACTORS
330
66CA
102
}
330
66CA
100
AcDbXrecord
280
     1
102
RTVSPost2010Prop28
280
     0
102
RTVSPost2010PropOp28
 70
     1
102
RTVSPost2010Prop29
280
     1
102
RTVSPost2010PropOp29
 70
     1
102
RTVSPost2010Prop30
280
     1
102
RTVSPost2010PropOp30
 70
     1
102
RTVSPost2010Prop31
280
     0
102
RTVSPost2010PropOp31
 70
     1
102
RTVSPost2010Prop32
280
     0
102
RTVSPost2010PropOp32
 70
     1
102
RTVSPost2010Prop33
280
     0
102
RTVSPost2010PropOp33
 70
     1
102
RTVSPost2010Prop34
280
     0
102
RTVSPost2010PropOp34
 70
     1
102
RTVSPost2010Prop35
280
     0
102
RTVSPost2010PropOp35
 70
     1
102
RTVSPost2010Prop36
280
     0
102
RTVSPost2010PropOp36
 70
     1
102
RTVSPost2010Prop37
 90
       50
102
RTVSPost2010PropOp37
 70
     1
102
RTVSPost2010Prop38
140
0.0
102
RTVSPost2010PropOp38
 70
     1
102
RTVSPost2010Prop39
140
1.0
102
RTVSPost2010PropOp39
 70
     1
102
RTVSPost2010Prop40
 90
        0
102
RTVSPost2010PropOp40
 70
     1
102
RTVSPost2010Prop41ColorIndex
 90
       18
102
RTVSPost2010Prop41ColorRGB
 90
        0
102
RTVSPost2010PropOp41
 70
     1
102
RTVSPost2010Prop42
 90
       50
102
RTVSPost2010PropOp42
 70
     1
102
RTVSPost2010Prop43
 90
        3
102
RTVSPost2010PropOp43
 70
     1
102
RTVSPost2010Prop44ColorIndex
 90
        5
102
RTVSPost2010Prop44ColorRGB
 90
      255
102
RTVSPost2010PropOp44
 70
     1
102
RTVSPost2010Prop45
280
     0
102
RTVSPost2010PropOp45
 70
     1
102
RTVSPost2010Prop46
 90
       50
102
RTVSPost2010PropOp46
 70
     1
102
RTVSPost2010Prop47
 90
       50
102
RTVSPost2010PropOp47
 70
     1
102
RTVSPost2010Prop48
 90
       50
102
RTVSPost2010PropOp48
 70
     1
102
RTVSPost2010Prop49
280
     0
102
RTVSPost2010PropOp49
 70
     1
102
RTVSPost2010Prop50
 90
       50
102
RTVSPost2010PropOp50
 70
     1
102
RTVSPost2010Prop51ColorIndex
 90
      256
102
RTVSPost2010Prop51ColorRGB
 90
-16777216
102
RTVSPost2010PropOp51
 70
     0
102
RTVSPost2010Prop52
140
1.0
102
RTVSPost2010PropOp52
 70
     0
102
RTVSPost2010Prop53
 90
        2
102
RTVSPost2010PropOp53
 70
     1
102
RTVSPost2010Prop54
  1
strokes_ogs.tif
102
RTVSPost2010PropOp54
 70
     1
102
RTVSPost2010Prop55
280
     0
102
RTVSPost2010PropOp55
 70
     1
102
RTVSPost2010Prop56
140
1.0
102
RTVSPost2010PropOp56
 70
     1
102
RTVSPost2010Prop57
140
1.0
102
RTVSPost2010PropOp57
 70
     1
102
RTVSPropertyOp0
 70
     1
102
RTVSPropertyOp1
 70
     1
102
RTVSPropertyOp2
 70
     1
102
RTVSPropertyOp3
 70
     1
102
RTVSPropertyOp4
 70
     1
102
RTVSPropertyOp5
 70
     1
102
RTVSPropertyOp6
 70
     1
102
RTVSPropertyOp7
 70
     1
102
RTVSPropertyOp8
 70
     1
102
RTVSPropertyOp9
 70
     1
102
RTVSPropertyOp10
 70
     1
102
RTVSPropertyOp11
 70
     1
102
RTVSPropertyOp12
 70
     1
102
RTVSPropertyOp13
 70
     1
102
RTVSPropertyOp14
 70
     1
102
RTVSPropertyOp15
 70
     1
102
RTVSPropertyOp16
 70
     1
102
RTVSPropertyOp17
 70
     1
102
RTVSPropertyOp18
 70
     1
102
RTVSPropertyOp19
 70
     1
102
RTVSPropertyOp20
 70
     1
102
RTVSPropertyOp21
 70
     1
102
RTVSPropertyOp22
 70
     1
102
RTVSPropertyOp23
 70
     1
102
RTVSPropertyOp24
 70
     1
102
RTVSPropertyOp25
 70
     1
102
RTVSPropertyOp26
 70
     1
102
RTVSPropertyOp27
 70
     1
102
RTVSPropertyOp28
 70
     1
102
RTVSPropertyOp29
 70
     1
102
RTVSPropertyOp30
 70
     1
102
RTVSPropertyOp31
 70
     1
102
RTVSPropertyOp32
 70
     1
102
RTVSPropertyOp33
 70
     1
102
RTVSPropertyOp34
 70
     1
102
RTVSPropertyOp35
 70
     1
102
RTVSPropertyOp36
 70
     1
102
RTVSPropertyOp37
 70
     1
102
RTVSPropertyOp38
 70
     1
102
RTVSPropertyOp39
 70
     1
102
RTVSPropertyOp40
 70
     1
102
RTVSPropertyOp41
 70
     1
102
RTVSPropertyOp42
 70
     1
102
RTVSPropertyOp43
 70
     1
102
RTVSPropertyOp44
 70
     1
102
RTVSPropertyOp45
 70
     1
102
RTVSPropertyOp46
 70
     1
102
RTVSPropertyOp47
 70
     1
102
RTVSPropertyOp48
 70
     1
102
RTVSPropertyOp49
 70
     1
102
RTVSPropertyOp50
 70
     1
102
RTVSPropertyOp51
 70
     0
102
RTVSPropertyOp52
 70
     0
102
RTVSPropertyOp53
 70
     1
102
RTVSPropertyOp54
 70
     1
102
RTVSPropertyOp55
 70
     1
102
RTVSPropertyOp56
 70
     1
102
RTVSPropertyOp57
 70
     1
102
RTVSPropertyOp58
 70
     1
102
RTVSPropertyOp59
 70
     1
102
RTVSPropertyOp60
 70
     1
102
RTVSPropertyOp61
 70
     1
102
RTVSPropertyOp62
 70
     1
  0
XRECORD
  5
66CD
102
{ACAD_REACTORS
330
66CC
102
}
330
66CC
100
AcDbXrecord
280
     1
102
RTVSPost2010Prop28
280
     0
102
RTVSPost2010PropOp28
 70
     1
102
RTVSPost2010Prop29
280
     1
102
RTVSPost2010PropOp29
 70
     1
102
RTVSPost2010Prop30
280
     1
102
RTVSPost2010PropOp30
 70
     1
102
RTVSPost2010Prop31
280
     0
102
RTVSPost2010PropOp31
 70
     1
102
RTVSPost2010Prop32
280
     0
102
RTVSPost2010PropOp32
 70
     1
102
RTVSPost2010Prop33
280
     0
102
RTVSPost2010PropOp33
 70
     1
102
RTVSPost2010Prop34
280
     0
102
RTVSPost2010PropOp34
 70
     1
102
RTVSPost2010Prop35
280
     0
102
RTVSPost2010PropOp35
 70
     1
102
RTVSPost2010Prop36
280
     0
102
RTVSPost2010PropOp36
 70
     1
102
RTVSPost2010Prop37
 90
       50
102
RTVSPost2010PropOp37
 70
     1
102
RTVSPost2010Prop38
140
0.0
102
RTVSPost2010PropOp38
 70
     1
102
RTVSPost2010Prop39
140
1.0
102
RTVSPost2010PropOp39
 70
     1
102
RTVSPost2010Prop40
 90
        0
102
RTVSPost2010PropOp40
 70
     1
102
RTVSPost2010Prop41ColorIndex
 90
       18
102
RTVSPost2010Prop41ColorRGB
 90
        0
102
RTVSPost2010PropOp41
 70
     1
102
RTVSPost2010Prop42
 90
       50
102
RTVSPost2010PropOp42
 70
     1
102
RTVSPost2010Prop43
 90
        3
102
RTVSPost2010PropOp43
 70
     1
102
RTVSPost2010Prop44ColorIndex
 90
        5
102
RTVSPost2010Prop44ColorRGB
 90
      255
102
RTVSPost2010PropOp44
 70
     1
102
RTVSPost2010Prop45
280
     0
102
RTVSPost2010PropOp45
 70
     1
102
RTVSPost2010Prop46
 90
       50
102
RTVSPost2010PropOp46
 70
     1
102
RTVSPost2010Prop47
 90
       50
102
RTVSPost2010PropOp47
 70
     1
102
RTVSPost2010Prop48
 90
       50
102
RTVSPost2010PropOp48
 70
     1
102
RTVSPost2010Prop49
280
     0
102
RTVSPost2010PropOp49
 70
     1
102
RTVSPost2010Prop50
 90
       50
102
RTVSPost2010PropOp50
 70
     1
102
RTVSPost2010Prop51ColorIndex
 90
      256
102
RTVSPost2010Prop51ColorRGB
 90
-16777216
102
RTVSPost2010PropOp51
 70
     0
102
RTVSPost2010Prop52
140
1.0
102
RTVSPost2010PropOp52
 70
     0
102
RTVSPost2010Prop53
 90
        2
102
RTVSPost2010PropOp53
 70
     1
102
RTVSPost2010Prop54
  1
strokes_ogs.tif
102
RTVSPost2010PropOp54
 70
     1
102
RTVSPost2010Prop55
280
     0
102
RTVSPost2010PropOp55
 70
     1
102
RTVSPost2010Prop56
140
1.0
102
RTVSPost2010PropOp56
 70
     1
102
RTVSPost2010Prop57
140
1.0
102
RTVSPost2010PropOp57
 70
     1
102
RTVSPropertyOp0
 70
     1
102
RTVSPropertyOp1
 70
     1
102
RTVSPropertyOp2
 70
     1
102
RTVSPropertyOp3
 70
     1
102
RTVSPropertyOp4
 70
     1
102
RTVSPropertyOp5
 70
     1
102
RTVSPropertyOp6
 70
     1
102
RTVSPropertyOp7
 70
     1
102
RTVSPropertyOp8
 70
     1
102
RTVSPropertyOp9
 70
     1
102
RTVSPropertyOp10
 70
     1
102
RTVSPropertyOp11
 70
     1
102
RTVSPropertyOp12
 70
     1
102
RTVSPropertyOp13
 70
     1
102
RTVSPropertyOp14
 70
     1
102
RTVSPropertyOp15
 70
     1
102
RTVSPropertyOp16
 70
     1
102
RTVSPropertyOp17
 70
     1
102
RTVSPropertyOp18
 70
     1
102
RTVSPropertyOp19
 70
     1
102
RTVSPropertyOp20
 70
     1
102
RTVSPropertyOp21
 70
     1
102
RTVSPropertyOp22
 70
     1
102
RTVSPropertyOp23
 70
     1
102
RTVSPropertyOp24
 70
     1
102
RTVSPropertyOp25
 70
     1
102
RTVSPropertyOp26
 70
     1
102
RTVSPropertyOp27
 70
     1
102
RTVSPropertyOp28
 70
     1
102
RTVSPropertyOp29
 70
     1
102
RTVSPropertyOp30
 70
     1
102
RTVSPropertyOp31
 70
     1
102
RTVSPropertyOp32
 70
     1
102
RTVSPropertyOp33
 70
     1
102
RTVSPropertyOp34
 70
     1
102
RTVSPropertyOp35
 70
     1
102
RTVSPropertyOp36
 70
     1
102
RTVSPropertyOp37
 70
     1
102
RTVSPropertyOp38
 70
     1
102
RTVSPropertyOp39
 70
     1
102
RTVSPropertyOp40
 70
     1
102
RTVSPropertyOp41
 70
     1
102
RTVSPropertyOp42
 70
     1
102
RTVSPropertyOp43
 70
     1
102
RTVSPropertyOp44
 70
     1
102
RTVSPropertyOp45
 70
     1
102
RTVSPropertyOp46
 70
     1
102
RTVSPropertyOp47
 70
     1
102
RTVSPropertyOp48
 70
     1
102
RTVSPropertyOp49
 70
     1
102
RTVSPropertyOp50
 70
     1
102
RTVSPropertyOp51
 70
     0
102
RTVSPropertyOp52
 70
     0
102
RTVSPropertyOp53
 70
     1
102
RTVSPropertyOp54
 70
     1
102
RTVSPropertyOp55
 70
     1
102
RTVSPropertyOp56
 70
     1
102
RTVSPropertyOp57
 70
     1
102
RTVSPropertyOp58
 70
     1
102
RTVSPropertyOp59
 70
     1
102
RTVSPropertyOp60
 70
     1
102
RTVSPropertyOp61
 70
     1
102
RTVSPropertyOp62
 70
     1
  0
XRECORD
  5
66D5
102
{ACAD_REACTORS
330
66D4
102
}
330
66D4
100
AcDbXrecord
280
     1
102
RTVSPost2010Prop28
280
     0
102
RTVSPost2010PropOp28
 70
     1
102
RTVSPost2010Prop29
280
     1
102
RTVSPost2010PropOp29
 70
     1
102
RTVSPost2010Prop30
280
     1
102
RTVSPost2010PropOp30
 70
     1
102
RTVSPost2010Prop31
280
     0
102
RTVSPost2010PropOp31
 70
     1
102
RTVSPost2010Prop32
280
     0
102
RTVSPost2010PropOp32
 70
     1
102
RTVSPost2010Prop33
280
     0
102
RTVSPost2010PropOp33
 70
     1
102
RTVSPost2010Prop34
280
     0
102
RTVSPost2010PropOp34
 70
     1
102
RTVSPost2010Prop35
280
     0
102
RTVSPost2010PropOp35
 70
     1
102
RTVSPost2010Prop36
280
     0
102
RTVSPost2010PropOp36
 70
     1
102
RTVSPost2010Prop37
 90
       50
102
RTVSPost2010PropOp37
 70
     1
102
RTVSPost2010Prop38
140
0.0
102
RTVSPost2010PropOp38
 70
     1
102
RTVSPost2010Prop39
140
1.0
102
RTVSPost2010PropOp39
 70
     1
102
RTVSPost2010Prop40
 90
        0
102
RTVSPost2010PropOp40
 70
     1
102
RTVSPost2010Prop41ColorIndex
 90
       18
102
RTVSPost2010Prop41ColorRGB
 90
        0
102
RTVSPost2010PropOp41
 70
     1
102
RTVSPost2010Prop42
 90
       50
102
RTVSPost2010PropOp42
 70
     1
102
RTVSPost2010Prop43
 90
        3
102
RTVSPost2010PropOp43
 70
     1
102
RTVSPost2010Prop44ColorIndex
 90
        5
102
RTVSPost2010Prop44ColorRGB
 90
      255
102
RTVSPost2010PropOp44
 70
     1
102
RTVSPost2010Prop45
280
     0
102
RTVSPost2010PropOp45
 70
     1
102
RTVSPost2010Prop46
 90
       50
102
RTVSPost2010PropOp46
 70
     1
102
RTVSPost2010Prop47
 90
       50
102
RTVSPost2010PropOp47
 70
     1
102
RTVSPost2010Prop48
 90
       50
102
RTVSPost2010PropOp48
 70
     1
102
RTVSPost2010Prop49
280
     0
102
RTVSPost2010PropOp49
 70
     1
102
RTVSPost2010Prop50
 90
       50
102
RTVSPost2010PropOp50
 70
     1
102
RTVSPost2010Prop51ColorIndex
 90
      256
102
RTVSPost2010Prop51ColorRGB
 90
-16777216
102
RTVSPost2010PropOp51
 70
     0
102
RTVSPost2010Prop52
140
1.0
102
RTVSPost2010PropOp52
 70
     0
102
RTVSPost2010Prop53
 90
        2
102
RTVSPost2010PropOp53
 70
     1
102
RTVSPost2010Prop54
  1
strokes_ogs.tif
102
RTVSPost2010PropOp54
 70
     1
102
RTVSPost2010Prop55
280
     0
102
RTVSPost2010PropOp55
 70
     1
102
RTVSPost2010Prop56
140
1.0
102
RTVSPost2010PropOp56
 70
     1
102
RTVSPost2010Prop57
140
1.0
102
RTVSPost2010PropOp57
 70
     1
102
RTVSPropertyOp0
 70
     1
102
RTVSPropertyOp1
 70
     1
102
RTVSPropertyOp2
 70
     1
102
RTVSPropertyOp3
 70
     1
102
RTVSPropertyOp4
 70
     1
102
RTVSPropertyOp5
 70
     1
102
RTVSPropertyOp6
 70
     1
102
RTVSPropertyOp7
 70
     1
102
RTVSPropertyOp8
 70
     1
102
RTVSPropertyOp9
 70
     1
102
RTVSPropertyOp10
 70
     1
102
RTVSPropertyOp11
 70
     1
102
RTVSPropertyOp12
 70
     1
102
RTVSPropertyOp13
 70
     1
102
RTVSPropertyOp14
 70
     1
102
RTVSPropertyOp15
 70
     1
102
RTVSPropertyOp16
 70
     1
102
RTVSPropertyOp17
 70
     1
102
RTVSPropertyOp18
 70
     1
102
RTVSPropertyOp19
 70
     1
102
RTVSPropertyOp20
 70
     1
102
RTVSPropertyOp21
 70
     1
102
RTVSPropertyOp22
 70
     1
102
RTVSPropertyOp23
 70
     1
102
RTVSPropertyOp24
 70
     1
102
RTVSPropertyOp25
 70
     1
102
RTVSPropertyOp26
 70
     1
102
RTVSPropertyOp27
 70
     1
102
RTVSPropertyOp28
 70
     1
102
RTVSPropertyOp29
 70
     1
102
RTVSPropertyOp30
 70
     1
102
RTVSPropertyOp31
 70
     1
102
RTVSPropertyOp32
 70
     1
102
RTVSPropertyOp33
 70
     1
102
RTVSPropertyOp34
 70
     1
102
RTVSPropertyOp35
 70
     1
102
RTVSPropertyOp36
 70
     1
102
RTVSPropertyOp37
 70
     1
102
RTVSPropertyOp38
 70
     1
102
RTVSPropertyOp39
 70
     1
102
RTVSPropertyOp40
 70
     1
102
RTVSPropertyOp41
 70
     1
102
RTVSPropertyOp42
 70
     1
102
RTVSPropertyOp43
 70
     1
102
RTVSPropertyOp44
 70
     1
102
RTVSPropertyOp45
 70
     1
102
RTVSPropertyOp46
 70
     1
102
RTVSPropertyOp47
 70
     1
102
RTVSPropertyOp48
 70
     1
102
RTVSPropertyOp49
 70
     1
102
RTVSPropertyOp50
 70
     1
102
RTVSPropertyOp51
 70
     0
102
RTVSPropertyOp52
 70
     0
102
RTVSPropertyOp53
 70
     1
102
RTVSPropertyOp54
 70
     1
102
RTVSPropertyOp55
 70
     1
102
RTVSPropertyOp56
 70
     1
102
RTVSPropertyOp57
 70
     1
102
RTVSPropertyOp58
 70
     1
102
RTVSPropertyOp59
 70
     1
102
RTVSPropertyOp60
 70
     1
102
RTVSPropertyOp61
 70
     1
102
RTVSPropertyOp62
 70
     1
  0
XRECORD
  5
66E9
102
{ACAD_REACTORS
330
66E8
102
}
330
66E8
100
AcDbXrecord
280
     1
102
RTVSPost2010Prop28
280
     0
102
RTVSPost2010PropOp28
 70
     1
102
RTVSPost2010Prop29
280
     1
102
RTVSPost2010PropOp29
 70
     1
102
RTVSPost2010Prop30
280
     1
102
RTVSPost2010PropOp30
 70
     1
102
RTVSPost2010Prop31
280
     0
102
RTVSPost2010PropOp31
 70
     1
102
RTVSPost2010Prop32
280
     0
102
RTVSPost2010PropOp32
 70
     1
102
RTVSPost2010Prop33
280
     0
102
RTVSPost2010PropOp33
 70
     1
102
RTVSPost2010Prop34
280
     0
102
RTVSPost2010PropOp34
 70
     1
102
RTVSPost2010Prop35
280
     0
102
RTVSPost2010PropOp35
 70
     1
102
RTVSPost2010Prop36
280
     0
102
RTVSPost2010PropOp36
 70
     1
102
RTVSPost2010Prop37
 90
       50
102
RTVSPost2010PropOp37
 70
     1
102
RTVSPost2010Prop38
140
0.0
102
RTVSPost2010PropOp38
 70
     1
102
RTVSPost2010Prop39
140
1.0
102
RTVSPost2010PropOp39
 70
     1
102
RTVSPost2010Prop40
 90
        0
102
RTVSPost2010PropOp40
 70
     1
102
RTVSPost2010Prop41ColorIndex
 90
       18
102
RTVSPost2010Prop41ColorRGB
 90
        0
102
RTVSPost2010PropOp41
 70
     1
102
RTVSPost2010Prop42
 90
       50
102
RTVSPost2010PropOp42
 70
     1
102
RTVSPost2010Prop43
 90
        3
102
RTVSPost2010PropOp43
 70
     1
102
RTVSPost2010Prop44ColorIndex
 90
        5
102
RTVSPost2010Prop44ColorRGB
 90
      255
102
RTVSPost2010PropOp44
 70
     1
102
RTVSPost2010Prop45
280
     0
102
RTVSPost2010PropOp45
 70
     1
102
RTVSPost2010Prop46
 90
       50
102
RTVSPost2010PropOp46
 70
     1
102
RTVSPost2010Prop47
 90
       50
102
RTVSPost2010PropOp47
 70
     1
102
RTVSPost2010Prop48
 90
       50
102
RTVSPost2010PropOp48
 70
     1
102
RTVSPost2010Prop49
280
     0
102
RTVSPost2010PropOp49
 70
     1
102
RTVSPost2010Prop50
 90
       50
102
RTVSPost2010PropOp50
 70
     1
102
RTVSPost2010Prop51ColorIndex
 90
      256
102
RTVSPost2010Prop51ColorRGB
 90
-16777216
102
RTVSPost2010PropOp51
 70
     0
102
RTVSPost2010Prop52
140
1.0
102
RTVSPost2010PropOp52
 70
     0
102
RTVSPost2010Prop53
 90
        2
102
RTVSPost2010PropOp53
 70
     1
102
RTVSPost2010Prop54
  1
strokes_ogs.tif
102
RTVSPost2010PropOp54
 70
     1
102
RTVSPost2010Prop55
280
     0
102
RTVSPost2010PropOp55
 70
     1
102
RTVSPost2010Prop56
140
1.0
102
RTVSPost2010PropOp56
 70
     1
102
RTVSPost2010Prop57
140
1.0
102
RTVSPost2010PropOp57
 70
     1
102
RTVSPropertyOp0
 70
     0
102
RTVSPropertyOp1
 70
     0
102
RTVSPropertyOp2
 70
     0
102
RTVSPropertyOp3
 70
     0
102
RTVSPropertyOp4
 70
     0
102
RTVSPropertyOp5
 70
     0
102
RTVSPropertyOp6
 70
     0
102
RTVSPropertyOp7
 70
     0
102
RTVSPropertyOp8
 70
     0
102
RTVSPropertyOp9
 70
     0
102
RTVSPropertyOp10
 70
     0
102
RTVSPropertyOp11
 70
     0
102
RTVSPropertyOp12
 70
     0
102
RTVSPropertyOp13
 70
     0
102
RTVSPropertyOp14
 70
     2
102
RTVSPropertyOp15
 70
     0
102
RTVSPropertyOp16
 70
     0
102
RTVSPropertyOp17
 70
     0
102
RTVSPropertyOp18
 70
     0
102
RTVSPropertyOp19
 70
     0
102
RTVSPropertyOp20
 70
     0
102
RTVSPropertyOp21
 70
     0
102
RTVSPropertyOp22
 70
     0
102
RTVSPropertyOp23
 70
     0
102
RTVSPropertyOp24
 70
     0
102
RTVSPropertyOp25
 70
     0
102
RTVSPropertyOp26
 70
     0
102
RTVSPropertyOp27
 70
     0
102
RTVSPropertyOp28
 70
     1
102
RTVSPropertyOp29
 70
     1
102
RTVSPropertyOp30
 70
     1
102
RTVSPropertyOp31
 70
     1
102
RTVSPropertyOp32
 70
     1
102
RTVSPropertyOp33
 70
     1
102
RTVSPropertyOp34
 70
     1
102
RTVSPropertyOp35
 70
     1
102
RTVSPropertyOp36
 70
     1
102
RTVSPropertyOp37
 70
     1
102
RTVSPropertyOp38
 70
     1
102
RTVSPropertyOp39
 70
     1
102
RTVSPropertyOp40
 70
     1
102
RTVSPropertyOp41
 70
     1
102
RTVSPropertyOp42
 70
     1
102
RTVSPropertyOp43
 70
     1
102
RTVSPropertyOp44
 70
     1
102
RTVSPropertyOp45
 70
     1
102
RTVSPropertyOp46
 70
     1
102
RTVSPropertyOp47
 70
     1
102
RTVSPropertyOp48
 70
     1
102
RTVSPropertyOp49
 70
     1
102
RTVSPropertyOp50
 70
     1
102
RTVSPropertyOp51
 70
     0
102
RTVSPropertyOp52
 70
     0
102
RTVSPropertyOp53
 70
     1
102
RTVSPropertyOp54
 70
     1
102
RTVSPropertyOp55
 70
     1
102
RTVSPropertyOp56
 70
     1
102
RTVSPropertyOp57
 70
     1
102
RTVSPropertyOp58
 70
     1
102
RTVSPropertyOp59
 70
     1
102
RTVSPropertyOp60
 70
     1
102
RTVSPropertyOp61
 70
     1
102
RTVSPropertyOp62
 70
     1
  0
XRECORD
  5
66E1
102
{ACAD_REACTORS
330
66E0
102
}
330
66E0
100
AcDbXrecord
280
     1
102
RTVSPost2010Prop28
280
     0
102
RTVSPost2010PropOp28
 70
     1
102
RTVSPost2010Prop29
280
     1
102
RTVSPost2010PropOp29
 70
     1
102
RTVSPost2010Prop30
280
     1
102
RTVSPost2010PropOp30
 70
     1
102
RTVSPost2010Prop31
280
     0
102
RTVSPost2010PropOp31
 70
     1
102
RTVSPost2010Prop32
280
     0
102
RTVSPost2010PropOp32
 70
     1
102
RTVSPost2010Prop33
280
     0
102
RTVSPost2010PropOp33
 70
     1
102
RTVSPost2010Prop34
280
     0
102
RTVSPost2010PropOp34
 70
     1
102
RTVSPost2010Prop35
280
     0
102
RTVSPost2010PropOp35
 70
     1
102
RTVSPost2010Prop36
280
     0
102
RTVSPost2010PropOp36
 70
     1
102
RTVSPost2010Prop37
 90
       50
102
RTVSPost2010PropOp37
 70
     1
102
RTVSPost2010Prop38
140
0.0
102
RTVSPost2010PropOp38
 70
     1
102
RTVSPost2010Prop39
140
1.0
102
RTVSPost2010PropOp39
 70
     1
102
RTVSPost2010Prop40
 90
        0
102
RTVSPost2010PropOp40
 70
     1
102
RTVSPost2010Prop41ColorIndex
 90
       18
102
RTVSPost2010Prop41ColorRGB
 90
        0
102
RTVSPost2010PropOp41
 70
     1
102
RTVSPost2010Prop42
 90
       50
102
RTVSPost2010PropOp42
 70
     1
102
RTVSPost2010Prop43
 90
        3
102
RTVSPost2010PropOp43
 70
     1
102
RTVSPost2010Prop44ColorIndex
 90
        5
102
RTVSPost2010Prop44ColorRGB
 90
      255
102
RTVSPost2010PropOp44
 70
     1
102
RTVSPost2010Prop45
280
     0
102
RTVSPost2010PropOp45
 70
     1
102
RTVSPost2010Prop46
 90
       50
102
RTVSPost2010PropOp46
 70
     1
102
RTVSPost2010Prop47
 90
       50
102
RTVSPost2010PropOp47
 70
     1
102
RTVSPost2010Prop48
 90
       50
102
RTVSPost2010PropOp48
 70
     1
102
RTVSPost2010Prop49
280
     0
102
RTVSPost2010PropOp49
 70
     1
102
RTVSPost2010Prop50
 90
       50
102
RTVSPost2010PropOp50
 70
     1
102
RTVSPost2010Prop51ColorIndex
 90
      256
102
RTVSPost2010Prop51ColorRGB
 90
-16777216
102
RTVSPost2010PropOp51
 70
     0
102
RTVSPost2010Prop52
140
1.0
102
RTVSPost2010PropOp52
 70
     0
102
RTVSPost2010Prop53
 90
        2
102
RTVSPost2010PropOp53
 70
     1
102
RTVSPost2010Prop54
  1
strokes_ogs.tif
102
RTVSPost2010PropOp54
 70
     1
102
RTVSPost2010Prop55
280
     0
102
RTVSPost2010PropOp55
 70
     1
102
RTVSPost2010Prop56
140
1.0
102
RTVSPost2010PropOp56
 70
     1
102
RTVSPost2010Prop57
140
1.0
102
RTVSPost2010PropOp57
 70
     1
102
RTVSPropertyOp0
 70
     1
102
RTVSPropertyOp1
 70
     1
102
RTVSPropertyOp2
 70
     1
102
RTVSPropertyOp3
 70
     1
102
RTVSPropertyOp4
 70
     1
102
RTVSPropertyOp5
 70
     1
102
RTVSPropertyOp6
 70
     1
102
RTVSPropertyOp7
 70
     1
102
RTVSPropertyOp8
 70
     1
102
RTVSPropertyOp9
 70
     1
102
RTVSPropertyOp10
 70
     1
102
RTVSPropertyOp11
 70
     1
102
RTVSPropertyOp12
 70
     1
102
RTVSPropertyOp13
 70
     1
102
RTVSPropertyOp14
 70
     1
102
RTVSPropertyOp15
 70
     1
102
RTVSPropertyOp16
 70
     1
102
RTVSPropertyOp17
 70
     1
102
RTVSPropertyOp18
 70
     1
102
RTVSPropertyOp19
 70
     1
102
RTVSPropertyOp20
 70
     1
102
RTVSPropertyOp21
 70
     1
102
RTVSPropertyOp22
 70
     1
102
RTVSPropertyOp23
 70
     1
102
RTVSPropertyOp24
 70
     1
102
RTVSPropertyOp25
 70
     1
102
RTVSPropertyOp26
 70
     1
102
RTVSPropertyOp27
 70
     1
102
RTVSPropertyOp28
 70
     1
102
RTVSPropertyOp29
 70
     1
102
RTVSPropertyOp30
 70
     1
102
RTVSPropertyOp31
 70
     1
102
RTVSPropertyOp32
 70
     1
102
RTVSPropertyOp33
 70
     1
102
RTVSPropertyOp34
 70
     1
102
RTVSPropertyOp35
 70
     1
102
RTVSPropertyOp36
 70
     1
102
RTVSPropertyOp37
 70
     1
102
RTVSPropertyOp38
 70
     1
102
RTVSPropertyOp39
 70
     1
102
RTVSPropertyOp40
 70
     1
102
RTVSPropertyOp41
 70
     1
102
RTVSPropertyOp42
 70
     1
102
RTVSPropertyOp43
 70
     1
102
RTVSPropertyOp44
 70
     1
102
RTVSPropertyOp45
 70
     1
102
RTVSPropertyOp46
 70
     1
102
RTVSPropertyOp47
 70
     1
102
RTVSPropertyOp48
 70
     1
102
RTVSPropertyOp49
 70
     1
102
RTVSPropertyOp50
 70
     1
102
RTVSPropertyOp51
 70
     0
102
RTVSPropertyOp52
 70
     0
102
RTVSPropertyOp53
 70
     1
102
RTVSPropertyOp54
 70
     1
102
RTVSPropertyOp55
 70
     1
102
RTVSPropertyOp56
 70
     1
102
RTVSPropertyOp57
 70
     1
102
RTVSPropertyOp58
 70
     1
102
RTVSPropertyOp59
 70
     1
102
RTVSPropertyOp60
 70
     1
102
RTVSPropertyOp61
 70
     1
102
RTVSPropertyOp62
 70
     1
  0
XRECORD
  5
66EB
102
{ACAD_REACTORS
330
66EA
102
}
330
66EA
100
AcDbXrecord
280
     1
102
RTVSPost2010Prop28
280
     0
102
RTVSPost2010PropOp28
 70
     1
102
RTVSPost2010Prop29
280
     1
102
RTVSPost2010PropOp29
 70
     1
102
RTVSPost2010Prop30
280
     1
102
RTVSPost2010PropOp30
 70
     1
102
RTVSPost2010Prop31
280
     0
102
RTVSPost2010PropOp31
 70
     1
102
RTVSPost2010Prop32
280
     0
102
RTVSPost2010PropOp32
 70
     1
102
RTVSPost2010Prop33
280
     0
102
RTVSPost2010PropOp33
 70
     1
102
RTVSPost2010Prop34
280
     0
102
RTVSPost2010PropOp34
 70
     1
102
RTVSPost2010Prop35
280
     0
102
RTVSPost2010PropOp35
 70
     1
102
RTVSPost2010Prop36
280
     0
102
RTVSPost2010PropOp36
 70
     1
102
RTVSPost2010Prop37
 90
       50
102
RTVSPost2010PropOp37
 70
     1
102
RTVSPost2010Prop38
140
0.0
102
RTVSPost2010PropOp38
 70
     1
102
RTVSPost2010Prop39
140
1.0
102
RTVSPost2010PropOp39
 70
     1
102
RTVSPost2010Prop40
 90
        0
102
RTVSPost2010PropOp40
 70
     1
102
RTVSPost2010Prop41ColorIndex
 90
       18
102
RTVSPost2010Prop41ColorRGB
 90
        0
102
RTVSPost2010PropOp41
 70
     1
102
RTVSPost2010Prop42
 90
       50
102
RTVSPost2010PropOp42
 70
     1
102
RTVSPost2010Prop43
 90
        3
102
RTVSPost2010PropOp43
 70
     1
102
RTVSPost2010Prop44ColorIndex
 90
        5
102
RTVSPost2010Prop44ColorRGB
 90
      255
102
RTVSPost2010PropOp44
 70
     1
102
RTVSPost2010Prop45
280
     0
102
RTVSPost2010PropOp45
 70
     1
102
RTVSPost2010Prop46
 90
       50
102
RTVSPost2010PropOp46
 70
     1
102
RTVSPost2010Prop47
 90
       50
102
RTVSPost2010PropOp47
 70
     1
102
RTVSPost2010Prop48
 90
       50
102
RTVSPost2010PropOp48
 70
     1
102
RTVSPost2010Prop49
280
     0
102
RTVSPost2010PropOp49
 70
     1
102
RTVSPost2010Prop50
 90
       50
102
RTVSPost2010PropOp50
 70
     1
102
RTVSPost2010Prop51ColorIndex
 90
      256
102
RTVSPost2010Prop51ColorRGB
 90
-16777216
102
RTVSPost2010PropOp51
 70
     0
102
RTVSPost2010Prop52
140
1.0
102
RTVSPost2010PropOp52
 70
     0
102
RTVSPost2010Prop53
 90
        2
102
RTVSPost2010PropOp53
 70
     1
102
RTVSPost2010Prop54
  1
strokes_ogs.tif
102
RTVSPost2010PropOp54
 70
     1
102
RTVSPost2010Prop55
280
     0
102
RTVSPost2010PropOp55
 70
     1
102
RTVSPost2010Prop56
140
1.0
102
RTVSPost2010PropOp56
 70
     1
102
RTVSPost2010Prop57
140
1.0
102
RTVSPost2010PropOp57
 70
     1
102
RTVSPropertyOp0
 70
     0
102
RTVSPropertyOp1
 70
     0
102
RTVSPropertyOp2
 70
     0
102
RTVSPropertyOp3
 70
     0
102
RTVSPropertyOp4
 70
     0
102
RTVSPropertyOp5
 70
     0
102
RTVSPropertyOp6
 70
     0
102
RTVSPropertyOp7
 70
     0
102
RTVSPropertyOp8
 70
     0
102
RTVSPropertyOp9
 70
     0
102
RTVSPropertyOp10
 70
     0
102
RTVSPropertyOp11
 70
     0
102
RTVSPropertyOp12
 70
     0
102
RTVSPropertyOp13
 70
     0
102
RTVSPropertyOp14
 70
     2
102
RTVSPropertyOp15
 70
     0
102
RTVSPropertyOp16
 70
     0
102
RTVSPropertyOp17
 70
     0
102
RTVSPropertyOp18
 70
     0
102
RTVSPropertyOp19
 70
     0
102
RTVSPropertyOp20
 70
     0
102
RTVSPropertyOp21
 70
     0
102
RTVSPropertyOp22
 70
     0
102
RTVSPropertyOp23
 70
     0
102
RTVSPropertyOp24
 70
     0
102
RTVSPropertyOp25
 70
     0
102
RTVSPropertyOp26
 70
     0
102
RTVSPropertyOp27
 70
     0
102
RTVSPropertyOp28
 70
     1
102
RTVSPropertyOp29
 70
     1
102
RTVSPropertyOp30
 70
     1
102
RTVSPropertyOp31
 70
     1
102
RTVSPropertyOp32
 70
     1
102
RTVSPropertyOp33
 70
     1
102
RTVSPropertyOp34
 70
     1
102
RTVSPropertyOp35
 70
     1
102
RTVSPropertyOp36
 70
     1
102
RTVSPropertyOp37
 70
     1
102
RTVSPropertyOp38
 70
     1
102
RTVSPropertyOp39
 70
     1
102
RTVSPropertyOp40
 70
     1
102
RTVSPropertyOp41
 70
     1
102
RTVSPropertyOp42
 70
     1
102
RTVSPropertyOp43
 70
     1
102
RTVSPropertyOp44
 70
     1
102
RTVSPropertyOp45
 70
     1
102
RTVSPropertyOp46
 70
     1
102
RTVSPropertyOp47
 70
     1
102
RTVSPropertyOp48
 70
     1
102
RTVSPropertyOp49
 70
     1
102
RTVSPropertyOp50
 70
     1
102
RTVSPropertyOp51
 70
     0
102
RTVSPropertyOp52
 70
     0
102
RTVSPropertyOp53
 70
     1
102
RTVSPropertyOp54
 70
     1
102
RTVSPropertyOp55
 70
     1
102
RTVSPropertyOp56
 70
     1
102
RTVSPropertyOp57
 70
     1
102
RTVSPropertyOp58
 70
     1
102
RTVSPropertyOp59
 70
     1
102
RTVSPropertyOp60
 70
     1
102
RTVSPropertyOp61
 70
     1
102
RTVSPropertyOp62
 70
     1
  0
XRECORD
  5
66D9
102
{ACAD_REACTORS
330
66D8
102
}
330
66D8
100
AcDbXrecord
280
     1
102
RTVSPost2010Prop28
280
     0
102
RTVSPost2010PropOp28
 70
     1
102
RTVSPost2010Prop29
280
     1
102
RTVSPost2010PropOp29
 70
     1
102
RTVSPost2010Prop30
280
     1
102
RTVSPost2010PropOp30
 70
     1
102
RTVSPost2010Prop31
280
     0
102
RTVSPost2010PropOp31
 70
     1
102
RTVSPost2010Prop32
280
     0
102
RTVSPost2010PropOp32
 70
     1
102
RTVSPost2010Prop33
280
     0
102
RTVSPost2010PropOp33
 70
     1
102
RTVSPost2010Prop34
280
     0
102
RTVSPost2010PropOp34
 70
     1
102
RTVSPost2010Prop35
280
     0
102
RTVSPost2010PropOp35
 70
     1
102
RTVSPost2010Prop36
280
     0
102
RTVSPost2010PropOp36
 70
     1
102
RTVSPost2010Prop37
 90
       50
102
RTVSPost2010PropOp37
 70
     1
102
RTVSPost2010Prop38
140
0.0
102
RTVSPost2010PropOp38
 70
     1
102
RTVSPost2010Prop39
140
1.0
102
RTVSPost2010PropOp39
 70
     1
102
RTVSPost2010Prop40
 90
        0
102
RTVSPost2010PropOp40
 70
     1
102
RTVSPost2010Prop41ColorIndex
 90
       18
102
RTVSPost2010Prop41ColorRGB
 90
        0
102
RTVSPost2010PropOp41
 70
     1
102
RTVSPost2010Prop42
 90
       50
102
RTVSPost2010PropOp42
 70
     1
102
RTVSPost2010Prop43
 90
        3
102
RTVSPost2010PropOp43
 70
     1
102
RTVSPost2010Prop44ColorIndex
 90
        5
102
RTVSPost2010Prop44ColorRGB
 90
      255
102
RTVSPost2010PropOp44
 70
     1
102
RTVSPost2010Prop45
280
     0
102
RTVSPost2010PropOp45
 70
     1
102
RTVSPost2010Prop46
 90
       50
102
RTVSPost2010PropOp46
 70
     1
102
RTVSPost2010Prop47
 90
       50
102
RTVSPost2010PropOp47
 70
     1
102
RTVSPost2010Prop48
 90
       50
102
RTVSPost2010PropOp48
 70
     1
102
RTVSPost2010Prop49
280
     0
102
RTVSPost2010PropOp49
 70
     1
102
RTVSPost2010Prop50
 90
       50
102
RTVSPost2010PropOp50
 70
     1
102
RTVSPost2010Prop51ColorIndex
 90
      256
102
RTVSPost2010Prop51ColorRGB
 90
-16777216
102
RTVSPost2010PropOp51
 70
     0
102
RTVSPost2010Prop52
140
1.0
102
RTVSPost2010PropOp52
 70
     0
102
RTVSPost2010Prop53
 90
        2
102
RTVSPost2010PropOp53
 70
     1
102
RTVSPost2010Prop54
  1
strokes_ogs.tif
102
RTVSPost2010PropOp54
 70
     1
102
RTVSPost2010Prop55
280
     0
102
RTVSPost2010PropOp55
 70
     1
102
RTVSPost2010Prop56
140
1.0
102
RTVSPost2010PropOp56
 70
     1
102
RTVSPost2010Prop57
140
1.0
102
RTVSPost2010PropOp57
 70
     1
102
RTVSPropertyOp0
 70
     1
102
RTVSPropertyOp1
 70
     1
102
RTVSPropertyOp2
 70
     1
102
RTVSPropertyOp3
 70
     1
102
RTVSPropertyOp4
 70
     1
102
RTVSPropertyOp5
 70
     1
102
RTVSPropertyOp6
 70
     1
102
RTVSPropertyOp7
 70
     1
102
RTVSPropertyOp8
 70
     1
102
RTVSPropertyOp9
 70
     1
102
RTVSPropertyOp10
 70
     1
102
RTVSPropertyOp11
 70
     1
102
RTVSPropertyOp12
 70
     1
102
RTVSPropertyOp13
 70
     1
102
RTVSPropertyOp14
 70
     1
102
RTVSPropertyOp15
 70
     1
102
RTVSPropertyOp16
 70
     1
102
RTVSPropertyOp17
 70
     1
102
RTVSPropertyOp18
 70
     1
102
RTVSPropertyOp19
 70
     1
102
RTVSPropertyOp20
 70
     1
102
RTVSPropertyOp21
 70
     1
102
RTVSPropertyOp22
 70
     1
102
RTVSPropertyOp23
 70
     1
102
RTVSPropertyOp24
 70
     1
102
RTVSPropertyOp25
 70
     1
102
RTVSPropertyOp26
 70
     1
102
RTVSPropertyOp27
 70
     1
102
RTVSPropertyOp28
 70
     1
102
RTVSPropertyOp29
 70
     1
102
RTVSPropertyOp30
 70
     1
102
RTVSPropertyOp31
 70
     1
102
RTVSPropertyOp32
 70
     1
102
RTVSPropertyOp33
 70
     1
102
RTVSPropertyOp34
 70
     1
102
RTVSPropertyOp35
 70
     1
102
RTVSPropertyOp36
 70
     1
102
RTVSPropertyOp37
 70
     1
102
RTVSPropertyOp38
 70
     1
102
RTVSPropertyOp39
 70
     1
102
RTVSPropertyOp40
 70
     1
102
RTVSPropertyOp41
 70
     1
102
RTVSPropertyOp42
 70
     1
102
RTVSPropertyOp43
 70
     1
102
RTVSPropertyOp44
 70
     1
102
RTVSPropertyOp45
 70
     1
102
RTVSPropertyOp46
 70
     1
102
RTVSPropertyOp47
 70
     1
102
RTVSPropertyOp48
 70
     1
102
RTVSPropertyOp49
 70
     1
102
RTVSPropertyOp50
 70
     1
102
RTVSPropertyOp51
 70
     0
102
RTVSPropertyOp52
 70
     0
102
RTVSPropertyOp53
 70
     1
102
RTVSPropertyOp54
 70
     1
102
RTVSPropertyOp55
 70
     1
102
RTVSPropertyOp56
 70
     1
102
RTVSPropertyOp57
 70
     1
102
RTVSPropertyOp58
 70
     1
102
RTVSPropertyOp59
 70
     1
102
RTVSPropertyOp60
 70
     1
102
RTVSPropertyOp61
 70
     1
102
RTVSPropertyOp62
 70
     1
  0
XRECORD
  5
66F7
102
{ACAD_REACTORS
330
66F6
102
}
330
66F6
100
AcDbXrecord
280
     1
102
RTVSPost2010Prop28
280
     0
102
RTVSPost2010PropOp28
 70
     1
102
RTVSPost2010Prop29
280
     1
102
RTVSPost2010PropOp29
 70
     1
102
RTVSPost2010Prop30
280
     1
102
RTVSPost2010PropOp30
 70
     1
102
RTVSPost2010Prop31
280
     0
102
RTVSPost2010PropOp31
 70
     1
102
RTVSPost2010Prop32
280
     0
102
RTVSPost2010PropOp32
 70
     1
102
RTVSPost2010Prop33
280
     0
102
RTVSPost2010PropOp33
 70
     1
102
RTVSPost2010Prop34
280
     0
102
RTVSPost2010PropOp34
 70
     1
102
RTVSPost2010Prop35
280
     0
102
RTVSPost2010PropOp35
 70
     1
102
RTVSPost2010Prop36
280
     0
102
RTVSPost2010PropOp36
 70
     1
102
RTVSPost2010Prop37
 90
       50
102
RTVSPost2010PropOp37
 70
     1
102
RTVSPost2010Prop38
140
0.0
102
RTVSPost2010PropOp38
 70
     1
102
RTVSPost2010Prop39
140
1.0
102
RTVSPost2010PropOp39
 70
     1
102
RTVSPost2010Prop40
 90
        0
102
RTVSPost2010PropOp40
 70
     1
102
RTVSPost2010Prop41ColorIndex
 90
       18
102
RTVSPost2010Prop41ColorRGB
 90
        0
102
RTVSPost2010PropOp41
 70
     1
102
RTVSPost2010Prop42
 90
       50
102
RTVSPost2010PropOp42
 70
     1
102
RTVSPost2010Prop43
 90
        3
102
RTVSPost2010PropOp43
 70
     1
102
RTVSPost2010Prop44ColorIndex
 90
        5
102
RTVSPost2010Prop44ColorRGB
 90
      255
102
RTVSPost2010PropOp44
 70
     1
102
RTVSPost2010Prop45
280
     0
102
RTVSPost2010PropOp45
 70
     1
102
RTVSPost2010Prop46
 90
       50
102
RTVSPost2010PropOp46
 70
     1
102
RTVSPost2010Prop47
 90
       50
102
RTVSPost2010PropOp47
 70
     1
102
RTVSPost2010Prop48
 90
       50
102
RTVSPost2010PropOp48
 70
     1
102
RTVSPost2010Prop49
280
     0
102
RTVSPost2010PropOp49
 70
     1
102
RTVSPost2010Prop50
 90
       50
102
RTVSPost2010PropOp50
 70
     1
102
RTVSPost2010Prop51ColorIndex
 90
      256
102
RTVSPost2010Prop51ColorRGB
 90
-16777216
102
RTVSPost2010PropOp51
 70
     0
102
RTVSPost2010Prop52
140
1.0
102
RTVSPost2010PropOp52
 70
     0
102
RTVSPost2010Prop53
 90
        2
102
RTVSPost2010PropOp53
 70
     1
102
RTVSPost2010Prop54
  1
strokes_ogs.tif
102
RTVSPost2010PropOp54
 70
     1
102
RTVSPost2010Prop55
280
     0
102
RTVSPost2010PropOp55
 70
     1
102
RTVSPost2010Prop56
140
1.0
102
RTVSPost2010PropOp56
 70
     1
102
RTVSPost2010Prop57
140
1.0
102
RTVSPost2010PropOp57
 70
     1
102
RTVSPropertyOp0
 70
     1
102
RTVSPropertyOp1
 70
     1
102
RTVSPropertyOp2
 70
     1
102
RTVSPropertyOp3
 70
     1
102
RTVSPropertyOp4
 70
     1
102
RTVSPropertyOp5
 70
     1
102
RTVSPropertyOp6
 70
     1
102
RTVSPropertyOp7
 70
     1
102
RTVSPropertyOp8
 70
     1
102
RTVSPropertyOp9
 70
     1
102
RTVSPropertyOp10
 70
     1
102
RTVSPropertyOp11
 70
     1
102
RTVSPropertyOp12
 70
     1
102
RTVSPropertyOp13
 70
     1
102
RTVSPropertyOp14
 70
     1
102
RTVSPropertyOp15
 70
     1
102
RTVSPropertyOp16
 70
     1
102
RTVSPropertyOp17
 70
     1
102
RTVSPropertyOp18
 70
     1
102
RTVSPropertyOp19
 70
     1
102
RTVSPropertyOp20
 70
     1
102
RTVSPropertyOp21
 70
     1
102
RTVSPropertyOp22
 70
     1
102
RTVSPropertyOp23
 70
     1
102
RTVSPropertyOp24
 70
     1
102
RTVSPropertyOp25
 70
     1
102
RTVSPropertyOp26
 70
     1
102
RTVSPropertyOp27
 70
     1
102
RTVSPropertyOp28
 70
     1
102
RTVSPropertyOp29
 70
     1
102
RTVSPropertyOp30
 70
     1
102
RTVSPropertyOp31
 70
     1
102
RTVSPropertyOp32
 70
     1
102
RTVSPropertyOp33
 70
     1
102
RTVSPropertyOp34
 70
     1
102
RTVSPropertyOp35
 70
     1
102
RTVSPropertyOp36
 70
     1
102
RTVSPropertyOp37
 70
     1
102
RTVSPropertyOp38
 70
     1
102
RTVSPropertyOp39
 70
     1
102
RTVSPropertyOp40
 70
     1
102
RTVSPropertyOp41
 70
     1
102
RTVSPropertyOp42
 70
     1
102
RTVSPropertyOp43
 70
     1
102
RTVSPropertyOp44
 70
     1
102
RTVSPropertyOp45
 70
     1
102
RTVSPropertyOp46
 70
     1
102
RTVSPropertyOp47
 70
     1
102
RTVSPropertyOp48
 70
     1
102
RTVSPropertyOp49
 70
     1
102
RTVSPropertyOp50
 70
     1
102
RTVSPropertyOp51
 70
     0
102
RTVSPropertyOp52
 70
     0
102
RTVSPropertyOp53
 70
     1
102
RTVSPropertyOp54
 70
     1
102
RTVSPropertyOp55
 70
     1
102
RTVSPropertyOp56
 70
     1
102
RTVSPropertyOp57
 70
     1
102
RTVSPropertyOp58
 70
     1
102
RTVSPropertyOp59
 70
     1
102
RTVSPropertyOp60
 70
     1
102
RTVSPropertyOp61
 70
     1
102
RTVSPropertyOp62
 70
     1
  0
XRECORD
  5
66F5
102
{ACAD_REACTORS
330
66F4
102
}
330
66F4
100
AcDbXrecord
280
     1
102
RTVSPost2010Prop28
280
     0
102
RTVSPost2010PropOp28
 70
     1
102
RTVSPost2010Prop29
280
     1
102
RTVSPost2010PropOp29
 70
     1
102
RTVSPost2010Prop30
280
     1
102
RTVSPost2010PropOp30
 70
     1
102
RTVSPost2010Prop31
280
     0
102
RTVSPost2010PropOp31
 70
     1
102
RTVSPost2010Prop32
280
     0
102
RTVSPost2010PropOp32
 70
     1
102
RTVSPost2010Prop33
280
     0
102
RTVSPost2010PropOp33
 70
     1
102
RTVSPost2010Prop34
280
     0
102
RTVSPost2010PropOp34
 70
     1
102
RTVSPost2010Prop35
280
     0
102
RTVSPost2010PropOp35
 70
     1
102
RTVSPost2010Prop36
280
     0
102
RTVSPost2010PropOp36
 70
     1
102
RTVSPost2010Prop37
 90
       50
102
RTVSPost2010PropOp37
 70
     1
102
RTVSPost2010Prop38
140
0.0
102
RTVSPost2010PropOp38
 70
     1
102
RTVSPost2010Prop39
140
1.0
102
RTVSPost2010PropOp39
 70
     1
102
RTVSPost2010Prop40
 90
        0
102
RTVSPost2010PropOp40
 70
     1
102
RTVSPost2010Prop41ColorIndex
 90
       18
102
RTVSPost2010Prop41ColorRGB
 90
        0
102
RTVSPost2010PropOp41
 70
     1
102
RTVSPost2010Prop42
 90
       50
102
RTVSPost2010PropOp42
 70
     1
102
RTVSPost2010Prop43
 90
        3
102
RTVSPost2010PropOp43
 70
     1
102
RTVSPost2010Prop44ColorIndex
 90
        5
102
RTVSPost2010Prop44ColorRGB
 90
      255
102
RTVSPost2010PropOp44
 70
     1
102
RTVSPost2010Prop45
280
     0
102
RTVSPost2010PropOp45
 70
     1
102
RTVSPost2010Prop46
 90
       50
102
RTVSPost2010PropOp46
 70
     1
102
RTVSPost2010Prop47
 90
       50
102
RTVSPost2010PropOp47
 70
     1
102
RTVSPost2010Prop48
 90
       50
102
RTVSPost2010PropOp48
 70
     1
102
RTVSPost2010Prop49
280
     0
102
RTVSPost2010PropOp49
 70
     1
102
RTVSPost2010Prop50
 90
       50
102
RTVSPost2010PropOp50
 70
     1
102
RTVSPost2010Prop51ColorIndex
 90
      256
102
RTVSPost2010Prop51ColorRGB
 90
-16777216
102
RTVSPost2010PropOp51
 70
     0
102
RTVSPost2010Prop52
140
1.0
102
RTVSPost2010PropOp52
 70
     0
102
RTVSPost2010Prop53
 90
        2
102
RTVSPost2010PropOp53
 70
     1
102
RTVSPost2010Prop54
  1
strokes_ogs.tif
102
RTVSPost2010PropOp54
 70
     1
102
RTVSPost2010Prop55
280
     0
102
RTVSPost2010PropOp55
 70
     1
102
RTVSPost2010Prop56
140
1.0
102
RTVSPost2010PropOp56
 70
     1
102
RTVSPost2010Prop57
140
1.0
102
RTVSPost2010PropOp57
 70
     1
102
RTVSPropertyOp0
 70
     1
102
RTVSPropertyOp1
 70
     1
102
RTVSPropertyOp2
 70
     1
102
RTVSPropertyOp3
 70
     1
102
RTVSPropertyOp4
 70
     1
102
RTVSPropertyOp5
 70
     1
102
RTVSPropertyOp6
 70
     1
102
RTVSPropertyOp7
 70
     1
102
RTVSPropertyOp8
 70
     1
102
RTVSPropertyOp9
 70
     1
102
RTVSPropertyOp10
 70
     1
102
RTVSPropertyOp11
 70
     1
102
RTVSPropertyOp12
 70
     1
102
RTVSPropertyOp13
 70
     1
102
RTVSPropertyOp14
 70
     1
102
RTVSPropertyOp15
 70
     1
102
RTVSPropertyOp16
 70
     1
102
RTVSPropertyOp17
 70
     1
102
RTVSPropertyOp18
 70
     1
102
RTVSPropertyOp19
 70
     1
102
RTVSPropertyOp20
 70
     1
102
RTVSPropertyOp21
 70
     1
102
RTVSPropertyOp22
 70
     1
102
RTVSPropertyOp23
 70
     1
102
RTVSPropertyOp24
 70
     1
102
RTVSPropertyOp25
 70
     1
102
RTVSPropertyOp26
 70
     1
102
RTVSPropertyOp27
 70
     1
102
RTVSPropertyOp28
 70
     1
102
RTVSPropertyOp29
 70
     1
102
RTVSPropertyOp30
 70
     1
102
RTVSPropertyOp31
 70
     1
102
RTVSPropertyOp32
 70
     1
102
RTVSPropertyOp33
 70
     1
102
RTVSPropertyOp34
 70
     1
102
RTVSPropertyOp35
 70
     1
102
RTVSPropertyOp36
 70
     1
102
RTVSPropertyOp37
 70
     1
102
RTVSPropertyOp38
 70
     1
102
RTVSPropertyOp39
 70
     1
102
RTVSPropertyOp40
 70
     1
102
RTVSPropertyOp41
 70
     1
102
RTVSPropertyOp42
 70
     1
102
RTVSPropertyOp43
 70
     1
102
RTVSPropertyOp44
 70
     1
102
RTVSPropertyOp45
 70
     1
102
RTVSPropertyOp46
 70
     1
102
RTVSPropertyOp47
 70
     1
102
RTVSPropertyOp48
 70
     1
102
RTVSPropertyOp49
 70
     1
102
RTVSPropertyOp50
 70
     1
102
RTVSPropertyOp51
 70
     0
102
RTVSPropertyOp52
 70
     0
102
RTVSPropertyOp53
 70
     1
102
RTVSPropertyOp54
 70
     1
102
RTVSPropertyOp55
 70
     1
102
RTVSPropertyOp56
 70
     1
102
RTVSPropertyOp57
 70
     1
102
RTVSPropertyOp58
 70
     1
102
RTVSPropertyOp59
 70
     1
102
RTVSPropertyOp60
 70
     1
102
RTVSPropertyOp61
 70
     1
102
RTVSPropertyOp62
 70
     1
  0
XRECORD
  5
66EF
102
{ACAD_REACTORS
330
66EE
102
}
330
66EE
100
AcDbXrecord
280
     1
102
RTVSPost2010Prop28
280
     0
102
RTVSPost2010PropOp28
 70
     1
102
RTVSPost2010Prop29
280
     1
102
RTVSPost2010PropOp29
 70
     1
102
RTVSPost2010Prop30
280
     1
102
RTVSPost2010PropOp30
 70
     1
102
RTVSPost2010Prop31
280
     0
102
RTVSPost2010PropOp31
 70
     1
102
RTVSPost2010Prop32
280
     0
102
RTVSPost2010PropOp32
 70
     1
102
RTVSPost2010Prop33
280
     0
102
RTVSPost2010PropOp33
 70
     1
102
RTVSPost2010Prop34
280
     0
102
RTVSPost2010PropOp34
 70
     1
102
RTVSPost2010Prop35
280
     0
102
RTVSPost2010PropOp35
 70
     1
102
RTVSPost2010Prop36
280
     0
102
RTVSPost2010PropOp36
 70
     1
102
RTVSPost2010Prop37
 90
       50
102
RTVSPost2010PropOp37
 70
     1
102
RTVSPost2010Prop38
140
0.0
102
RTVSPost2010PropOp38
 70
     1
102
RTVSPost2010Prop39
140
1.0
102
RTVSPost2010PropOp39
 70
     1
102
RTVSPost2010Prop40
 90
        0
102
RTVSPost2010PropOp40
 70
     1
102
RTVSPost2010Prop41ColorIndex
 90
       18
102
RTVSPost2010Prop41ColorRGB
 90
        0
102
RTVSPost2010PropOp41
 70
     1
102
RTVSPost2010Prop42
 90
       50
102
RTVSPost2010PropOp42
 70
     1
102
RTVSPost2010Prop43
 90
        3
102
RTVSPost2010PropOp43
 70
     1
102
RTVSPost2010Prop44ColorIndex
 90
        5
102
RTVSPost2010Prop44ColorRGB
 90
      255
102
RTVSPost2010PropOp44
 70
     1
102
RTVSPost2010Prop45
280
     0
102
RTVSPost2010PropOp45
 70
     1
102
RTVSPost2010Prop46
 90
       50
102
RTVSPost2010PropOp46
 70
     1
102
RTVSPost2010Prop47
 90
       50
102
RTVSPost2010PropOp47
 70
     1
102
RTVSPost2010Prop48
 90
       50
102
RTVSPost2010PropOp48
 70
     1
102
RTVSPost2010Prop49
280
     0
102
RTVSPost2010PropOp49
 70
     1
102
RTVSPost2010Prop50
 90
       50
102
RTVSPost2010PropOp50
 70
     1
102
RTVSPost2010Prop51ColorIndex
 90
      256
102
RTVSPost2010Prop51ColorRGB
 90
-16777216
102
RTVSPost2010PropOp51
 70
     0
102
RTVSPost2010Prop52
140
1.0
102
RTVSPost2010PropOp52
 70
     0
102
RTVSPost2010Prop53
 90
        2
102
RTVSPost2010PropOp53
 70
     1
102
RTVSPost2010Prop54
  1
strokes_ogs.tif
102
RTVSPost2010PropOp54
 70
     1
102
RTVSPost2010Prop55
280
     0
102
RTVSPost2010PropOp55
 70
     1
102
RTVSPost2010Prop56
140
1.0
102
RTVSPost2010PropOp56
 70
     1
102
RTVSPost2010Prop57
140
1.0
102
RTVSPost2010PropOp57
 70
     1
102
RTVSPropertyOp0
 70
     1
102
RTVSPropertyOp1
 70
     1
102
RTVSPropertyOp2
 70
     1
102
RTVSPropertyOp3
 70
     1
102
RTVSPropertyOp4
 70
     1
102
RTVSPropertyOp5
 70
     1
102
RTVSPropertyOp6
 70
     1
102
RTVSPropertyOp7
 70
     1
102
RTVSPropertyOp8
 70
     1
102
RTVSPropertyOp9
 70
     1
102
RTVSPropertyOp10
 70
     1
102
RTVSPropertyOp11
 70
     1
102
RTVSPropertyOp12
 70
     1
102
RTVSPropertyOp13
 70
     1
102
RTVSPropertyOp14
 70
     1
102
RTVSPropertyOp15
 70
     1
102
RTVSPropertyOp16
 70
     1
102
RTVSPropertyOp17
 70
     1
102
RTVSPropertyOp18
 70
     1
102
RTVSPropertyOp19
 70
     1
102
RTVSPropertyOp20
 70
     1
102
RTVSPropertyOp21
 70
     1
102
RTVSPropertyOp22
 70
     1
102
RTVSPropertyOp23
 70
     1
102
RTVSPropertyOp24
 70
     1
102
RTVSPropertyOp25
 70
     1
102
RTVSPropertyOp26
 70
     1
102
RTVSPropertyOp27
 70
     1
102
RTVSPropertyOp28
 70
     1
102
RTVSPropertyOp29
 70
     1
102
RTVSPropertyOp30
 70
     1
102
RTVSPropertyOp31
 70
     1
102
RTVSPropertyOp32
 70
     1
102
RTVSPropertyOp33
 70
     1
102
RTVSPropertyOp34
 70
     1
102
RTVSPropertyOp35
 70
     1
102
RTVSPropertyOp36
 70
     1
102
RTVSPropertyOp37
 70
     1
102
RTVSPropertyOp38
 70
     1
102
RTVSPropertyOp39
 70
     1
102
RTVSPropertyOp40
 70
     1
102
RTVSPropertyOp41
 70
     1
102
RTVSPropertyOp42
 70
     1
102
RTVSPropertyOp43
 70
     1
102
RTVSPropertyOp44
 70
     1
102
RTVSPropertyOp45
 70
     1
102
RTVSPropertyOp46
 70
     1
102
RTVSPropertyOp47
 70
     1
102
RTVSPropertyOp48
 70
     1
102
RTVSPropertyOp49
 70
     1
102
RTVSPropertyOp50
 70
     1
102
RTVSPropertyOp51
 70
     0
102
RTVSPropertyOp52
 70
     0
102
RTVSPropertyOp53
 70
     1
102
RTVSPropertyOp54
 70
     1
102
RTVSPropertyOp55
 70
     1
102
RTVSPropertyOp56
 70
     1
102
RTVSPropertyOp57
 70
     1
102
RTVSPropertyOp58
 70
     1
102
RTVSPropertyOp59
 70
     1
102
RTVSPropertyOp60
 70
     1
102
RTVSPropertyOp61
 70
     1
102
RTVSPropertyOp62
 70
     1
  0
XRECORD
  5
66F1
102
{ACAD_REACTORS
330
66F0
102
}
330
66F0
100
AcDbXrecord
280
     1
102
RTVSPost2010Prop28
280
     0
102
RTVSPost2010PropOp28
 70
     1
102
RTVSPost2010Prop29
280
     1
102
RTVSPost2010PropOp29
 70
     1
102
RTVSPost2010Prop30
280
     1
102
RTVSPost2010PropOp30
 70
     1
102
RTVSPost2010Prop31
280
     0
102
RTVSPost2010PropOp31
 70
     1
102
RTVSPost2010Prop32
280
     0
102
RTVSPost2010PropOp32
 70
     1
102
RTVSPost2010Prop33
280
     0
102
RTVSPost2010PropOp33
 70
     1
102
RTVSPost2010Prop34
280
     0
102
RTVSPost2010PropOp34
 70
     1
102
RTVSPost2010Prop35
280
     0
102
RTVSPost2010PropOp35
 70
     1
102
RTVSPost2010Prop36
280
     0
102
RTVSPost2010PropOp36
 70
     1
102
RTVSPost2010Prop37
 90
       50
102
RTVSPost2010PropOp37
 70
     1
102
RTVSPost2010Prop38
140
0.0
102
RTVSPost2010PropOp38
 70
     1
102
RTVSPost2010Prop39
140
1.0
102
RTVSPost2010PropOp39
 70
     1
102
RTVSPost2010Prop40
 90
        0
102
RTVSPost2010PropOp40
 70
     1
102
RTVSPost2010Prop41ColorIndex
 90
       18
102
RTVSPost2010Prop41ColorRGB
 90
        0
102
RTVSPost2010PropOp41
 70
     1
102
RTVSPost2010Prop42
 90
       50
102
RTVSPost2010PropOp42
 70
     1
102
RTVSPost2010Prop43
 90
        3
102
RTVSPost2010PropOp43
 70
     1
102
RTVSPost2010Prop44ColorIndex
 90
        5
102
RTVSPost2010Prop44ColorRGB
 90
      255
102
RTVSPost2010PropOp44
 70
     1
102
RTVSPost2010Prop45
280
     0
102
RTVSPost2010PropOp45
 70
     1
102
RTVSPost2010Prop46
 90
       50
102
RTVSPost2010PropOp46
 70
     1
102
RTVSPost2010Prop47
 90
       50
102
RTVSPost2010PropOp47
 70
     1
102
RTVSPost2010Prop48
 90
       50
102
RTVSPost2010PropOp48
 70
     1
102
RTVSPost2010Prop49
280
     0
102
RTVSPost2010PropOp49
 70
     1
102
RTVSPost2010Prop50
 90
       50
102
RTVSPost2010PropOp50
 70
     1
102
RTVSPost2010Prop51ColorIndex
 90
      256
102
RTVSPost2010Prop51ColorRGB
 90
-16777216
102
RTVSPost2010PropOp51
 70
     0
102
RTVSPost2010Prop52
140
1.0
102
RTVSPost2010PropOp52
 70
     0
102
RTVSPost2010Prop53
 90
        2
102
RTVSPost2010PropOp53
 70
     1
102
RTVSPost2010Prop54
  1
strokes_ogs.tif
102
RTVSPost2010PropOp54
 70
     1
102
RTVSPost2010Prop55
280
     0
102
RTVSPost2010PropOp55
 70
     1
102
RTVSPost2010Prop56
140
1.0
102
RTVSPost2010PropOp56
 70
     1
102
RTVSPost2010Prop57
140
1.0
102
RTVSPost2010PropOp57
 70
     1
102
RTVSPropertyOp0
 70
     1
102
RTVSPropertyOp1
 70
     1
102
RTVSPropertyOp2
 70
     1
102
RTVSPropertyOp3
 70
     1
102
RTVSPropertyOp4
 70
     1
102
RTVSPropertyOp5
 70
     1
102
RTVSPropertyOp6
 70
     1
102
RTVSPropertyOp7
 70
     1
102
RTVSPropertyOp8
 70
     1
102
RTVSPropertyOp9
 70
     1
102
RTVSPropertyOp10
 70
     1
102
RTVSPropertyOp11
 70
     1
102
RTVSPropertyOp12
 70
     1
102
RTVSPropertyOp13
 70
     1
102
RTVSPropertyOp14
 70
     1
102
RTVSPropertyOp15
 70
     1
102
RTVSPropertyOp16
 70
     1
102
RTVSPropertyOp17
 70
     1
102
RTVSPropertyOp18
 70
     1
102
RTVSPropertyOp19
 70
     1
102
RTVSPropertyOp20
 70
     1
102
RTVSPropertyOp21
 70
     1
102
RTVSPropertyOp22
 70
     1
102
RTVSPropertyOp23
 70
     1
102
RTVSPropertyOp24
 70
     1
102
RTVSPropertyOp25
 70
     1
102
RTVSPropertyOp26
 70
     1
102
RTVSPropertyOp27
 70
     1
102
RTVSPropertyOp28
 70
     1
102
RTVSPropertyOp29
 70
     1
102
RTVSPropertyOp30
 70
     1
102
RTVSPropertyOp31
 70
     1
102
RTVSPropertyOp32
 70
     1
102
RTVSPropertyOp33
 70
     1
102
RTVSPropertyOp34
 70
     1
102
RTVSPropertyOp35
 70
     1
102
RTVSPropertyOp36
 70
     1
102
RTVSPropertyOp37
 70
     1
102
RTVSPropertyOp38
 70
     1
102
RTVSPropertyOp39
 70
     1
102
RTVSPropertyOp40
 70
     1
102
RTVSPropertyOp41
 70
     1
102
RTVSPropertyOp42
 70
     1
102
RTVSPropertyOp43
 70
     1
102
RTVSPropertyOp44
 70
     1
102
RTVSPropertyOp45
 70
     1
102
RTVSPropertyOp46
 70
     1
102
RTVSPropertyOp47
 70
     1
102
RTVSPropertyOp48
 70
     1
102
RTVSPropertyOp49
 70
     1
102
RTVSPropertyOp50
 70
     1
102
RTVSPropertyOp51
 70
     0
102
RTVSPropertyOp52
 70
     0
102
RTVSPropertyOp53
 70
     1
102
RTVSPropertyOp54
 70
     1
102
RTVSPropertyOp55
 70
     1
102
RTVSPropertyOp56
 70
     1
102
RTVSPropertyOp57
 70
     1
102
RTVSPropertyOp58
 70
     1
102
RTVSPropertyOp59
 70
     1
102
RTVSPropertyOp60
 70
     1
102
RTVSPropertyOp61
 70
     1
102
RTVSPropertyOp62
 70
     1
  0
XRECORD
  5
66DF
102
{ACAD_REACTORS
330
66DE
102
}
330
66DE
100
AcDbXrecord
280
     1
102
RTVSPost2010Prop28
280
     0
102
RTVSPost2010PropOp28
 70
     1
102
RTVSPost2010Prop29
280
     1
102
RTVSPost2010PropOp29
 70
     1
102
RTVSPost2010Prop30
280
     1
102
RTVSPost2010PropOp30
 70
     1
102
RTVSPost2010Prop31
280
     0
102
RTVSPost2010PropOp31
 70
     1
102
RTVSPost2010Prop32
280
     0
102
RTVSPost2010PropOp32
 70
     1
102
RTVSPost2010Prop33
280
     0
102
RTVSPost2010PropOp33
 70
     1
102
RTVSPost2010Prop34
280
     0
102
RTVSPost2010PropOp34
 70
     1
102
RTVSPost2010Prop35
280
     0
102
RTVSPost2010PropOp35
 70
     1
102
RTVSPost2010Prop36
280
     0
102
RTVSPost2010PropOp36
 70
     1
102
RTVSPost2010Prop37
 90
       50
102
RTVSPost2010PropOp37
 70
     1
102
RTVSPost2010Prop38
140
0.0
102
RTVSPost2010PropOp38
 70
     1
102
RTVSPost2010Prop39
140
1.0
102
RTVSPost2010PropOp39
 70
     1
102
RTVSPost2010Prop40
 90
        0
102
RTVSPost2010PropOp40
 70
     1
102
RTVSPost2010Prop41ColorIndex
 90
       18
102
RTVSPost2010Prop41ColorRGB
 90
        0
102
RTVSPost2010PropOp41
 70
     1
102
RTVSPost2010Prop42
 90
       50
102
RTVSPost2010PropOp42
 70
     1
102
RTVSPost2010Prop43
 90
        3
102
RTVSPost2010PropOp43
 70
     1
102
RTVSPost2010Prop44ColorIndex
 90
        5
102
RTVSPost2010Prop44ColorRGB
 90
      255
102
RTVSPost2010PropOp44
 70
     1
102
RTVSPost2010Prop45
280
     0
102
RTVSPost2010PropOp45
 70
     1
102
RTVSPost2010Prop46
 90
       50
102
RTVSPost2010PropOp46
 70
     1
102
RTVSPost2010Prop47
 90
       50
102
RTVSPost2010PropOp47
 70
     1
102
RTVSPost2010Prop48
 90
       50
102
RTVSPost2010PropOp48
 70
     1
102
RTVSPost2010Prop49
280
     0
102
RTVSPost2010PropOp49
 70
     1
102
RTVSPost2010Prop50
 90
       50
102
RTVSPost2010PropOp50
 70
     1
102
RTVSPost2010Prop51ColorIndex
 90
      256
102
RTVSPost2010Prop51ColorRGB
 90
-16777216
102
RTVSPost2010PropOp51
 70
     0
102
RTVSPost2010Prop52
140
1.0
102
RTVSPost2010PropOp52
 70
     0
102
RTVSPost2010Prop53
 90
        2
102
RTVSPost2010PropOp53
 70
     1
102
RTVSPost2010Prop54
  1
strokes_ogs.tif
102
RTVSPost2010PropOp54
 70
     1
102
RTVSPost2010Prop55
280
     0
102
RTVSPost2010PropOp55
 70
     1
102
RTVSPost2010Prop56
140
1.0
102
RTVSPost2010PropOp56
 70
     1
102
RTVSPost2010Prop57
140
1.0
102
RTVSPost2010PropOp57
 70
     1
102
RTVSPropertyOp0
 70
     1
102
RTVSPropertyOp1
 70
     1
102
RTVSPropertyOp2
 70
     1
102
RTVSPropertyOp3
 70
     1
102
RTVSPropertyOp4
 70
     1
102
RTVSPropertyOp5
 70
     1
102
RTVSPropertyOp6
 70
     1
102
RTVSPropertyOp7
 70
     1
102
RTVSPropertyOp8
 70
     1
102
RTVSPropertyOp9
 70
     1
102
RTVSPropertyOp10
 70
     1
102
RTVSPropertyOp11
 70
     1
102
RTVSPropertyOp12
 70
     1
102
RTVSPropertyOp13
 70
     1
102
RTVSPropertyOp14
 70
     1
102
RTVSPropertyOp15
 70
     1
102
RTVSPropertyOp16
 70
     1
102
RTVSPropertyOp17
 70
     1
102
RTVSPropertyOp18
 70
     1
102
RTVSPropertyOp19
 70
     1
102
RTVSPropertyOp20
 70
     1
102
RTVSPropertyOp21
 70
     1
102
RTVSPropertyOp22
 70
     1
102
RTVSPropertyOp23
 70
     1
102
RTVSPropertyOp24
 70
     1
102
RTVSPropertyOp25
 70
     1
102
RTVSPropertyOp26
 70
     1
102
RTVSPropertyOp27
 70
     1
102
RTVSPropertyOp28
 70
     1
102
RTVSPropertyOp29
 70
     1
102
RTVSPropertyOp30
 70
     1
102
RTVSPropertyOp31
 70
     1
102
RTVSPropertyOp32
 70
     1
102
RTVSPropertyOp33
 70
     1
102
RTVSPropertyOp34
 70
     1
102
RTVSPropertyOp35
 70
     1
102
RTVSPropertyOp36
 70
     1
102
RTVSPropertyOp37
 70
     1
102
RTVSPropertyOp38
 70
     1
102
RTVSPropertyOp39
 70
     1
102
RTVSPropertyOp40
 70
     1
102
RTVSPropertyOp41
 70
     1
102
RTVSPropertyOp42
 70
     1
102
RTVSPropertyOp43
 70
     1
102
RTVSPropertyOp44
 70
     1
102
RTVSPropertyOp45
 70
     1
102
RTVSPropertyOp46
 70
     1
102
RTVSPropertyOp47
 70
     1
102
RTVSPropertyOp48
 70
     1
102
RTVSPropertyOp49
 70
     1
102
RTVSPropertyOp50
 70
     1
102
RTVSPropertyOp51
 70
     0
102
RTVSPropertyOp52
 70
     0
102
RTVSPropertyOp53
 70
     1
102
RTVSPropertyOp54
 70
     1
102
RTVSPropertyOp55
 70
     1
102
RTVSPropertyOp56
 70
     1
102
RTVSPropertyOp57
 70
     1
102
RTVSPropertyOp58
 70
     1
102
RTVSPropertyOp59
 70
     1
102
RTVSPropertyOp60
 70
     1
102
RTVSPropertyOp61
 70
     1
102
RTVSPropertyOp62
 70
     1
  0
XRECORD
  5
66D3
102
{ACAD_REACTORS
330
66D2
102
}
330
66D2
100
AcDbXrecord
280
     1
102
RTVSPost2010Prop28
280
     0
102
RTVSPost2010PropOp28
 70
     1
102
RTVSPost2010Prop29
280
     1
102
RTVSPost2010PropOp29
 70
     1
102
RTVSPost2010Prop30
280
     1
102
RTVSPost2010PropOp30
 70
     1
102
RTVSPost2010Prop31
280
     0
102
RTVSPost2010PropOp31
 70
     1
102
RTVSPost2010Prop32
280
     0
102
RTVSPost2010PropOp32
 70
     1
102
RTVSPost2010Prop33
280
     0
102
RTVSPost2010PropOp33
 70
     1
102
RTVSPost2010Prop34
280
     0
102
RTVSPost2010PropOp34
 70
     1
102
RTVSPost2010Prop35
280
     0
102
RTVSPost2010PropOp35
 70
     1
102
RTVSPost2010Prop36
280
     0
102
RTVSPost2010PropOp36
 70
     1
102
RTVSPost2010Prop37
 90
       50
102
RTVSPost2010PropOp37
 70
     1
102
RTVSPost2010Prop38
140
0.0
102
RTVSPost2010PropOp38
 70
     1
102
RTVSPost2010Prop39
140
1.0
102
RTVSPost2010PropOp39
 70
     1
102
RTVSPost2010Prop40
 90
        0
102
RTVSPost2010PropOp40
 70
     1
102
RTVSPost2010Prop41ColorIndex
 90
       18
102
RTVSPost2010Prop41ColorRGB
 90
        0
102
RTVSPost2010PropOp41
 70
     1
102
RTVSPost2010Prop42
 90
       50
102
RTVSPost2010PropOp42
 70
     1
102
RTVSPost2010Prop43
 90
        3
102
RTVSPost2010PropOp43
 70
     1
102
RTVSPost2010Prop44ColorIndex
 90
        5
102
RTVSPost2010Prop44ColorRGB
 90
      255
102
RTVSPost2010PropOp44
 70
     1
102
RTVSPost2010Prop45
280
     0
102
RTVSPost2010PropOp45
 70
     1
102
RTVSPost2010Prop46
 90
       50
102
RTVSPost2010PropOp46
 70
     1
102
RTVSPost2010Prop47
 90
       50
102
RTVSPost2010PropOp47
 70
     1
102
RTVSPost2010Prop48
 90
       50
102
RTVSPost2010PropOp48
 70
     1
102
RTVSPost2010Prop49
280
     0
102
RTVSPost2010PropOp49
 70
     1
102
RTVSPost2010Prop50
 90
       50
102
RTVSPost2010PropOp50
 70
     1
102
RTVSPost2010Prop51ColorIndex
 90
      256
102
RTVSPost2010Prop51ColorRGB
 90
-16777216
102
RTVSPost2010PropOp51
 70
     0
102
RTVSPost2010Prop52
140
1.0
102
RTVSPost2010PropOp52
 70
     0
102
RTVSPost2010Prop53
 90
        2
102
RTVSPost2010PropOp53
 70
     1
102
RTVSPost2010Prop54
  1
strokes_ogs.tif
102
RTVSPost2010PropOp54
 70
     1
102
RTVSPost2010Prop55
280
     0
102
RTVSPost2010PropOp55
 70
     1
102
RTVSPost2010Prop56
140
1.0
102
RTVSPost2010PropOp56
 70
     1
102
RTVSPost2010Prop57
140
1.0
102
RTVSPost2010PropOp57
 70
     1
102
RTVSPropertyOp0
 70
     1
102
RTVSPropertyOp1
 70
     1
102
RTVSPropertyOp2
 70
     1
102
RTVSPropertyOp3
 70
     1
102
RTVSPropertyOp4
 70
     1
102
RTVSPropertyOp5
 70
     1
102
RTVSPropertyOp6
 70
     1
102
RTVSPropertyOp7
 70
     1
102
RTVSPropertyOp8
 70
     1
102
RTVSPropertyOp9
 70
     1
102
RTVSPropertyOp10
 70
     1
102
RTVSPropertyOp11
 70
     1
102
RTVSPropertyOp12
 70
     1
102
RTVSPropertyOp13
 70
     1
102
RTVSPropertyOp14
 70
     1
102
RTVSPropertyOp15
 70
     1
102
RTVSPropertyOp16
 70
     1
102
RTVSPropertyOp17
 70
     1
102
RTVSPropertyOp18
 70
     1
102
RTVSPropertyOp19
 70
     1
102
RTVSPropertyOp20
 70
     1
102
RTVSPropertyOp21
 70
     1
102
RTVSPropertyOp22
 70
     1
102
RTVSPropertyOp23
 70
     1
102
RTVSPropertyOp24
 70
     1
102
RTVSPropertyOp25
 70
     1
102
RTVSPropertyOp26
 70
     1
102
RTVSPropertyOp27
 70
     1
102
RTVSPropertyOp28
 70
     1
102
RTVSPropertyOp29
 70
     1
102
RTVSPropertyOp30
 70
     1
102
RTVSPropertyOp31
 70
     1
102
RTVSPropertyOp32
 70
     1
102
RTVSPropertyOp33
 70
     1
102
RTVSPropertyOp34
 70
     1
102
RTVSPropertyOp35
 70
     1
102
RTVSPropertyOp36
 70
     1
102
RTVSPropertyOp37
 70
     1
102
RTVSPropertyOp38
 70
     1
102
RTVSPropertyOp39
 70
     1
102
RTVSPropertyOp40
 70
     1
102
RTVSPropertyOp41
 70
     1
102
RTVSPropertyOp42
 70
     1
102
RTVSPropertyOp43
 70
     1
102
RTVSPropertyOp44
 70
     1
102
RTVSPropertyOp45
 70
     1
102
RTVSPropertyOp46
 70
     1
102
RTVSPropertyOp47
 70
     1
102
RTVSPropertyOp48
 70
     1
102
RTVSPropertyOp49
 70
     1
102
RTVSPropertyOp50
 70
     1
102
RTVSPropertyOp51
 70
     0
102
RTVSPropertyOp52
 70
     0
102
RTVSPropertyOp53
 70
     1
102
RTVSPropertyOp54
 70
     1
102
RTVSPropertyOp55
 70
     1
102
RTVSPropertyOp56
 70
     1
102
RTVSPropertyOp57
 70
     1
102
RTVSPropertyOp58
 70
     1
102
RTVSPropertyOp59
 70
     1
102
RTVSPropertyOp60
 70
     1
102
RTVSPropertyOp61
 70
     1
102
RTVSPropertyOp62
 70
     1
  0
XRECORD
  5
66F3
102
{ACAD_REACTORS
330
66F2
102
}
330
66F2
100
AcDbXrecord
280
     1
102
RTVSPost2010Prop28
280
     0
102
RTVSPost2010PropOp28
 70
     1
102
RTVSPost2010Prop29
280
     1
102
RTVSPost2010PropOp29
 70
     1
102
RTVSPost2010Prop30
280
     1
102
RTVSPost2010PropOp30
 70
     1
102
RTVSPost2010Prop31
280
     0
102
RTVSPost2010PropOp31
 70
     1
102
RTVSPost2010Prop32
280
     0
102
RTVSPost2010PropOp32
 70
     1
102
RTVSPost2010Prop33
280
     0
102
RTVSPost2010PropOp33
 70
     1
102
RTVSPost2010Prop34
280
     0
102
RTVSPost2010PropOp34
 70
     1
102
RTVSPost2010Prop35
280
     0
102
RTVSPost2010PropOp35
 70
     1
102
RTVSPost2010Prop36
280
     0
102
RTVSPost2010PropOp36
 70
     1
102
RTVSPost2010Prop37
 90
       50
102
RTVSPost2010PropOp37
 70
     1
102
RTVSPost2010Prop38
140
0.0
102
RTVSPost2010PropOp38
 70
     1
102
RTVSPost2010Prop39
140
1.0
102
RTVSPost2010PropOp39
 70
     1
102
RTVSPost2010Prop40
 90
        0
102
RTVSPost2010PropOp40
 70
     1
102
RTVSPost2010Prop41ColorIndex
 90
       18
102
RTVSPost2010Prop41ColorRGB
 90
        0
102
RTVSPost2010PropOp41
 70
     1
102
RTVSPost2010Prop42
 90
       50
102
RTVSPost2010PropOp42
 70
     1
102
RTVSPost2010Prop43
 90
        3
102
RTVSPost2010PropOp43
 70
     1
102
RTVSPost2010Prop44ColorIndex
 90
        5
102
RTVSPost2010Prop44ColorRGB
 90
      255
102
RTVSPost2010PropOp44
 70
     1
102
RTVSPost2010Prop45
280
     0
102
RTVSPost2010PropOp45
 70
     1
102
RTVSPost2010Prop46
 90
       50
102
RTVSPost2010PropOp46
 70
     1
102
RTVSPost2010Prop47
 90
       50
102
RTVSPost2010PropOp47
 70
     1
102
RTVSPost2010Prop48
 90
       50
102
RTVSPost2010PropOp48
 70
     1
102
RTVSPost2010Prop49
280
     0
102
RTVSPost2010PropOp49
 70
     1
102
RTVSPost2010Prop50
 90
       50
102
RTVSPost2010PropOp50
 70
     1
102
RTVSPost2010Prop51ColorIndex
 90
      256
102
RTVSPost2010Prop51ColorRGB
 90
-16777216
102
RTVSPost2010PropOp51
 70
     0
102
RTVSPost2010Prop52
140
1.0
102
RTVSPost2010PropOp52
 70
     0
102
RTVSPost2010Prop53
 90
        2
102
RTVSPost2010PropOp53
 70
     1
102
RTVSPost2010Prop54
  1
strokes_ogs.tif
102
RTVSPost2010PropOp54
 70
     1
102
RTVSPost2010Prop55
280
     0
102
RTVSPost2010PropOp55
 70
     1
102
RTVSPost2010Prop56
140
1.0
102
RTVSPost2010PropOp56
 70
     1
102
RTVSPost2010Prop57
140
1.0
102
RTVSPost2010PropOp57
 70
     1
102
RTVSPropertyOp0
 70
     1
102
RTVSPropertyOp1
 70
     1
102
RTVSPropertyOp2
 70
     1
102
RTVSPropertyOp3
 70
     1
102
RTVSPropertyOp4
 70
     1
102
RTVSPropertyOp5
 70
     1
102
RTVSPropertyOp6
 70
     1
102
RTVSPropertyOp7
 70
     1
102
RTVSPropertyOp8
 70
     1
102
RTVSPropertyOp9
 70
     1
102
RTVSPropertyOp10
 70
     1
102
RTVSPropertyOp11
 70
     1
102
RTVSPropertyOp12
 70
     1
102
RTVSPropertyOp13
 70
     1
102
RTVSPropertyOp14
 70
     1
102
RTVSPropertyOp15
 70
     1
102
RTVSPropertyOp16
 70
     1
102
RTVSPropertyOp17
 70
     1
102
RTVSPropertyOp18
 70
     1
102
RTVSPropertyOp19
 70
     1
102
RTVSPropertyOp20
 70
     1
102
RTVSPropertyOp21
 70
     1
102
RTVSPropertyOp22
 70
     1
102
RTVSPropertyOp23
 70
     1
102
RTVSPropertyOp24
 70
     1
102
RTVSPropertyOp25
 70
     1
102
RTVSPropertyOp26
 70
     1
102
RTVSPropertyOp27
 70
     1
102
RTVSPropertyOp28
 70
     1
102
RTVSPropertyOp29
 70
     1
102
RTVSPropertyOp30
 70
     1
102
RTVSPropertyOp31
 70
     1
102
RTVSPropertyOp32
 70
     1
102
RTVSPropertyOp33
 70
     1
102
RTVSPropertyOp34
 70
     1
102
RTVSPropertyOp35
 70
     1
102
RTVSPropertyOp36
 70
     1
102
RTVSPropertyOp37
 70
     1
102
RTVSPropertyOp38
 70
     1
102
RTVSPropertyOp39
 70
     1
102
RTVSPropertyOp40
 70
     1
102
RTVSPropertyOp41
 70
     1
102
RTVSPropertyOp42
 70
     1
102
RTVSPropertyOp43
 70
     1
102
RTVSPropertyOp44
 70
     1
102
RTVSPropertyOp45
 70
     1
102
RTVSPropertyOp46
 70
     1
102
RTVSPropertyOp47
 70
     1
102
RTVSPropertyOp48
 70
     1
102
RTVSPropertyOp49
 70
     1
102
RTVSPropertyOp50
 70
     1
102
RTVSPropertyOp51
 70
     0
102
RTVSPropertyOp52
 70
     0
102
RTVSPropertyOp53
 70
     1
102
RTVSPropertyOp54
 70
     1
102
RTVSPropertyOp55
 70
     1
102
RTVSPropertyOp56
 70
     1
102
RTVSPropertyOp57
 70
     1
102
RTVSPropertyOp58
 70
     1
102
RTVSPropertyOp59
 70
     1
102
RTVSPropertyOp60
 70
     1
102
RTVSPropertyOp61
 70
     1
102
RTVSPropertyOp62
 70
     1
  0
ENDSEC
  0
EOF
