  0
SECTION
  2
HEADER
  9
$ACADVER
  1
AC1015
  9
$ACADMAINTVER
 70
    18
  9
$DWGCODEPAGE
  3
ANSI_1252
  9
$INSBASE
 10
0.0
 20
0.0
 30
0.0
  9
$EXTMIN
 10
-189.4216911371584
 20
-330.1324307230911
 30
-0.0015258207003583
  9
$EXTMAX
 10
189.4281012954052
 20
246.4335028299055
 30
0.0000000349246037
  9
$LIMMIN
 10
0.0
 20
0.0
  9
$LIMMAX
 10
420.0
 20
297.0
  9
$ORTHOMODE
 70
     0
  9
$REGENMODE
 70
     1
  9
$FILLMODE
 70
     1
  9
$QTEXTMODE
 70
     0
  9
$MIRRTEXT
 70
     0
  9
$LTSCALE
 40
1.0
  9
$ATTMODE
 70
     1
  9
$TEXTSIZE
 40
2.5
  9
$TRACEWID
 40
1.0
  9
$TEXTSTYLE
  7
Standard
  9
$CLAYER
  8
0
  9
$CELTYPE
  6
ByLayer
  9
$CECOLOR
 62
   256
  9
$CELTSCALE
 40
1.0
  9
$DISPSILH
 70
     0
  9
$DIMSCALE
 40
1.0
  9
$DIMASZ
 40
2.5
  9
$DIMEXO
 40
0.625
  9
$DIMDLI
 40
3.75
  9
$DIMRND
 40
0.0
  9
$DIMDLE
 40
0.0
  9
$DIMEXE
 40
1.25
  9
$DIMTP
 40
0.0
  9
$DIMTM
 40
0.0
  9
$DIMTXT
 40
2.5
  9
$DIMCEN
 40
2.5
  9
$DIMTSZ
 40
0.0
  9
$DIMTOL
 70
     0
  9
$DIMLIM
 70
     0
  9
$DIMTIH
 70
     0
  9
$DIMTOH
 70
     0
  9
$DIMSE1
 70
     0
  9
$DIMSE2
 70
     0
  9
$DIMTAD
 70
     1
  9
$DIMZIN
 70
     8
  9
$DIMBLK
  1

  9
$DIMASO
 70
     1
  9
$DIMSHO
 70
     1
  9
$DIMPOST
  1

  9
$DIMAPOST
  1

  9
$DIMALT
 70
     0
  9
$DIMALTD
 70
     3
  9
$DIMALTF
 40
0.03937007874016
  9
$DIMLFAC
 40
1.0
  9
$DIMTOFL
 70
     1
  9
$DIMTVP
 40
0.0
  9
$DIMTIX
 70
     0
  9
$DIMSOXD
 70
     0
  9
$DIMSAH
 70
     0
  9
$DIMBLK1
  1

  9
$DIMBLK2
  1

  9
$DIMSTYLE
  2
ISO-25
  9
$DIMCLRD
 70
     0
  9
$DIMCLRE
 70
     0
  9
$DIMCLRT
 70
     0
  9
$DIMTFAC
 40
1.0
  9
$DIMGAP
 40
0.625
  9
$DIMJUST
 70
     0
  9
$DIMSD1
 70
     0
  9
$DIMSD2
 70
     0
  9
$DIMTOLJ
 70
     0
  9
$DIMTZIN
 70
     8
  9
$DIMALTZ
 70
     0
  9
$DIMALTTZ
 70
     0
  9
$DIMUPT
 70
     0
  9
$DIMDEC
 70
     2
  9
$DIMTDEC
 70
     2
  9
$DIMALTU
 70
     2
  9
$DIMALTTD
 70
     3
  9
$DIMTXSTY
  7
Standard
  9
$DIMAUNIT
 70
     0
  9
$DIMADEC
 70
     0
  9
$DIMALTRND
 40
0.0
  9
$DIMAZIN
 70
     0
  9
$DIMDSEP
 70
    44
  9
$DIMATFIT
 70
     3
  9
$DIMFRAC
 70
     0
  9
$DIMLDRBLK
  1

  9
$DIMLUNIT
 70
     2
  9
$DIMLWD
 70
    -2
  9
$DIMLWE
 70
    -2
  9
$DIMTMOVE
 70
     0
  9
$LUNITS
 70
     2
  9
$LUPREC
 70
     4
  9
$SKETCHINC
 40
1.0
  9
$FILLETRAD
 40
0.0
  9
$AUNITS
 70
     0
  9
$AUPREC
 70
     0
  9
$MENU
  1
.
  9
$ELEVATION
 40
0.0
  9
$PELEVATION
 40
0.0
  9
$THICKNESS
 40
0.0
  9
$LIMCHECK
 70
     0
  9
$CHAMFERA
 40
0.0
  9
$CHAMFERB
 40
0.0
  9
$CHAMFERC
 40
0.0
  9
$CHAMFERD
 40
0.0
  9
$SKPOLY
 70
     0
  9
$TDCREATE
 40
2460367.705740741
  9
$TDUCREATE
 40
2460367.414074074
  9
$TDUPDATE
 40
2460367.713935185
  9
$TDUUPDATE
 40
2460367.422268519
  9
$TDINDWG
 40
0.0037731481
  9
$TDUSRTIMER
 40
0.0037731481
  9
$USRTIMER
 70
     1
  9
$ANGBASE
 50
0.0
  9
$ANGDIR
 70
     0
  9
$PDMODE
 70
     0
  9
$PDSIZE
 40
0.0
  9
$PLINEWID
 40
0.0
  9
$SPLFRAME
 70
     0
  9
$SPLINETYPE
 70
     6
  9
$SPLINESEGS
 70
     8
  9
$HANDSEED
  5
63B7
  9
$SURFTAB1
 70
     6
  9
$SURFTAB2
 70
     6
  9
$SURFTYPE
 70
     6
  9
$SURFU
 70
     6
  9
$SURFV
 70
     6
  9
$UCSBASE
  2

  9
$UCSNAME
  2

  9
$UCSORG
 10
0.0
 20
0.0
 30
0.0
  9
$UCSXDIR
 10
1.0
 20
0.0
 30
0.0
  9
$UCSYDIR
 10
0.0
 20
1.0
 30
0.0
  9
$UCSORTHOREF
  2

  9
$UCSORTHOVIEW
 70
     0
  9
$UCSORGTOP
 10
0.0
 20
0.0
 30
0.0
  9
$UCSORGBOTTOM
 10
0.0
 20
0.0
 30
0.0
  9
$UCSORGLEFT
 10
0.0
 20
0.0
 30
0.0
  9
$UCSORGRIGHT
 10
0.0
 20
0.0
 30
0.0
  9
$UCSORGFRONT
 10
0.0
 20
0.0
 30
0.0
  9
$UCSORGBACK
 10
0.0
 20
0.0
 30
0.0
  9
$PUCSBASE
  2

  9
$PUCSNAME
  2

  9
$PUCSORG
 10
0.0
 20
0.0
 30
0.0
  9
$PUCSXDIR
 10
1.0
 20
0.0
 30
0.0
  9
$PUCSYDIR
 10
0.0
 20
1.0
 30
0.0
  9
$PUCSORTHOREF
  2

  9
$PUCSORTHOVIEW
 70
     0
  9
$PUCSORGTOP
 10
0.0
 20
0.0
 30
0.0
  9
$PUCSORGBOTTOM
 10
0.0
 20
0.0
 30
0.0
  9
$PUCSORGLEFT
 10
0.0
 20
0.0
 30
0.0
  9
$PUCSORGRIGHT
 10
0.0
 20
0.0
 30
0.0
  9
$PUCSORGFRONT
 10
0.0
 20
0.0
 30
0.0
  9
$PUCSORGBACK
 10
0.0
 20
0.0
 30
0.0
  9
$USERI1
 70
     0
  9
$USERI2
 70
     0
  9
$USERI3
 70
     0
  9
$USERI4
 70
     0
  9
$USERI5
 70
     0
  9
$USERR1
 40
0.0
  9
$USERR2
 40
0.0
  9
$USERR3
 40
0.0
  9
$USERR4
 40
0.0
  9
$USERR5
 40
0.0
  9
$WORLDVIEW
 70
     1
  9
$SHADEDGE
 70
     3
  9
$SHADEDIF
 70
    70
  9
$TILEMODE
 70
     1
  9
$MAXACTVP
 70
    48
  9
$PINSBASE
 10
0.0
 20
0.0
 30
0.0
  9
$PLIMCHECK
 70
     0
  9
$PEXTMIN
 10
0.0
 20
0.0
 30
0.0
  9
$PEXTMAX
 10
0.0
 20
0.0
 30
0.0
  9
$PLIMMIN
 10
0.0
 20
0.0
  9
$PLIMMAX
 10
12.0
 20
9.0
  9
$UNITMODE
 70
     0
  9
$VISRETAIN
 70
     1
  9
$PLINEGEN
 70
     0
  9
$PSLTSCALE
 70
     1
  9
$TREEDEPTH
 70
  3020
  9
$CMLSTYLE
  2
Standard
  9
$CMLJUST
 70
     0
  9
$CMLSCALE
 40
20.0
  9
$PROXYGRAPHICS
 70
     1
  9
$MEASUREMENT
 70
     1
  9
$CELWEIGHT
370
    -1
  9
$ENDCAPS
280
     0
  9
$JOINSTYLE
280
     0
  9
$LWDISPLAY
290
     0
  9
$INSUNITS
 70
     4
  9
$HYPERLINKBASE
  1

  9
$STYLESHEET
  1

  9
$XEDIT
290
     1
  9
$CEPSNTYPE
380
     0
  9
$PSTYLEMODE
290
     1
  9
$FINGERPRINTGUID
  2
{09ACAAAA-6FF3-F94C-B944-1C0D1F37C415}
  9
$VERSIONGUID
  2
{E9F220FA-6FE2-534F-8EA5-37637C41D022}
  9
$EXTNAMES
290
     1
  9
$PSVPSCALE
 40
0.0
  9
$OLESTARTUP
290
     0
  0
ENDSEC
  0
SECTION
  2
CLASSES
  0
CLASS
  1
ACDBDICTIONARYWDFLT
  2
AcDbDictionaryWithDefault
  3
ObjectDBX Classes
 90
        0
280
     0
281
     0
  0
CLASS
  1
ACDBPLACEHOLDER
  2
AcDbPlaceHolder
  3
ObjectDBX Classes
 90
        0
280
     0
281
     0
  0
CLASS
  1
LAYOUT
  2
AcDbLayout
  3
ObjectDBX Classes
 90
        0
280
     0
281
     0
  0
CLASS
  1
DICTIONARYVAR
  2
AcDbDictionaryVar
  3
ObjectDBX Classes
 90
        0
280
     0
281
     0
  0
CLASS
  1
TABLESTYLE
  2
AcDbTableStyle
  3
ObjectDBX Classes
 90
     4095
280
     0
281
     0
  0
CLASS
  1
MATERIAL
  2
AcDbMaterial
  3
ObjectDBX Classes
 90
     1153
280
     0
281
     0
  0
CLASS
  1
VISUALSTYLE
  2
AcDbVisualStyle
  3
ObjectDBX Classes
 90
     4095
280
     0
281
     0
  0
CLASS
  1
SCALE
  2
AcDbScale
  3
ObjectDBX Classes
 90
     1153
280
     0
281
     0
  0
CLASS
  1
MLEADERSTYLE
  2
AcDbMLeaderStyle
  3
ACDB_MLEADERSTYLE_CLASS
 90
     4095
280
     0
281
     0
  0
CLASS
  1
CELLSTYLEMAP
  2
AcDbCellStyleMap
  3
ObjectDBX Classes
 90
     1152
280
     0
281
     0
  0
CLASS
  1
EXACXREFPANELOBJECT
  2
ExAcXREFPanelObject
  3
EXAC_ESW
 90
    33793
280
     0
281
     0
  0
CLASS
  1
NPOCOLLECTION
  2
AcDbImpNonPersistentObjectsCollection
  3
ObjectDBX Classes
 90
    33921
280
     0
281
     0
  0
CLASS
  1
LAYER_INDEX
  2
AcDbLayerIndex
  3
ObjectDBX Classes
 90
    32768
280
     0
281
     0
  0
CLASS
  1
SPATIAL_INDEX
  2
AcDbSpatialIndex
  3
ObjectDBX Classes
 90
    32768
280
     0
281
     0
  0
CLASS
  1
IDBUFFER
  2
AcDbIdBuffer
  3
ObjectDBX Classes
 90
    32768
280
     0
281
     0
  0
CLASS
  1
ACDBSECTIONVIEWSTYLE
  2
AcDbSectionViewStyle
  3
ObjectDBX Classes
 90
     1025
280
     0
281
     0
  0
CLASS
  1
ACDBDETAILVIEWSTYLE
  2
AcDbDetailViewStyle
  3
ObjectDBX Classes
 90
     1025
280
     0
281
     0
  0
CLASS
  1
XRECORD
  2
AcDbXrecord
  3
ObjectDBX Classes
 90
        0
280
     0
281
     0
  0
ENDSEC
  0
SECTION
  2
TABLES
  0
TABLE
  2
VPORT
  5
8
102
{ACAD_XDICTIONARY
360
62C5
102
}
330
0
100
AcDbSymbolTable
 70
     1
  0
VPORT
  5
EA
330
8
100
AcDbSymbolTableRecord
100
AcDbViewportTableRecord
  2
*Active
 70
     0
 10
0.0
 20
0.0
 11
1.0
 21
1.0
 12
0.00320507912339
 22
-41.84946394659283
 13
0.0
 23
0.0
 14
10.0
 24
10.0
 15
10.0
 25
10.0
 16
0.0
 26
0.0
 36
1.0
 17
0.0
 27
0.0
 37
0.0
 40
613.1256200168386
 41
0.9846153846153846
 42
50.0
 43
0.0
 44
0.0
 50
0.0
 51
0.0
 71
     0
 72
  1000
 73
     1
 74
     3
 75
     0
 76
     1
 77
     0
 78
     0
281
     0
 65
     1
110
0.0
120
0.0
130
0.0
111
1.0
121
0.0
131
0.0
112
0.0
122
1.0
132
0.0
 79
     0
146
0.0
1001
ACAD_NAV_VCDISPLAY
1070
     3
  0
ENDTAB
  0
TABLE
  2
LTYPE
  5
5
330
0
100
AcDbSymbolTable
 70
     1
  0
LTYPE
  5
14
330
5
100
AcDbSymbolTableRecord
100
AcDbLinetypeTableRecord
  2
ByBlock
 70
     0
  3

 72
    65
 73
     0
 40
0.0
  0
LTYPE
  5
15
330
5
100
AcDbSymbolTableRecord
100
AcDbLinetypeTableRecord
  2
ByLayer
 70
     0
  3

 72
    65
 73
     0
 40
0.0
  0
LTYPE
  5
16
330
5
100
AcDbSymbolTableRecord
100
AcDbLinetypeTableRecord
  2
Continuous
 70
     0
  3
Solid line
 72
    65
 73
     0
 40
0.0
  0
ENDTAB
  0
TABLE
  2
LAYER
  5
2
102
{ACAD_XDICTIONARY
360
1FF
102
}
330
0
100
AcDbSymbolTable
 70
     1
  0
LAYER
  5
10
102
{ACAD_XDICTIONARY
360
13C
102
}
330
2
100
AcDbSymbolTableRecord
100
AcDbLayerTableRecord
  2
0
 70
     0
 62
     7
  6
Continuous
370
    -3
390
F
  0
ENDTAB
  0
TABLE
  2
STYLE
  5
3
330
0
100
AcDbSymbolTable
 70
     1
  0
STYLE
  5
11
330
3
100
AcDbSymbolTableRecord
100
AcDbTextStyleTableRecord
  2
Standard
 70
     0
 40
0.0
 41
1.0
 50
0.0
 71
     0
 42
2.5
  3
arial.ttf
  4

1001
ACAD
1000
Arial
1071
       34
  0
ENDTAB
  0
TABLE
  2
VIEW
  5
6
330
0
100
AcDbSymbolTable
 70
     0
  0
ENDTAB
  0
TABLE
  2
UCS
  5
7
330
0
100
AcDbSymbolTable
 70
     0
  0
ENDTAB
  0
TABLE
  2
APPID
  5
9
330
0
100
AcDbSymbolTable
 70
     8
  0
APPID
  5
12
330
9
100
AcDbSymbolTableRecord
100
AcDbRegAppTableRecord
  2
ACAD
 70
     0
  0
APPID
  5
9E
330
9
100
AcDbSymbolTableRecord
100
AcDbRegAppTableRecord
  2
ACAD_PSEXT
 70
     0
  0
APPID
  5
133
330
9
100
AcDbSymbolTableRecord
100
AcDbRegAppTableRecord
  2
AcadAnnoPO
 70
     0
  0
APPID
  5
134
330
9
100
AcDbSymbolTableRecord
100
AcDbRegAppTableRecord
  2
AcadAnnotative
 70
     0
  0
APPID
  5
135
330
9
100
AcDbSymbolTableRecord
100
AcDbRegAppTableRecord
  2
ACAD_DSTYLE_DIMJAG
 70
     0
  0
APPID
  5
136
330
9
100
AcDbSymbolTableRecord
100
AcDbRegAppTableRecord
  2
ACAD_DSTYLE_DIMTALN
 70
     0
  0
APPID
  5
165
330
9
100
AcDbSymbolTableRecord
100
AcDbRegAppTableRecord
  2
ACAD_MLEADERVER
 70
     0
  0
APPID
  5
217
330
9
100
AcDbSymbolTableRecord
100
AcDbRegAppTableRecord
  2
ACAD_NAV_VCDISPLAY
 70
     0
  0
ENDTAB
  0
TABLE
  2
DIMSTYLE
  5
A
330
0
100
AcDbSymbolTable
 70
     1
100
AcDbDimStyleTable
 71
     0
  0
DIMSTYLE
105
27
330
A
100
AcDbSymbolTableRecord
100
AcDbDimStyleTableRecord
  2
ISO-25
 70
     0
 41
2.5
 42
0.625
 43
3.75
 44
1.25
 73
     0
 74
     0
 77
     1
 78
     8
140
2.5
141
2.5
143
0.03937007874016
147
0.625
171
     3
172
     1
271
     2
272
     2
274
     3
278
    44
283
     0
284
     8
340
11
  0
ENDTAB
  0
TABLE
  2
BLOCK_RECORD
  5
1
330
0
100
AcDbSymbolTable
 70
     7
  0
BLOCK_RECORD
  5
1F
102
{ACAD_XDICTIONARY
360
1CE
102
}
330
1
100
AcDbSymbolTableRecord
100
AcDbBlockTableRecord
  2
*Model_Space
340
22
  0
BLOCK_RECORD
  5
D2
102
{ACAD_XDICTIONARY
360
6278
102
}
330
1
100
AcDbSymbolTableRecord
100
AcDbBlockTableRecord
  2
*Paper_Space
340
D3
  0
BLOCK_RECORD
  5
D6
102
{ACAD_XDICTIONARY
360
627A
102
}
330
1
100
AcDbSymbolTableRecord
100
AcDbBlockTableRecord
  2
*Paper_Space0
340
D7
  0
BLOCK_RECORD
  5
6003
330
1
100
AcDbSymbolTableRecord
100
AcDbBlockTableRecord
  2
TU20-Front
340
0
102
{BLKREFS
331
626E
102
}
  0
BLOCK_RECORD
  5
6073
330
1
100
AcDbSymbolTableRecord
100
AcDbBlockTableRecord
  2
TU20-Left
340
0
102
{BLKREFS
331
626F
102
}
  0
BLOCK_RECORD
  5
60B7
330
1
100
AcDbSymbolTableRecord
100
AcDbBlockTableRecord
  2
TU20-Right
340
0
102
{BLKREFS
331
6270
102
}
  0
BLOCK_RECORD
  5
60FB
330
1
100
AcDbSymbolTableRecord
100
AcDbBlockTableRecord
  2
TU20-Top
340
0
102
{BLKREFS
331
6271
102
}
  0
BLOCK_RECORD
  5
6150
330
1
100
AcDbSymbolTableRecord
100
AcDbBlockTableRecord
  2
TU20-Bottom
340
0
102
{BLKREFS
331
6272
102
}
  0
BLOCK_RECORD
  5
6182
330
1
100
AcDbSymbolTableRecord
100
AcDbBlockTableRecord
  2
TU20-ISO
340
0
102
{BLKREFS
331
6273
102
}
  0
ENDTAB
  0
ENDSEC
  0
SECTION
  2
BLOCKS
  0
BLOCK
  5
20
330
1F
100
AcDbEntity
  8
0
100
AcDbBlockBegin
  2
*Model_Space
 70
     0
 10
0.0
 20
0.0
 30
0.0
  3
*Model_Space
  1

  0
ENDBLK
  5
21
330
1F
100
AcDbEntity
  8
0
100
AcDbBlockEnd
  0
BLOCK
  5
D4
330
D2
100
AcDbEntity
 67
     1
  8
0
100
AcDbBlockBegin
  2
*Paper_Space
 70
     0
 10
0.0
 20
0.0
 30
0.0
  3
*Paper_Space
  1

  0
ENDBLK
  5
D5
330
D2
100
AcDbEntity
 67
     1
  8
0
100
AcDbBlockEnd
  0
BLOCK
  5
D8
330
D6
100
AcDbEntity
 67
     1
  8
0
100
AcDbBlockBegin
  2
*Paper_Space0
 70
     0
 10
0.0
 20
0.0
 30
0.0
  3
*Paper_Space0
  1

  0
ENDBLK
  5
D9
330
D6
100
AcDbEntity
 67
     1
  8
0
100
AcDbBlockEnd
  0
BLOCK
  5
6004
330
6003
100
AcDbEntity
  8
0
100
AcDbBlockBegin
  2
TU20-Front
 70
     0
 10
0.0
 20
0.0
 30
0.0
  3
TU20-Front
  1

  0
LINE
  5
6006
330
6003
100
AcDbEntity
  8
0
100
AcDbLine
 10
4.500000000000016
 20
-3.249999999999975
 30
0.0
 11
1.652750592382117
 21
-3.250000000000012
 31
0.0
  0
SPLINE
  5
6007
330
6003
100
AcDbEntity
  8
0
100
AcDbSpline
210
0.0
220
0.0
230
1.0
 70
     8
 71
     3
 72
    12
 73
     8
 74
     0
 42
0.000000001
 43
0.0000000001
 40
0.0
 40
0.0
 40
0.0
 40
0.0
 40
0.04637596600491
 40
0.04637596600491
 40
0.0752344047793535
 40
0.0752344047793535
 40
0.1164597033193082
 40
0.1164597033193082
 40
0.1164597033193082
 40
0.1164597033193082
 10
1.652750592382108
 20
-3.249999999999992
 30
0.0
 10
1.604051852866515
 20
-3.250002234304485
 30
0.0
 10
1.5678435804769
 20
-3.221797932506227
 30
0.0
 10
1.527972406043563
 20
-3.134644979178649
 30
0.0
 10
1.517383414123443
 20
-3.091882110420147
 30
0.0
 10
1.50071988764181
 20
-2.96878307477046
 30
0.0
 10
1.50000000000001
 20
-2.893863649590784
 30
0.0
 10
1.50000000000001
 20
-2.849314533975118
 30
0.0
  0
SPLINE
  5
6008
330
6003
100
AcDbEntity
  8
0
100
AcDbSpline
210
0.0
220
0.0
230
1.0
 70
     8
 71
     3
 72
    12
 73
     8
 74
     0
 42
0.000000001
 43
0.0000000001
 40
0.3975413773999053
 40
0.3975413773999053
 40
0.3975413773999053
 40
0.3975413773999053
 40
0.4924973234352621
 40
0.4924973234352621
 40
0.5936467899772168
 40
0.5936467899772168
 40
0.7611251630148886
 40
0.7611251630148886
 40
0.7611251630148886
 40
0.7611251630148886
 10
4.000011975311781
 20
-52.47288732846694
 30
0.0
 10
4.090281896124072
 20
-52.59330652557694
 30
0.0
 10
4.17109351415769
 20
-52.72773035217437
 30
0.0
 10
4.313761828380087
 20
-53.03047903846974
 30
0.0
 10
4.371358554569606
 20
-53.19481987671806
 30
0.0
 10
4.482867459146316
 20
-53.64074827662969
 30
0.0
 10
4.500023436785188
 20
-53.88957521479429
 30
0.0
 10
4.500000000000017
 20
-54.07443401210679
 30
0.0
  0
SPLINE
  5
6009
330
6003
100
AcDbEntity
  8
0
100
AcDbSpline
210
0.0
220
0.0
230
1.0
 70
     8
 71
     3
 72
    12
 73
     8
 74
     0
 42
0.000000001
 43
0.0000000001
 40
0.0
 40
0.0
 40
0.0
 40
0.0
 40
0.0405976442387214
 40
0.0405976442387214
 40
0.0716043848039409
 40
0.0716043848039409
 40
0.0808633911555681
 40
0.0808633911555681
 40
0.0808633911555681
 40
0.0808633911555681
 10
4.499999999999999
 20
-54.07443401210677
 30
0.0
 10
4.500109837324958
 20
-53.93910857588594
 30
0.0
 10
4.481697147639606
 20
-53.76033752397013
 30
0.0
 10
4.3540279542307
 20
-53.40063936822392
 30
0.0
 10
4.26655326785968
 20
-53.22817092495579
 30
0.0
 10
4.088768740429238
 20
-52.99615750106784
 30
0.0
 10
4.045438593545904
 20
-52.94480351472819
 30
0.0
 10
4.000017695011934
 20
-52.89541418282732
 30
0.0
  0
ARC
  5
600A
330
6003
100
AcDbEntity
  8
0
100
AcDbCircle
 10
2.250000000000002
 20
-54.07443401210679
 30
0.0
 40
2.250000000000001
100
AcDbArc
 50
321.0575587310187
 51
0.0
  0
CIRCLE
  5
600B
330
6003
100
AcDbEntity
  8
0
100
AcDbCircle
 10
-24.0
 20
-81.0
 30
0.0
 40
2.499999999999997
  0
CIRCLE
  5
600C
330
6003
100
AcDbEntity
  8
0
100
AcDbCircle
 10
-3.999999999999996
 20
-81.0
 30
0.0
 40
2.499999999999997
  0
CIRCLE
  5
600D
330
6003
100
AcDbEntity
  8
0
100
AcDbCircle
 10
-13.99999999999999
 20
-71.0
 30
0.0
 40
2.5
  0
LINE
  5
600E
330
6003
100
AcDbEntity
  8
0
100
AcDbLine
 10
-28.74921318683182
 20
-69.02563229086641
 30
0.0
 11
-3.999999999999963
 21
-59.02630109460106
 31
0.0
  0
ARC
  5
600F
330
6003
100
AcDbEntity
  8
0
100
AcDbCircle
 10
-28.00000000000001
 20
-70.88
 30
0.0
 40
2.000000000000019
100
AcDbArc
 50
111.9999999999999
 51
180.0
  0
LINE
  5
6010
330
6003
100
AcDbEntity
  8
0
100
AcDbLine
 10
-30.0
 20
-85.0
 30
0.0
 11
-30.0
 21
-70.88
 31
0.0
  0
ARC
  5
6011
330
6003
100
AcDbEntity
  8
0
100
AcDbCircle
 10
-28.00000000000001
 20
-85.0
 30
0.0
 40
1.999999999999992
100
AcDbArc
 50
180.0
 51
270.0
  0
LINE
  5
6012
330
6003
100
AcDbEntity
  8
0
100
AcDbLine
 10
-1.732050807568879
 20
-87.0
 30
0.0
 11
-28.00000000000001
 21
-87.0
 31
0.0
  0
LINE
  5
6013
330
6003
100
AcDbEntity
  8
0
100
AcDbLine
 10
0.0
 20
-84.0
 30
0.0
 11
-1.732050807568879
 21
-87.0
 31
0.0
  0
LINE
  5
6014
330
6003
100
AcDbEntity
  8
0
100
AcDbLine
 10
1.732050807568874
 20
-87.0
 30
0.0
 11
0.0
 21
-84.0
 31
0.0
  0
LINE
  5
6015
330
6003
100
AcDbEntity
  8
0
100
AcDbLine
 10
28.00000000000001
 20
-87.0
 30
0.0
 11
1.732050807568872
 21
-87.0
 31
0.0
  0
ARC
  5
6016
330
6003
100
AcDbEntity
  8
0
100
AcDbCircle
 10
28.00000000000001
 20
-85.0
 30
0.0
 40
1.999999999999999
100
AcDbArc
 50
270.0
 51
0.0
  0
LINE
  5
6017
330
6003
100
AcDbEntity
  8
0
100
AcDbLine
 10
30.00000000000002
 20
-5.249999999999985
 30
0.0
 11
30.0
 21
-85.0
 31
0.0
  0
ARC
  5
6018
330
6003
100
AcDbEntity
  8
0
100
AcDbCircle
 10
28.00000000000001
 20
-5.249999999999985
 30
0.0
 40
2.00000000000001
100
AcDbArc
 50
0.0
 51
90.0
  0
LINE
  5
6019
330
6003
100
AcDbEntity
  8
0
100
AcDbLine
 10
4.500000000000017
 20
-3.249999999999992
 30
0.0
 11
28.00000000000002
 21
-3.249999999999992
 31
0.0
  0
ARC
  5
601A
330
6003
100
AcDbEntity
  8
0
100
AcDbCircle
 10
-2.24999999999999
 20
53.74443401210678
 30
0.0
 40
2.249999999999996
100
AcDbArc
 50
112.0
 51
180.0
  0
LINE
  5
601B
330
6003
100
AcDbEntity
  8
0
100
AcDbLine
 10
28.74921318683182
 20
68.69563229086643
 30
0.0
 11
1.500000000000052
 21
57.68623553001321
 31
0.0
  0
LINE
  5
601C
330
6003
100
AcDbEntity
  8
0
100
AcDbLine
 10
-1.499999999999966
 20
56.47415685250772
 30
0.0
 11
-3.092864835185793
 21
55.83059768488205
 31
0.0
  0
ARC
  5
601D
330
6003
100
AcDbEntity
  8
0
100
AcDbCircle
 10
27.99999999999999
 20
70.54999999999999
 30
0.0
 40
2.000000000000078
100
AcDbArc
 50
292.0000000000001
 51
0.0
  0
LINE
  5
601E
330
6003
100
AcDbEntity
  8
0
100
AcDbLine
 10
30.0
 20
85.00000000000003
 30
0.0
 11
29.99999999999999
 21
70.54999999999999
 31
0.0
  0
ARC
  5
601F
330
6003
100
AcDbEntity
  8
0
100
AcDbCircle
 10
27.99999999999999
 20
85.00000000000003
 30
0.0
 40
1.999999999999984
100
AcDbArc
 50
0.0
 51
90.0
  0
LINE
  5
6020
330
6003
100
AcDbEntity
  8
0
100
AcDbLine
 10
1.732050807568892
 20
87.00000000000002
 30
0.0
 11
27.99999999999999
 21
87.0
 31
0.0
  0
LINE
  5
6021
330
6003
100
AcDbEntity
  8
0
100
AcDbLine
 10
0.0
 20
84.00000000000003
 30
0.0
 11
1.732050807568892
 21
87.00000000000002
 31
0.0
  0
LINE
  5
6022
330
6003
100
AcDbEntity
  8
0
100
AcDbLine
 10
-1.732050807568879
 20
87.00000000000002
 30
0.0
 11
0.0
 21
84.00000000000003
 31
0.0
  0
LINE
  5
6023
330
6003
100
AcDbEntity
  8
0
100
AcDbLine
 10
-28.00000000000001
 20
87.00000000000002
 30
0.0
 11
-1.732050807568881
 21
87.00000000000002
 31
0.0
  0
ARC
  5
6024
330
6003
100
AcDbEntity
  8
0
100
AcDbCircle
 10
-28.00000000000001
 20
85.00000000000003
 30
0.0
 40
1.999999999999992
100
AcDbArc
 50
90.0
 51
180.0
  0
LINE
  5
6025
330
6003
100
AcDbEntity
  8
0
100
AcDbLine
 10
-30.0
 20
3.25000000000001
 30
0.0
 11
-30.0
 21
85.00000000000003
 31
0.0
  0
ARC
  5
6026
330
6003
100
AcDbEntity
  8
0
100
AcDbCircle
 10
-28.00000000000001
 20
3.25000000000001
 30
0.0
 40
2.00000000000001
100
AcDbArc
 50
180.0
 51
270.0
  0
LINE
  5
6027
330
6003
100
AcDbEntity
  8
0
100
AcDbLine
 10
-4.500000000000003
 20
1.25
 30
0.0
 11
-28.0
 21
1.250000000000017
 31
0.0
  0
CIRCLE
  5
6028
330
6003
100
AcDbEntity
  8
0
100
AcDbCircle
 10
4.00000000000001
 20
79.00000000000003
 30
0.0
 40
2.499999999999999
  0
CIRCLE
  5
6029
330
6003
100
AcDbEntity
  8
0
100
AcDbCircle
 10
24.00000000000001
 20
79.00000000000003
 30
0.0
 40
2.500000000000002
  0
CIRCLE
  5
602A
330
6003
100
AcDbEntity
  8
0
100
AcDbCircle
 10
14.00000000000001
 20
69.00000000000003
 30
0.0
 40
2.499999999999996
  0
LINE
  5
602B
330
6003
100
AcDbEntity
  8
0
100
AcDbLine
 10
1.500000000000068
 20
-79.00000000000002
 30
0.0
 11
-1.499999999999938
 21
-79.00000000000002
 31
0.0
  0
LINE
  5
602C
330
6003
100
AcDbEntity
  8
0
100
AcDbLine
 10
-1.499999999999939
 20
-79.00000000000002
 30
0.0
 11
-1.499999999999937
 21
-77.00000000000001
 31
0.0
  0
LINE
  5
602D
330
6003
100
AcDbEntity
  8
0
100
AcDbLine
 10
1.500000000000069
 20
-77.00000000000001
 30
0.0
 11
1.500000000000067
 21
-79.00000000000002
 31
0.0
  0
LINE
  5
602E
330
6003
100
AcDbEntity
  8
0
100
AcDbLine
 10
-1.49999999999992
 20
72.0
 30
0.0
 11
-1.499999999999938
 21
-77.00000000000001
 31
0.0
  0
LINE
  5
602F
330
6003
100
AcDbEntity
  8
0
100
AcDbLine
 10
1.500000000000068
 20
-77.00000000000001
 30
0.0
 11
1.500000000000086
 21
72.0
 31
0.0
  0
LINE
  5
6030
330
6003
100
AcDbEntity
  8
0
100
AcDbLine
 10
-1.49999999999992
 20
72.0
 30
0.0
 11
-1.49999999999992
 21
73.99999999999998
 31
0.0
  0
LINE
  5
6031
330
6003
100
AcDbEntity
  8
0
100
AcDbLine
 10
1.500000000000086
 20
73.99999999999998
 30
0.0
 11
1.500000000000087
 21
72.0
 31
0.0
  0
LINE
  5
6032
330
6003
100
AcDbEntity
  8
0
100
AcDbLine
 10
1.500000000000085
 20
74.00000000000003
 30
0.0
 11
-1.499999999999921
 21
74.00000000000003
 31
0.0
  0
LINE
  5
6033
330
6003
100
AcDbEntity
  8
0
100
AcDbLine
 10
-1.499999999999944
 20
74.99999999999997
 30
0.0
 11
-1.499999999999944
 21
74.00000000000005
 31
0.0
  0
LINE
  5
6034
330
6003
100
AcDbEntity
  8
0
100
AcDbLine
 10
1.500000000000062
 20
74.00000000000005
 30
0.0
 11
1.500000000000062
 21
74.99999999999997
 31
0.0
  0
LINE
  5
6035
330
6003
100
AcDbEntity
  8
0
100
AcDbLine
 10
-1.499999999999943
 20
74.99999999999997
 30
0.0
 11
-1.499999999999944
 21
75.99999999999997
 31
0.0
  0
LINE
  5
6036
330
6003
100
AcDbEntity
  8
0
100
AcDbLine
 10
1.500000000000062
 20
75.99999999999997
 30
0.0
 11
1.500000000000063
 21
74.99999999999997
 31
0.0
  0
LINE
  5
6037
330
6003
100
AcDbEntity
  8
0
100
AcDbLine
 10
1.500000000000062
 20
75.99999999999997
 30
0.0
 11
-1.499999999999944
 21
75.99999999999997
 31
0.0
  0
CIRCLE
  5
6038
330
6003
100
AcDbEntity
  8
0
100
AcDbCircle
 10
24.00000000000001
 20
-21.00000000000001
 30
0.0
 40
2.500000000000001
  0
CIRCLE
  5
6039
330
6003
100
AcDbEntity
  8
0
100
AcDbCircle
 10
14.00000000000001
 20
-11.00000000000001
 30
0.0
 40
2.500000000000002
  0
CIRCLE
  5
603A
330
6003
100
AcDbEntity
  8
0
100
AcDbCircle
 10
-13.99999999999999
 20
69.00000000000003
 30
0.0
 40
2.500000000000003
  0
CIRCLE
  5
603B
330
6003
100
AcDbEntity
  8
0
100
AcDbCircle
 10
-24.0
 20
79.00000000000003
 30
0.0
 40
2.5
  0
CIRCLE
  5
603C
330
6003
100
AcDbEntity
  8
0
100
AcDbCircle
 10
24.00000000000001
 20
-41.0
 30
0.0
 40
2.500000000000001
  0
CIRCLE
  5
603D
330
6003
100
AcDbEntity
  8
0
100
AcDbCircle
 10
14.00000000000001
 20
-31.00000000000001
 30
0.0
 40
2.500000000000002
  0
CIRCLE
  5
603E
330
6003
100
AcDbEntity
  8
0
100
AcDbCircle
 10
24.00000000000001
 20
-61.0
 30
0.0
 40
2.500000000000001
  0
CIRCLE
  5
603F
330
6003
100
AcDbEntity
  8
0
100
AcDbCircle
 10
14.00000000000001
 20
-51.00000000000001
 30
0.0
 40
2.500000000000002
  0
CIRCLE
  5
6040
330
6003
100
AcDbEntity
  8
0
100
AcDbCircle
 10
24.00000000000001
 20
-81.0
 30
0.0
 40
2.500000000000001
  0
CIRCLE
  5
6041
330
6003
100
AcDbEntity
  8
0
100
AcDbCircle
 10
14.00000000000001
 20
-71.00000000000001
 30
0.0
 40
2.500000000000002
  0
CIRCLE
  5
6042
330
6003
100
AcDbEntity
  8
0
100
AcDbCircle
 10
-13.99999999999999
 20
49.00000000000002
 30
0.0
 40
2.500000000000003
  0
CIRCLE
  5
6043
330
6003
100
AcDbEntity
  8
0
100
AcDbCircle
 10
-24.0
 20
59.00000000000002
 30
0.0
 40
2.5
  0
CIRCLE
  5
6044
330
6003
100
AcDbEntity
  8
0
100
AcDbCircle
 10
-14.0
 20
29.00000000000002
 30
0.0
 40
2.500000000000003
  0
CIRCLE
  5
6045
330
6003
100
AcDbEntity
  8
0
100
AcDbCircle
 10
-24.0
 20
39.00000000000002
 30
0.0
 40
2.5
  0
CIRCLE
  5
6046
330
6003
100
AcDbEntity
  8
0
100
AcDbCircle
 10
-14.0
 20
9.000000000000021
 30
0.0
 40
2.500000000000003
  0
CIRCLE
  5
6047
330
6003
100
AcDbEntity
  8
0
100
AcDbCircle
 10
-24.00000000000001
 20
19.00000000000002
 30
0.0
 40
2.5
  0
LINE
  5
6048
330
6003
100
AcDbEntity
  8
0
100
AcDbLine
 10
-3.999999999999941
 20
27.4770166537926
 30
0.0
 11
-3.999999999999943
 21
10.52298334620744
 31
0.0
  0
ARC
  5
6049
330
6003
100
AcDbEntity
  8
0
100
AcDbCircle
 10
-1.499999999999941
 20
27.4770166537926
 30
0.0
 40
2.5
100
AcDbArc
 50
114.3157391711763
 51
180.0
  0
ARC
  5
604A
330
6003
100
AcDbEntity
  8
0
100
AcDbCircle
 10
-1.499999999999943
 20
10.52298334620744
 30
0.0
 40
2.5
100
AcDbArc
 50
180.0
 51
245.6842608288237
  0
ARC
  5
604B
330
6003
100
AcDbEntity
  8
0
100
AcDbCircle
 10
-3.24999999999993
 20
31.35000000000002
 30
0.0
 40
1.75
100
AcDbArc
 50
294.3157391711765
 51
0.0
  0
ARC
  5
604C
330
6003
100
AcDbEntity
  8
0
100
AcDbCircle
 10
-3.249999999999932
 20
6.650000000000027
 30
0.0
 40
1.75
100
AcDbArc
 50
0.0
 51
65.68426082882351
  0
LINE
  5
604D
330
6003
100
AcDbEntity
  8
0
100
AcDbLine
 10
4.000000000000039
 20
31.97701665379261
 30
0.0
 11
4.000000000000038
 21
19.02298334620743
 31
0.0
  0
ARC
  5
604E
330
6003
100
AcDbEntity
  8
0
100
AcDbCircle
 10
1.500000000000039
 20
31.97701665379261
 30
0.0
 40
2.5
100
AcDbArc
 50
0.0
 51
65.68426082882339
  0
ARC
  5
604F
330
6003
100
AcDbEntity
  8
0
100
AcDbCircle
 10
1.500000000000038
 20
19.02298334620743
 30
0.0
 40
2.5
100
AcDbArc
 50
294.3157391711766
 51
0.0
  0
ARC
  5
6050
330
6003
100
AcDbEntity
  8
0
100
AcDbCircle
 10
3.250000000000047
 20
35.85000000000003
 30
0.0
 40
1.75
100
AcDbArc
 50
180.0
 51
245.6842608288235
  0
ARC
  5
6051
330
6003
100
AcDbEntity
  8
0
100
AcDbCircle
 10
3.250000000000045
 20
15.15000000000002
 30
0.0
 40
1.75
100
AcDbArc
 50
114.3157391711765
 51
180.0
  0
LINE
  5
6052
330
6003
100
AcDbEntity
  8
0
100
AcDbLine
 10
-3.999999999999941
 20
-12.5229833462074
 30
0.0
 11
-3.999999999999943
 21
-29.47701665379257
 31
0.0
  0
LINE
  5
6053
330
6003
100
AcDbEntity
  8
0
100
AcDbLine
 10
-3.999999999999941
 20
-52.5229833462074
 30
0.0
 11
-3.999999999999943
 21
-69.47701665379257
 31
0.0
  0
LINE
  5
6054
330
6003
100
AcDbEntity
  8
0
100
AcDbLine
 10
4.000000000000039
 20
-8.022983346207395
 30
0.0
 11
4.000000000000038
 21
-20.97701665379258
 31
0.0
  0
LINE
  5
6055
330
6003
100
AcDbEntity
  8
0
100
AcDbLine
 10
4.000000000000039
 20
-48.0229833462074
 30
0.0
 11
4.000000000000038
 21
-60.97701665379258
 31
0.0
  0
ARC
  5
6056
330
6003
100
AcDbEntity
  8
0
100
AcDbCircle
 10
-1.499999999999941
 20
-12.5229833462074
 30
0.0
 40
2.5
100
AcDbArc
 50
114.3157391711766
 51
180.0
  0
ARC
  5
6057
330
6003
100
AcDbEntity
  8
0
100
AcDbCircle
 10
-1.499999999999943
 20
-29.47701665379257
 30
0.0
 40
2.5
100
AcDbArc
 50
180.0
 51
245.6842608288233
  0
ARC
  5
6058
330
6003
100
AcDbEntity
  8
0
100
AcDbCircle
 10
-3.249999999999948
 20
-8.649999999999993
 30
0.0
 40
1.75
100
AcDbArc
 50
294.3157391711765
 51
0.0
  0
ARC
  5
6059
330
6003
100
AcDbEntity
  8
0
100
AcDbCircle
 10
-3.24999999999995
 20
-33.34999999999998
 30
0.0
 40
1.75
100
AcDbArc
 50
0.0
 51
65.68426082882351
  0
ARC
  5
605A
330
6003
100
AcDbEntity
  8
0
100
AcDbCircle
 10
-1.499999999999941
 20
-52.5229833462074
 30
0.0
 40
2.5
100
AcDbArc
 50
114.3157391711767
 51
180.0
  0
ARC
  5
605B
330
6003
100
AcDbEntity
  8
0
100
AcDbCircle
 10
-1.499999999999943
 20
-69.47701665379257
 30
0.0
 40
2.5
100
AcDbArc
 50
180.0
 51
245.6842608288233
  0
ARC
  5
605C
330
6003
100
AcDbEntity
  8
0
100
AcDbCircle
 10
-3.249999999999948
 20
-48.64999999999999
 30
0.0
 40
1.75
100
AcDbArc
 50
294.3157391711765
 51
0.0
  0
ARC
  5
605D
330
6003
100
AcDbEntity
  8
0
100
AcDbCircle
 10
-3.24999999999995
 20
-73.34999999999998
 30
0.0
 40
1.75
100
AcDbArc
 50
0.0
 51
65.68426082882351
  0
ARC
  5
605E
330
6003
100
AcDbEntity
  8
0
100
AcDbCircle
 10
1.500000000000039
 20
-8.022983346207395
 30
0.0
 40
2.5
100
AcDbArc
 50
0.0
 51
65.68426082882337
  0
ARC
  5
605F
330
6003
100
AcDbEntity
  8
0
100
AcDbCircle
 10
1.500000000000038
 20
-20.97701665379258
 30
0.0
 40
2.5
100
AcDbArc
 50
294.3157391711766
 51
0.0
  0
ARC
  5
6060
330
6003
100
AcDbEntity
  8
0
100
AcDbCircle
 10
3.250000000000029
 20
-4.149999999999982
 30
0.0
 40
1.75
100
AcDbArc
 50
180.0
 51
245.684260828824
  0
ARC
  5
6061
330
6003
100
AcDbEntity
  8
0
100
AcDbCircle
 10
3.250000000000027
 20
-24.84999999999999
 30
0.0
 40
1.75
100
AcDbArc
 50
114.315739171176
 51
180.0
  0
ARC
  5
6062
330
6003
100
AcDbEntity
  8
0
100
AcDbCircle
 10
1.500000000000039
 20
-48.0229833462074
 30
0.0
 40
2.5
100
AcDbArc
 50
0.0
 51
65.68426082882332
  0
ARC
  5
6063
330
6003
100
AcDbEntity
  8
0
100
AcDbCircle
 10
1.500000000000038
 20
-60.97701665379258
 30
0.0
 40
2.5
100
AcDbArc
 50
294.3157391711768
 51
0.0
  0
ARC
  5
6064
330
6003
100
AcDbEntity
  8
0
100
AcDbCircle
 10
3.250000000000029
 20
-44.14999999999998
 30
0.0
 40
1.75
100
AcDbArc
 50
180.0
 51
245.6842608288241
  0
ARC
  5
6065
330
6003
100
AcDbEntity
  8
0
100
AcDbCircle
 10
3.250000000000027
 20
-64.84999999999998
 30
0.0
 40
1.75
100
AcDbArc
 50
114.3157391711759
 51
180.0
  0
LINE
  5
6066
330
6003
100
AcDbEntity
  8
0
100
AcDbLine
 10
-3.999999999999974
 20
45.1270166537926
 30
0.0
 11
-3.999999999999974
 21
45.0
 31
0.0
  0
LINE
  5
6067
330
6003
100
AcDbEntity
  8
0
100
AcDbLine
 10
-3.999999999999974
 20
-46.99999999999997
 30
0.0
 11
-3.999999999999974
 21
-47.12701665379256
 31
0.0
  0
ARC
  5
6068
330
6003
100
AcDbEntity
  8
0
100
AcDbCircle
 10
-1.499999999999974
 20
45.1270166537926
 30
0.0
 40
2.5
100
AcDbArc
 50
114.3157391711766
 51
180.0
  0
ARC
  5
6069
330
6003
100
AcDbEntity
  8
0
100
AcDbCircle
 10
-3.249999999999963
 20
49.00000000000002
 30
0.0
 40
1.75
100
AcDbArc
 50
294.3157391711759
 51
0.0
  0
ARC
  5
606A
330
6003
100
AcDbEntity
  8
0
100
AcDbCircle
 10
-1.499999999999974
 20
-47.12701665379255
 30
0.0
 40
2.5
100
AcDbArc
 50
180.0
 51
245.6842608288236
  0
ARC
  5
606B
330
6003
100
AcDbEntity
  8
0
100
AcDbCircle
 10
-3.249999999999982
 20
-50.99999999999996
 30
0.0
 40
1.75
100
AcDbArc
 50
42.17741860089811
 51
65.68426082882338
  0
LINE
  5
606C
330
6003
100
AcDbEntity
  8
0
100
AcDbLine
 10
-3.999999999999974
 20
45.00000000000003
 30
0.0
 11
-3.999999999999976
 21
27.4770166537926
 31
0.0
  0
LINE
  5
606D
330
6003
100
AcDbEntity
  8
0
100
AcDbLine
 10
-3.999999999999978
 20
10.52298334620744
 30
0.0
 11
-3.99999999999998
 21
-12.5229833462074
 31
0.0
  0
LINE
  5
606E
330
6003
100
AcDbEntity
  8
0
100
AcDbLine
 10
-3.999999999999982
 20
-29.47701665379257
 30
0.0
 11
-3.999999999999974
 21
-46.99999999999998
 31
0.0
  0
SPLINE
  5
606F
330
6003
100
AcDbEntity
  8
0
100
AcDbSpline
210
0.0
220
0.0
230
1.0
 70
     8
 71
     3
 72
    16
 73
    12
 74
     0
 42
0.000000001
 43
0.0000000001
 40
0.0
 40
0.0
 40
0.0
 40
0.0
 40
0.0405976442384755
 40
0.0405976442384755
 40
0.0716043848051685
 40
0.0716043848051685
 40
0.1028570667680879
 40
0.1028570667680879
 40
0.1477895630015055
 40
0.1477895630015055
 40
0.1627976483858528
 40
0.1627976483858528
 40
0.1627976483858528
 40
0.1627976483858528
 10
-4.499999999999986
 20
53.74443401210676
 30
0.0
 10
-4.500109837324964
 20
53.60910857588674
 30
0.0
 10
-4.481697147639754
 20
53.4303375239711
 30
0.0
 10
-4.354027954228468
 20
53.07063936821728
 30
0.0
 10
-4.266553267854125
 20
52.89817092494913
 30
0.0
 10
-3.99166051510716
 20
52.53942874592588
 30
0.0
 10
-3.82576871338187
 20
52.38210031419438
 30
0.0
 10
-3.386941791109763
 20
52.05101522963444
 30
0.0
 10
-3.082397868969136
 20
51.88770930673587
 30
0.0
 10
-2.636679827009054
 20
51.72076605248502
 30
0.0
 10
-2.524403888611681
 20
51.68409587954704
 30
0.0
 10
-2.412088903666892
 20
51.65238494485669
 30
0.0
  0
SPLINE
  5
6070
330
6003
100
AcDbEntity
  8
0
100
AcDbSpline
210
0.0
220
0.0
230
1.0
 70
     8
 71
     3
 72
    10
 73
     6
 74
     0
 42
0.000000001
 43
0.0000000001
 40
0.0
 40
0.0
 40
0.0
 40
0.0
 40
0.1362998422634507
 40
0.1362998422634507
 40
0.2725996852923973
 40
0.2725996852923973
 40
0.2725996852923973
 40
0.2725996852923973
 10
-1.499999999999978
 20
52.94660883592431
 30
0.0
 10
-1.499999999999978
 20
52.73117594700732
 30
0.0
 10
-1.580003492034347
 20
52.51787138984474
 30
0.0
 10
-1.89058233632273
 20
52.08700778779553
 30
0.0
 10
-2.118043726024112
 20
51.87370322945834
 30
0.0
 10
-2.404263156240376
 20
51.65827033933151
 30
0.0
  0
SPLINE
  5
6071
330
6003
100
AcDbEntity
  8
0
100
AcDbSpline
210
0.0
220
0.0
230
1.0
 70
     8
 71
     3
 72
    20
 73
    16
 74
     0
 42
0.000000001
 43
0.0000000001
 40
0.0
 40
0.0
 40
0.0
 40
0.0
 40
0.0292038487373608
 40
0.0292038487373608
 40
0.1061564375196237
 40
0.1061564375196237
 40
0.2088926108889397
 40
0.2088926108889397
 40
0.3299865151397173
 40
0.3299865151397173
 40
0.4924973234164581
 40
0.4924973234164581
 40
0.5936467899456649
 40
0.5936467899456649
 40
0.7611251629618888
 40
0.7611251629618888
 40
0.7611251629618888
 40
0.7611251629618888
 10
-2.404263156240376
 20
51.65827033933149
 30
0.0
 10
-2.465674248597402
 20
51.61233308817587
 30
0.0
 10
-2.523558632590721
 20
51.58083413766764
 30
0.0
 10
-2.722765588237419
 20
51.49706251268458
 30
0.0
 10
-2.856603618617967
 20
51.49001480510931
 30
0.0
 10
-3.090693379598985
 20
51.50448206304665
 30
0.0
 10
-3.226847097519318
 20
51.54132420164025
 30
0.0
 10
-3.516412986705177
 20
51.67595871722129
 30
0.0
 10
-3.662991456262549
 20
51.78083197018138
 30
0.0
 10
-3.969360485237178
 20
52.07819879561238
 30
0.0
 10
-4.121946791539087
 20
52.29343875954038
 30
0.0
 10
-4.313761828381583
 20
52.70047903847371
 30
0.0
 10
-4.371358554570623
 20
52.86481987672155
 30
0.0
 10
-4.482867459146302
 20
53.31074827663096
 30
0.0
 10
-4.500023436785173
 20
53.55957521479417
 30
0.0
 10
-4.499999999999985
 20
53.74443401210676
 30
0.0
  0
LINE
  5
6072
330
6003
100
AcDbEntity
  8
0
100
AcDbLine
 10
-4.500000000000024
 20
1.250000000000092
 30
0.0
 11
-3.999999999999983
 21
1.250000000000086
 31
0.0
  0
ENDBLK
  5
6005
330
6003
100
AcDbEntity
  8
0
100
AcDbBlockEnd
  0
BLOCK
  5
6074
330
6073
100
AcDbEntity
  8
0
100
AcDbBlockBegin
  2
TU20-Left
 70
     0
 10
0.0
 20
0.0
 30
0.0
  3
TU20-Left
  1

  0
LINE
  5
6076
330
6073
100
AcDbEntity
  8
0
100
AcDbLine
 10
0.0
 20
-3.249999999999777
 30
0.0
 11
4.109845709134281
 21
-3.250000000000049
 31
0.0
  0
SPLINE
  5
6077
330
6073
100
AcDbEntity
  8
0
100
AcDbSpline
210
0.0
220
0.0
230
1.0
 70
     8
 71
     3
 72
    10
 73
     6
 74
     0
 42
0.000000001
 43
0.0000000001
 40
0.0
 40
0.0
 40
0.0
 40
0.0
 40
0.050700019466744
 40
0.050700019466744
 40
0.0861016274010382
 40
0.0861016274010382
 40
0.0861016274010382
 40
0.0861016274010382
 10
5.999999999999997
 20
-2.8493145339751
 30
0.0
 10
5.846476691496177
 20
-2.919965901113865
 30
0.0
 10
5.515198743773497
 20
-3.060232633692336
 30
0.0
 10
4.741959542655607
 20
-3.218335028915753
 30
0.0
 10
4.421711722073518
 20
-3.250001105790953
 30
0.0
 10
4.109845709134281
 20
-3.249999999999975
 30
0.0
  0
SPLINE
  5
6078
330
6073
100
AcDbEntity
  8
0
100
AcDbSpline
210
0.0
220
0.0
230
1.0
 70
     8
 71
     3
 72
    12
 73
     8
 74
     0
 42
0.000000001
 43
0.0000000001
 40
0.3900856594178401
 40
0.3900856594178401
 40
0.3900856594178401
 40
0.3900856594178401
 40
0.4924973234352621
 40
0.4924973234352621
 40
0.5936467899772168
 40
0.5936467899772168
 40
0.7611251630148886
 40
0.7611251630148886
 40
0.7611251630148886
 40
0.7611251630148886
 10
3.045649841383545
 20
-52.44478213516458
 30
0.0
 10
3.028179899718744
 20
-52.57227226553215
 30
0.0
 10
3.017749832807663
 20
-52.71622017101827
 30
0.0
 10
3.004875407166726
 20
-53.03047903846974
 30
0.0
 10
3.002465043087985
 20
-53.19481987671806
 30
0.0
 10
2.999242810694283
 20
-53.64074827662969
 30
0.0
 10
2.999999999999995
 20
-53.88957521479429
 30
0.0
 10
2.999999999999995
 20
-54.07443401210679
 30
0.0
  0
SPLINE
  5
6079
330
6073
100
AcDbEntity
  8
0
100
AcDbSpline
210
0.0
220
0.0
230
1.0
 70
     8
 71
     3
 72
    20
 73
    16
 74
     0
 42
0.000000001
 43
0.0000000001
 40
0.0
 40
0.0
 40
0.0
 40
0.0
 40
0.0405976442387214
 40
0.0405976442387214
 40
0.0716043848039409
 40
0.0716043848039409
 40
0.1028570667638102
 40
0.1028570667638102
 40
0.1477895629956688
 40
0.1477895629956688
 40
0.2029079031340508
 40
0.2029079031340508
 40
0.2338286432457835
 40
0.2338286432457835
 40
0.2734021259495074
 40
0.2734021259495074
 40
0.2734021259495074
 40
0.2734021259495074
 10
-0.0000000000000052
 20
-54.07443401210677
 30
0.0
 10
-0.0000000000000051
 20
-53.93910857588594
 30
0.0
 10
-0.0004087994864
 20
-53.76033752397013
 30
0.0
 10
0.0015210907020136
 20
-53.40063936822392
 30
0.0
 10
0.0029743327858118
 20
-53.22817092495579
 30
0.0
 10
0.0199745112783287
 20
-52.869428745923
 30
0.0
 10
0.0352294054457868
 20
-52.71210031419183
 30
0.0
 10
0.0983501783757019
 20
-52.38101522962161
 30
0.0
 10
0.1594143251028315
 20
-52.21770930672651
 30
0.0
 10
0.3865153478653638
 20
-51.93905314819581
 30
0.0
 10
0.5640693250737348
 20
-51.8547267275123
 30
0.0
 10
0.9178293282507775
 20
-51.81792528922239
 30
0.0
 10
1.059692441940265
 20
-51.82416197723101
 30
0.0
 10
1.41020642858684
 20
-51.88307382122854
 30
0.0
 10
1.586752567444409
 20
-51.94240070648952
 30
0.0
 10
1.706802086225926
 20
-51.98827033933151
 30
0.0
  0
SPLINE
  5
607A
330
6073
100
AcDbEntity
  8
0
100
AcDbSpline
210
0.0
220
0.0
230
1.0
 70
     8
 71
     3
 72
    12
 73
     8
 74
     0
 42
0.000000001
 43
0.0000000001
 40
0.0
 40
0.0
 40
0.0
 40
0.0
 40
0.1239712457412921
 40
0.1239712457412921
 40
0.3101197498474831
 40
0.3101197498474831
 40
0.4962683327629939
 40
0.4962683327629939
 40
0.4962683327629939
 40
0.4962683327629939
 10
1.706802086225919
 20
-51.98827033933152
 30
0.0
 10
1.98555120601203
 20
-52.09572174907067
 30
0.0
 10
2.292088205023679
 20
-52.20290459519226
 30
0.0
 10
3.11702080181629
 20
-52.47169668343283
 30
0.0
 10
3.65993191281934
 20
-52.63214020590348
 30
0.0
 10
4.805061856518501
 20
-52.95482365365504
 30
0.0
 10
5.40084832116925
 20
-53.11526555378208
 30
0.0
 10
5.999999999999985
 20
-53.27660883592433
 30
0.0
  0
LINE
  5
607B
330
6073
100
AcDbEntity
  8
0
100
AcDbLine
 10
0.0
 20
-54.07443401210678
 30
0.0
 11
0.0
 21
-3.249999999999992
 31
0.0
  0
LINE
  5
607C
330
6073
100
AcDbEntity
  8
0
100
AcDbLine
 10
0.0
 20
-54.07443401210678
 30
0.0
 11
0.0
 21
-56.16059768488206
 31
0.0
  0
LINE
  5
607D
330
6073
100
AcDbEntity
  8
0
100
AcDbLine
 10
2.999999999999996
 20
-56.16059768488207
 30
0.0
 11
2.999999999999995
 21
-54.07443401210679
 31
0.0
  0
LINE
  5
607E
330
6073
100
AcDbEntity
  8
0
100
AcDbLine
 10
3.000000000000006
 20
-69.02563229086641
 30
0.0
 11
2.999999999999996
 21
-56.16059768488206
 31
0.0
  0
LINE
  5
607F
330
6073
100
AcDbEntity
  8
0
100
AcDbLine
 10
3.000000000000006
 20
-69.0256322908664
 30
0.0
 11
3.000000000000006
 21
-70.88
 31
0.0
  0
LINE
  5
6080
330
6073
100
AcDbEntity
  8
0
100
AcDbLine
 10
3.000000000000004
 20
-85.0
 30
0.0
 11
3.000000000000006
 21
-70.88
 31
0.0
  0
LINE
  5
6081
330
6073
100
AcDbEntity
  8
0
100
AcDbLine
 10
3.000000000000005
 20
-85.0
 30
0.0
 11
3.000000000000004
 21
-87.0
 31
0.0
  0
LINE
  5
6082
330
6073
100
AcDbEntity
  8
0
100
AcDbLine
 10
0.0
 20
-87.0
 30
0.0
 11
0.0
 21
-85.0
 31
0.0
  0
LINE
  5
6083
330
6073
100
AcDbEntity
  8
0
100
AcDbLine
 10
0.0
 20
-70.88
 30
0.0
 11
0.0
 21
-85.0
 31
0.0
  0
LINE
  5
6084
330
6073
100
AcDbEntity
  8
0
100
AcDbLine
 10
0.0
 20
-70.88
 30
0.0
 11
0.0
 21
-69.0256322908664
 31
0.0
  0
LINE
  5
6085
330
6073
100
AcDbEntity
  8
0
100
AcDbLine
 10
0.0
 20
-56.16059768488206
 30
0.0
 11
0.0
 21
-69.02563229086641
 31
0.0
  0
LINE
  5
6086
330
6073
100
AcDbEntity
  8
0
100
AcDbLine
 10
3.000000000000004
 20
-87.0
 30
0.0
 11
0.0
 21
-87.0
 31
0.0
  0
LINE
  5
6087
330
6073
100
AcDbEntity
  8
0
100
AcDbLine
 10
0.0
 20
1.25
 30
0.0
 11
0.0
 21
3.25000000000001
 31
0.0
  0
LINE
  5
6088
330
6073
100
AcDbEntity
  8
0
100
AcDbLine
 10
0.0
 20
85.00000000000003
 30
0.0
 11
0.0
 21
3.25000000000001
 31
0.0
  0
LINE
  5
6089
330
6073
100
AcDbEntity
  8
0
100
AcDbLine
 10
0.0
 20
85.00000000000003
 30
0.0
 11
0.0
 21
87.00000000000002
 31
0.0
  0
LINE
  5
608A
330
6073
100
AcDbEntity
  8
0
100
AcDbLine
 10
3.000000000000027
 20
87.00000000000002
 30
0.0
 11
3.000000000000029
 21
85.00000000000003
 31
0.0
  0
LINE
  5
608B
330
6073
100
AcDbEntity
  8
0
100
AcDbLine
 10
3.000000000000018
 20
3.25000000000001
 30
0.0
 11
3.000000000000031
 21
85.00000000000003
 31
0.0
  0
LINE
  5
608C
330
6073
100
AcDbEntity
  8
0
100
AcDbLine
 10
3.000000000000015
 20
3.250000000000011
 30
0.0
 11
3.000000000000014
 21
1.25
 31
0.0
  0
LINE
  5
608D
330
6073
100
AcDbEntity
  8
0
100
AcDbLine
 10
0.0
 20
1.250000000000017
 30
0.0
 11
3.000000000000014
 21
1.250000000000017
 31
0.0
  0
LINE
  5
608E
330
6073
100
AcDbEntity
  8
0
100
AcDbLine
 10
0.0
 20
87.00000000000002
 30
0.0
 11
3.000000000000027
 21
87.00000000000002
 31
0.0
  0
LINE
  5
608F
330
6073
100
AcDbEntity
  8
0
100
AcDbLine
 10
69.66762729548863
 20
-79.0
 30
0.0
 11
5.999999999999987
 21
-53.27660883592432
 31
0.0
  0
LINE
  5
6090
330
6073
100
AcDbEntity
  8
0
100
AcDbLine
 10
105.2183854891472
 20
-79.00000000000002
 30
0.0
 11
69.66762729548863
 21
-79.0
 31
0.0
  0
ARC
  5
6091
330
6073
100
AcDbEntity
  8
0
100
AcDbCircle
 10
105.2183854891472
 20
-77.00000000000001
 30
0.0
 40
1.999999999999992
100
AcDbArc
 50
270.0
 51
0.0
  0
LINE
  5
6092
330
6073
100
AcDbEntity
  8
0
100
AcDbLine
 10
107.2183854891472
 20
72.0
 30
0.0
 11
107.2183854891472
 21
-77.00000000000001
 31
0.0
  0
ARC
  5
6093
330
6073
100
AcDbEntity
  8
0
100
AcDbCircle
 10
105.2183854891472
 20
72.0
 30
0.0
 40
1.999999999999992
100
AcDbArc
 50
0.0
 51
90.0
  0
LINE
  5
6094
330
6073
100
AcDbEntity
  8
0
100
AcDbLine
 10
99.85423414066056
 20
74.00000000000005
 30
0.0
 11
105.2183854891472
 21
74.00000000000003
 31
0.0
  0
ARC
  5
6095
330
6073
100
AcDbEntity
  8
0
100
AcDbCircle
 10
99.85423414066056
 20
72.0
 30
0.0
 40
1.99999999999995
100
AcDbArc
 50
90.0
 51
148.9999999999998
  0
LINE
  5
6096
330
6073
100
AcDbEntity
  8
0
100
AcDbLine
 10
95.71838548914719
 20
69.00000000000003
 30
0.0
 11
98.13989953925634
 21
73.03007614982014
 31
0.0
  0
LINE
  5
6097
330
6073
100
AcDbEntity
  8
0
100
AcDbLine
 10
95.71838548914719
 20
64.00000000000003
 30
0.0
 11
95.71838548914719
 21
69.00000000000003
 31
0.0
  0
ARC
  5
6098
330
6073
100
AcDbEntity
  8
0
100
AcDbCircle
 10
91.96838548914717
 20
59.00000000000002
 30
0.0
 40
6.25
100
AcDbArc
 50
270.0
 51
53.13010235415581
  0
LINE
  5
6099
330
6073
100
AcDbEntity
  8
0
100
AcDbLine
 10
88.9683854891472
 20
52.75000000000002
 30
0.0
 11
91.96838548914717
 21
52.75000000000002
 31
0.0
  0
ARC
  5
609A
330
6073
100
AcDbEntity
  8
0
100
AcDbCircle
 10
88.9683854891472
 20
59.00000000000002
 30
0.0
 40
6.25
100
AcDbArc
 50
180.0
 51
270.0
  0
LINE
  5
609B
330
6073
100
AcDbEntity
  8
0
100
AcDbLine
 10
82.7183854891472
 20
70.0
 30
0.0
 11
82.7183854891472
 21
59.00000000000002
 31
0.0
  0
LINE
  5
609C
330
6073
100
AcDbEntity
  8
0
100
AcDbLine
 10
79.83163414319908
 20
74.99999999999997
 30
0.0
 11
82.7183854891472
 21
70.0
 31
0.0
  0
ARC
  5
609D
330
6073
100
AcDbEntity
  8
0
100
AcDbCircle
 10
78.09958333563021
 20
73.99999999999998
 30
0.0
 40
1.99999999999999
100
AcDbArc
 50
29.99999999999971
 51
90.0
  0
LINE
  5
609E
330
6073
100
AcDbEntity
  8
0
100
AcDbLine
 10
63.6279914503151
 20
75.99999999999997
 30
0.0
 11
78.09958333563021
 21
75.99999999999997
 31
0.0
  0
ARC
  5
609F
330
6073
100
AcDbEntity
  8
0
100
AcDbCircle
 10
63.6279914503151
 20
74.00000000000003
 30
0.0
 40
1.999999999999797
100
AcDbArc
 50
90.0
 51
112.0
  0
LINE
  5
60A0
330
6073
100
AcDbEntity
  8
0
100
AcDbLine
 10
59.85917230231536
 20
74.63436770913361
 30
0.0
 11
62.87877826348325
 21
75.85436770913364
 31
0.0
  0
ARC
  5
60A1
330
6073
100
AcDbEntity
  8
0
100
AcDbCircle
 10
60.6083854891472
 20
72.78000000000003
 30
0.0
 40
2.000000000000054
100
AcDbArc
 50
112.0
 51
149.9999999999998
  0
LINE
  5
60A2
330
6073
100
AcDbEntity
  8
0
100
AcDbLine
 10
57.71838548914719
 20
71.77437316612596
 30
0.0
 11
58.8763346815783
 21
73.78000000000003
 31
0.0
  0
LINE
  5
60A3
330
6073
100
AcDbEntity
  8
0
100
AcDbLine
 10
57.71838548914719
 20
68.23861278752585
 30
0.0
 11
57.71838548914719
 21
71.77437316612596
 31
0.0
  0
ARC
  5
60A4
330
6073
100
AcDbEntity
  8
0
100
AcDbCircle
 10
54.4683854891472
 20
65.50000000000003
 30
0.0
 40
4.249999999999996
100
AcDbArc
 50
270.0
 51
40.11916689840502
  0
LINE
  5
60A5
330
6073
100
AcDbEntity
  8
0
100
AcDbLine
 10
52.9683854891472
 20
61.25000000000001
 30
0.0
 11
54.4683854891472
 21
61.25000000000001
 31
0.0
  0
ARC
  5
60A6
330
6073
100
AcDbEntity
  8
0
100
AcDbCircle
 10
52.9683854891472
 20
65.50000000000003
 30
0.0
 40
4.250000000000007
100
AcDbArc
 50
180.0
 51
270.0
  0
LINE
  5
60A7
330
6073
100
AcDbEntity
  8
0
100
AcDbLine
 10
48.7183854891472
 20
67.24083496185032
 30
0.0
 11
48.71838548914721
 21
65.50000000000003
 31
0.0
  0
ARC
  5
60A8
330
6073
100
AcDbEntity
  8
0
100
AcDbCircle
 10
46.7183854891472
 20
67.24083496185032
 30
0.0
 40
2.000000000000002
100
AcDbArc
 50
0.0
 51
111.9999999999997
  0
LINE
  5
60A9
330
6073
100
AcDbEntity
  8
0
100
AcDbLine
 10
6.000000000000004
 20
52.94660883592431
 30
0.0
 11
45.96917230231539
 21
69.09520267098388
 31
0.0
  0
ARC
  5
60AA
330
6073
100
AcDbEntity
  8
0
100
AcDbCircle
 10
4.7183854891472
 20
-0.9999999999999964
 30
0.0
 40
2.250000000000005
100
AcDbArc
 50
304.7227868229477
 51
55.27721317705179
  0
CIRCLE
  5
60AB
330
6073
100
AcDbEntity
  8
0
100
AcDbCircle
 10
88.96838548914722
 20
19.00000000000002
 30
0.0
 40
6.25
  0
CIRCLE
  5
60AC
330
6073
100
AcDbEntity
  8
0
100
AcDbCircle
 10
52.96838548914717
 20
25.50000000000002
 30
0.0
 40
4.250000000000007
  0
CIRCLE
  5
60AD
330
6073
100
AcDbEntity
  8
0
100
AcDbCircle
 10
88.9683854891472
 20
-20.99999999999999
 30
0.0
 40
6.25
  0
CIRCLE
  5
60AE
330
6073
100
AcDbEntity
  8
0
100
AcDbCircle
 10
88.9683854891472
 20
-60.99999999999998
 30
0.0
 40
6.25
  0
CIRCLE
  5
60AF
330
6073
100
AcDbEntity
  8
0
100
AcDbCircle
 10
52.96838548914715
 20
-14.49999999999998
 30
0.0
 40
4.250000000000007
  0
CIRCLE
  5
60B0
330
6073
100
AcDbEntity
  8
0
100
AcDbCircle
 10
52.96838548914715
 20
-54.49999999999999
 30
0.0
 40
4.250000000000007
  0
SPLINE
  5
60B1
330
6073
100
AcDbEntity
  8
0
100
AcDbSpline
210
0.0
220
0.0
230
1.0
 70
     8
 71
     3
 72
    10
 73
     6
 74
     0
 42
0.000000001
 43
0.0000000001
 40
0.0
 40
0.0
 40
0.0
 40
0.0
 40
0.050700019439646
 40
0.050700019439646
 40
0.0861016273498547
 40
0.0861016273498547
 40
0.0861016273498547
 40
0.0861016273498547
 10
5.999999999999987
 20
0.8493145339750896
 30
0.0
 10
5.846476691578189
 20
0.9199659010760186
 30
0.0
 10
5.515198743811727
 20
1.060232633685007
 30
0.0
 10
4.741959542675253
 20
1.218335028911408
 30
0.0
 10
4.421711722112484
 20
1.25000110579057
 30
0.0
 10
4.109845709134259
 20
1.249999999999982
 30
0.0
  0
SPLINE
  5
60B2
330
6073
100
AcDbEntity
  8
0
100
AcDbSpline
210
0.0
220
0.0
230
1.0
 70
     8
 71
     3
 72
    10
 73
     6
 74
     0
 42
0.000000001
 43
0.0000000001
 40
0.1757394058397993
 40
0.1757394058397993
 40
0.1757394058397993
 40
0.1757394058397993
 40
0.3101197498474541
 40
0.3101197498474541
 40
0.4962683327629504
 40
0.4962683327629504
 40
0.4962683327629504
 40
0.4962683327629504
 10
3.045663593021856
 20
52.11479328613819
 30
0.0
 10
3.42128291661027
 20
52.23100528533813
 30
0.0
 10
3.819163000908877
 20
52.34700955612588
 30
0.0
 10
4.805061856518525
 20
52.62482365365496
 30
0.0
 10
5.400848321169283
 20
52.78526555378192
 30
0.0
 10
6.0
 20
52.94660883592431
 30
0.0
  0
SPLINE
  5
60B3
330
6073
100
AcDbEntity
  8
0
100
AcDbSpline
210
0.0
220
0.0
230
1.0
 70
     8
 71
     3
 72
    10
 73
     6
 74
     0
 42
0.000000001
 43
0.0000000001
 40
0.0
 40
0.0
 40
0.0
 40
0.0
 40
0.1362998422634507
 40
0.1362998422634507
 40
0.2725996852923973
 40
0.2725996852923973
 40
0.2725996852923973
 40
0.2725996852923973
 10
6.000000000000004
 20
52.94660883592431
 30
0.0
 10
5.599991287114328
 20
52.73117594700732
 30
0.0
 10
5.203992570414651
 20
52.51787138984474
 30
0.0
 10
4.466720217059858
 20
52.08700778779553
 30
0.0
 10
4.132838710488875
 20
51.87370322945834
 30
0.0
 10
3.853401043112953
 20
51.65827033933151
 30
0.0
  0
SPLINE
  5
60B4
330
6073
100
AcDbEntity
  8
0
100
AcDbSpline
210
0.0
220
0.0
230
1.0
 70
     8
 71
     3
 72
    20
 73
    16
 74
     0
 42
0.000000001
 43
0.0000000001
 40
0.0
 40
0.0
 40
0.0
 40
0.0
 40
0.0292038487373608
 40
0.0292038487373608
 40
0.1061564375196237
 40
0.1061564375196237
 40
0.2088926108889397
 40
0.2088926108889397
 40
0.3299865151397173
 40
0.3299865151397173
 40
0.4924973234164581
 40
0.4924973234164581
 40
0.5936467899456649
 40
0.5936467899456649
 40
0.7611251629618888
 40
0.7611251629618888
 40
0.7611251629618888
 40
0.7611251629618888
 10
3.853401043112958
 20
51.65827033933149
 30
0.0
 10
3.793445042270215
 20
51.61233308817587
 30
0.0
 10
3.741953848794858
 20
51.58083413766764
 30
0.0
 10
3.575788910623134
 20
51.49706251268458
 30
0.0
 10
3.48744865373539
 20
51.49001480510931
 30
0.0
 10
3.347036989113463
 20
51.50448206304665
 30
0.0
 10
3.279755693675237
 20
51.54132420164025
 30
0.0
 10
3.160767333413918
 20
51.67595871722129
 30
0.0
 10
3.115986682583385
 20
51.78083197018138
 30
0.0
 10
3.041782749644613
 20
52.07819879561238
 30
0.0
 10
3.021550862807492
 20
52.29343875954038
 30
0.0
 10
3.004875407166649
 20
52.70047903847371
 30
0.0
 10
3.002465043087944
 20
52.86481987672155
 30
0.0
 10
2.999242810694299
 20
53.31074827663096
 30
0.0
 10
3.000000000000004
 20
53.55957521479417
 30
0.0
 10
3.000000000000004
 20
53.74443401210676
 30
0.0
  0
LINE
  5
60B5
330
6073
100
AcDbEntity
  8
0
100
AcDbLine
 10
2.999999999999994
 20
1.250000000000092
 30
0.0
 11
5.054922854567134
 21
1.250000000000014
 31
0.0
  0
SPLINE
  5
60B6
330
6073
100
AcDbEntity
  8
0
100
AcDbSpline
210
0.0
220
0.0
230
1.0
 70
     8
 71
     3
 72
    12
 73
     8
 74
     0
 42
0.000000001
 43
0.0000000001
 40
0.0
 40
0.0
 40
0.0
 40
0.0
 40
0.0463759660219439
 40
0.0463759660219439
 40
0.075234404795242
 40
0.075234404795242
 40
0.1164597033381801
 40
0.1164597033381801
 40
0.1164597033381801
 40
0.1164597033381801
 10
5.054922854567128
 20
1.25
 30
0.0
 10
5.201638345422568
 20
1.250002234304048
 30
0.0
 10
5.34919080041
 20
1.221797932486907
 30
0.0
 10
5.581407130221825
 20
1.13464497913192
 30
0.0
 10
5.667250897028758
 20
1.091882110374555
 30
0.0
 10
5.865687391823374
 20
0.9687830747391146
 30
0.0
 10
5.95165323023263
 20
0.8938636495671836
 30
0.0
 10
5.999999999999987
 20
0.8493145339750896
 30
0.0
  0
ENDBLK
  5
6075
330
6073
100
AcDbEntity
  8
0
100
AcDbBlockEnd
  0
BLOCK
  5
60B8
330
60B7
100
AcDbEntity
  8
0
100
AcDbBlockBegin
  2
TU20-Right
 70
     0
 10
0.0
 20
0.0
 30
0.0
  3
TU20-Right
  1

  0
LINE
  5
60BA
330
60B7
100
AcDbEntity
  8
0
100
AcDbLine
 10
-2.999999999999997
 20
-3.249999999999975
 30
0.0
 11
-5.05492285456714
 21
-3.250000000000012
 31
0.0
  0
SPLINE
  5
60BB
330
60B7
100
AcDbEntity
  8
0
100
AcDbSpline
210
0.0
220
0.0
230
1.0
 70
     8
 71
     3
 72
    12
 73
     8
 74
     0
 42
0.000000001
 43
0.0000000001
 40
0.0
 40
0.0
 40
0.0
 40
0.0
 40
0.04637596600491
 40
0.04637596600491
 40
0.0752344047793535
 40
0.0752344047793535
 40
0.1164597033193082
 40
0.1164597033193082
 40
0.1164597033193082
 40
0.1164597033193082
 10
-5.05492285456714
 20
-3.249999999999992
 30
0.0
 10
-5.201638345368691
 20
-3.250002234304485
 30
0.0
 10
-5.349190800318364
 20
-3.221797932506227
 30
0.0
 10
-5.581407130122406
 20
-3.134644979178649
 30
0.0
 10
-5.667250896947159
 20
-3.091882110420147
 30
0.0
 10
-5.86568739178436
 20
-2.96878307477046
 30
0.0
 10
-5.951653230206991
 20
-2.893863649590784
 30
0.0
 10
-5.999999999999998
 20
-2.849314533975118
 30
0.0
  0
SPLINE
  5
60BC
330
60B7
100
AcDbEntity
  8
0
100
AcDbSpline
210
0.0
220
0.0
230
1.0
 70
     8
 71
     3
 72
    10
 73
     6
 74
     0
 42
0.000000001
 43
0.0000000001
 40
0.0
 40
0.0
 40
0.0
 40
0.0
 40
0.050700019466744
 40
0.050700019466744
 40
0.0861016274010382
 40
0.0861016274010382
 40
0.0861016274010382
 40
0.0861016274010382
 10
-5.999999999999997
 20
-2.8493145339751
 30
0.0
 10
-5.846476691496177
 20
-2.919965901113865
 30
0.0
 10
-5.515198743773497
 20
-3.060232633692336
 30
0.0
 10
-4.741959542655607
 20
-3.218335028915753
 30
0.0
 10
-4.421711722073518
 20
-3.250001105790953
 30
0.0
 10
-4.109845709134281
 20
-3.249999999999975
 30
0.0
  0
SPLINE
  5
60BD
330
60B7
100
AcDbEntity
  8
0
100
AcDbSpline
210
0.0
220
0.0
230
1.0
 70
     8
 71
     3
 72
    20
 73
    16
 74
     0
 42
0.000000001
 43
0.0000000001
 40
0.0
 40
0.0
 40
0.0
 40
0.0
 40
0.0292038487373986
 40
0.0292038487373986
 40
0.1061564375201217
 40
0.1061564375201217
 40
0.2088926108922036
 40
0.2088926108922036
 40
0.3299865151461315
 40
0.3299865151461315
 40
0.4924973234352621
 40
0.4924973234352621
 40
0.5936467899772168
 40
0.5936467899772168
 40
0.7611251630148886
 40
0.7611251630148886
 40
0.7611251630148886
 40
0.7611251630148886
 10
-3.853401043112959
 20
-51.98827033933152
 30
0.0
 10
-3.793445042270138
 20
-51.94233308817583
 30
0.0
 10
-3.74195384879514
 20
-51.91083413766782
 30
0.0
 10
-3.575788910622532
 20
-51.82706251268441
 30
0.0
 10
-3.487448653733618
 20
-51.82001480510947
 30
0.0
 10
-3.347036989114321
 20
-51.83448206304657
 30
0.0
 10
-3.279755693676325
 20
-51.87132420163955
 30
0.0
 10
-3.16076733341513
 20
-52.00595871721929
 30
0.0
 10
-3.115986682584535
 20
-52.11083197017829
 30
0.0
 10
-3.041782749643146
 20
-52.4081987956163
 30
0.0
 10
-3.02155086280727
 20
-52.62343875954875
 30
0.0
 10
-3.004875407166726
 20
-53.03047903846974
 30
0.0
 10
-3.002465043087985
 20
-53.19481987671806
 30
0.0
 10
-2.999242810694283
 20
-53.64074827662969
 30
0.0
 10
-2.999999999999995
 20
-53.88957521479429
 30
0.0
 10
-2.999999999999995
 20
-54.07443401210679
 30
0.0
  0
SPLINE
  5
60BE
330
60B7
100
AcDbEntity
  8
0
100
AcDbSpline
210
0.0
220
0.0
230
1.0
 70
     8
 71
     3
 72
    10
 73
     6
 74
     0
 42
0.000000001
 43
0.0000000001
 40
0.0
 40
0.0
 40
0.0
 40
0.0
 40
0.1362998422634566
 40
0.1362998422634566
 40
0.2725996852924425
 40
0.2725996852924425
 40
0.2725996852924425
 40
0.2725996852924425
 10
-5.999999999999992
 20
-53.27660883592432
 30
0.0
 10
-5.59999128711428
 20
-53.06117594700737
 30
0.0
 10
-5.203992570414589
 20
-52.84787138984476
 30
0.0
 10
-4.466720217059817
 20
-52.41700778779547
 30
0.0
 10
-4.132838710488861
 20
-52.20370322945841
 30
0.0
 10
-3.853401043112959
 20
-51.98827033933152
 30
0.0
  0
SPLINE
  5
60BF
330
60B7
100
AcDbEntity
  8
0
100
AcDbSpline
210
0.0
220
0.0
230
1.0
 70
     8
 71
     3
 72
    10
 73
     6
 74
     0
 42
0.000000001
 43
0.0000000001
 40
0.1757394058398102
 40
0.1757394058398102
 40
0.1757394058398102
 40
0.1757394058398102
 40
0.3101197498474831
 40
0.3101197498474831
 40
0.4962683327629939
 40
0.4962683327629939
 40
0.4962683327629939
 40
0.4962683327629939
 10
-3.045663593021839
 20
-52.44479328613825
 30
0.0
 10
-3.421282916610253
 20
-52.56100528533818
 30
0.0
 10
-3.819163000908862
 20
-52.67700955612586
 30
0.0
 10
-4.805061856518501
 20
-52.95482365365504
 30
0.0
 10
-5.40084832116925
 20
-53.11526555378208
 30
0.0
 10
-5.999999999999985
 20
-53.27660883592433
 30
0.0
  0
LINE
  5
60C0
330
60B7
100
AcDbEntity
  8
0
100
AcDbLine
 10
-2.999999999999984
 20
-87.0
 30
0.0
 11
-2.999999999999984
 21
-85.0
 31
0.0
  0
LINE
  5
60C1
330
60B7
100
AcDbEntity
  8
0
100
AcDbLine
 10
-2.999999999999988
 20
-5.249999999999985
 30
0.0
 11
-2.999999999999984
 21
-85.0
 31
0.0
  0
LINE
  5
60C2
330
60B7
100
AcDbEntity
  8
0
100
AcDbLine
 10
-2.999999999999988
 20
-5.249999999999985
 30
0.0
 11
-2.999999999999988
 21
-3.249999999999975
 31
0.0
  0
LINE
  5
60C3
330
60B7
100
AcDbEntity
  8
0
100
AcDbLine
 10
0.0
 20
-3.249999999999975
 30
0.0
 11
0.0
 21
-5.249999999999985
 31
0.0
  0
LINE
  5
60C4
330
60B7
100
AcDbEntity
  8
0
100
AcDbLine
 10
0.0
 20
-85.0
 30
0.0
 11
0.0
 21
-5.249999999999985
 31
0.0
  0
LINE
  5
60C5
330
60B7
100
AcDbEntity
  8
0
100
AcDbLine
 10
0.0
 20
-85.0
 30
0.0
 11
0.0
 21
-87.0
 31
0.0
  0
LINE
  5
60C6
330
60B7
100
AcDbEntity
  8
0
100
AcDbLine
 10
-2.999999999999984
 20
-87.0
 30
0.0
 11
0.0
 21
-87.0
 31
0.0
  0
LINE
  5
60C7
330
60B7
100
AcDbEntity
  8
0
100
AcDbLine
 10
-2.999999999999988
 20
-3.249999999999992
 30
0.0
 11
0.0
 21
-3.249999999999992
 31
0.0
  0
LINE
  5
60C8
330
60B7
100
AcDbEntity
  8
0
100
AcDbLine
 10
0.0
 20
87.00000000000002
 30
0.0
 11
0.0
 21
85.00000000000003
 31
0.0
  0
LINE
  5
60C9
330
60B7
100
AcDbEntity
  8
0
100
AcDbLine
 10
0.0
 20
70.54999999999999
 30
0.0
 11
0.0
 21
85.00000000000003
 31
0.0
  0
LINE
  5
60CA
330
60B7
100
AcDbEntity
  8
0
100
AcDbLine
 10
0.0
 20
70.54999999999999
 30
0.0
 11
0.0
 21
68.69563229086636
 31
0.0
  0
LINE
  5
60CB
330
60B7
100
AcDbEntity
  8
0
100
AcDbLine
 10
0.0
 20
55.83059768488205
 30
0.0
 11
0.0
 21
68.69563229086643
 31
0.0
  0
LINE
  5
60CC
330
60B7
100
AcDbEntity
  8
0
100
AcDbLine
 10
0.0
 20
53.74443401210678
 30
0.0
 11
0.0
 21
55.83059768488205
 31
0.0
  0
LINE
  5
60CD
330
60B7
100
AcDbEntity
  8
0
100
AcDbLine
 10
-3.000000000000003
 20
55.83059768488205
 30
0.0
 11
-3.000000000000005
 21
53.74443401210678
 31
0.0
  0
LINE
  5
60CE
330
60B7
100
AcDbEntity
  8
0
100
AcDbLine
 10
-2.999999999999984
 20
68.69563229086643
 30
0.0
 11
-3.000000000000003
 21
55.83059768488205
 31
0.0
  0
LINE
  5
60CF
330
60B7
100
AcDbEntity
  8
0
100
AcDbLine
 10
-2.999999999999984
 20
68.69563229086636
 30
0.0
 11
-2.999999999999982
 21
70.54999999999999
 31
0.0
  0
LINE
  5
60D0
330
60B7
100
AcDbEntity
  8
0
100
AcDbLine
 10
-2.999999999999984
 20
85.00000000000003
 30
0.0
 11
-2.999999999999984
 21
70.54999999999999
 31
0.0
  0
LINE
  5
60D1
330
60B7
100
AcDbEntity
  8
0
100
AcDbLine
 10
-2.999999999999983
 20
85.00000000000003
 30
0.0
 11
-2.999999999999984
 21
87.00000000000002
 31
0.0
  0
LINE
  5
60D2
330
60B7
100
AcDbEntity
  8
0
100
AcDbLine
 10
0.0
 20
87.0
 30
0.0
 11
-2.999999999999984
 21
87.0
 31
0.0
  0
LINE
  5
60D3
330
60B7
100
AcDbEntity
  8
0
100
AcDbLine
 10
-5.999999999999986
 20
-53.27660883592432
 30
0.0
 11
-69.66762729548863
 21
-79.0
 31
0.0
  0
LINE
  5
60D4
330
60B7
100
AcDbEntity
  8
0
100
AcDbLine
 10
-69.66762729548863
 20
-79.0
 30
0.0
 11
-105.2183854891472
 21
-79.00000000000002
 31
0.0
  0
ARC
  5
60D5
330
60B7
100
AcDbEntity
  8
0
100
AcDbCircle
 10
-105.2183854891472
 20
-77.00000000000001
 30
0.0
 40
1.999999999999992
100
AcDbArc
 50
180.0
 51
270.0
  0
LINE
  5
60D6
330
60B7
100
AcDbEntity
  8
0
100
AcDbLine
 10
-107.2183854891472
 20
-77.00000000000001
 30
0.0
 11
-107.2183854891472
 21
72.0
 31
0.0
  0
ARC
  5
60D7
330
60B7
100
AcDbEntity
  8
0
100
AcDbCircle
 10
-105.2183854891472
 20
72.0
 30
0.0
 40
1.999999999999992
100
AcDbArc
 50
90.0
 51
180.0
  0
LINE
  5
60D8
330
60B7
100
AcDbEntity
  8
0
100
AcDbLine
 10
-105.2183854891472
 20
74.00000000000003
 30
0.0
 11
-99.85423414066056
 21
74.00000000000005
 31
0.0
  0
ARC
  5
60D9
330
60B7
100
AcDbEntity
  8
0
100
AcDbCircle
 10
-99.85423414066056
 20
72.0
 30
0.0
 40
1.99999999999995
100
AcDbArc
 50
31.00000000000042
 51
90.0
  0
LINE
  5
60DA
330
60B7
100
AcDbEntity
  8
0
100
AcDbLine
 10
-98.13989953925634
 20
73.03007614982014
 30
0.0
 11
-95.71838548914719
 21
69.00000000000003
 31
0.0
  0
LINE
  5
60DB
330
60B7
100
AcDbEntity
  8
0
100
AcDbLine
 10
-95.71838548914719
 20
69.00000000000003
 30
0.0
 11
-95.71838548914719
 21
64.00000000000003
 31
0.0
  0
ARC
  5
60DC
330
60B7
100
AcDbEntity
  8
0
100
AcDbCircle
 10
-91.96838548914717
 20
59.00000000000002
 30
0.0
 40
6.25
100
AcDbArc
 50
126.8698976458442
 51
270.0
  0
LINE
  5
60DD
330
60B7
100
AcDbEntity
  8
0
100
AcDbLine
 10
-91.96838548914717
 20
52.75000000000002
 30
0.0
 11
-88.9683854891472
 21
52.75000000000002
 31
0.0
  0
ARC
  5
60DE
330
60B7
100
AcDbEntity
  8
0
100
AcDbCircle
 10
-88.9683854891472
 20
59.00000000000002
 30
0.0
 40
6.25
100
AcDbArc
 50
270.0
 51
0.0
  0
LINE
  5
60DF
330
60B7
100
AcDbEntity
  8
0
100
AcDbLine
 10
-82.7183854891472
 20
59.00000000000002
 30
0.0
 11
-82.7183854891472
 21
70.0
 31
0.0
  0
LINE
  5
60E0
330
60B7
100
AcDbEntity
  8
0
100
AcDbLine
 10
-82.7183854891472
 20
70.0
 30
0.0
 11
-79.83163414319908
 21
74.99999999999997
 31
0.0
  0
ARC
  5
60E1
330
60B7
100
AcDbEntity
  8
0
100
AcDbCircle
 10
-78.09958333563021
 20
73.99999999999998
 30
0.0
 40
1.99999999999999
100
AcDbArc
 50
90.0
 51
150.0000000000005
  0
LINE
  5
60E2
330
60B7
100
AcDbEntity
  8
0
100
AcDbLine
 10
-78.09958333563021
 20
75.99999999999997
 30
0.0
 11
-63.6279914503151
 21
75.99999999999997
 31
0.0
  0
ARC
  5
60E3
330
60B7
100
AcDbEntity
  8
0
100
AcDbCircle
 10
-63.6279914503151
 20
74.00000000000003
 30
0.0
 40
1.999999999999797
100
AcDbArc
 50
68.00000000000001
 51
90.0
  0
LINE
  5
60E4
330
60B7
100
AcDbEntity
  8
0
100
AcDbLine
 10
-62.87877826348325
 20
75.85436770913364
 30
0.0
 11
-59.85917230231536
 21
74.63436770913361
 31
0.0
  0
ARC
  5
60E5
330
60B7
100
AcDbEntity
  8
0
100
AcDbCircle
 10
-60.6083854891472
 20
72.78000000000003
 30
0.0
 40
2.000000000000053
100
AcDbArc
 50
30.00000000000016
 51
68.0
  0
LINE
  5
60E6
330
60B7
100
AcDbEntity
  8
0
100
AcDbLine
 10
-58.8763346815783
 20
73.78000000000003
 30
0.0
 11
-57.71838548914719
 21
71.77437316612596
 31
0.0
  0
LINE
  5
60E7
330
60B7
100
AcDbEntity
  8
0
100
AcDbLine
 10
-57.71838548914719
 20
71.77437316612596
 30
0.0
 11
-57.71838548914719
 21
68.23861278752585
 31
0.0
  0
ARC
  5
60E8
330
60B7
100
AcDbEntity
  8
0
100
AcDbCircle
 10
-54.4683854891472
 20
65.50000000000003
 30
0.0
 40
4.249999999999996
100
AcDbArc
 50
139.880833101595
 51
270.0
  0
LINE
  5
60E9
330
60B7
100
AcDbEntity
  8
0
100
AcDbLine
 10
-54.4683854891472
 20
61.25000000000001
 30
0.0
 11
-52.9683854891472
 21
61.25000000000001
 31
0.0
  0
ARC
  5
60EA
330
60B7
100
AcDbEntity
  8
0
100
AcDbCircle
 10
-52.9683854891472
 20
65.50000000000003
 30
0.0
 40
4.250000000000007
100
AcDbArc
 50
270.0
 51
0.0
  0
LINE
  5
60EB
330
60B7
100
AcDbEntity
  8
0
100
AcDbLine
 10
-48.71838548914721
 20
65.50000000000003
 30
0.0
 11
-48.7183854891472
 21
67.24083496185032
 31
0.0
  0
ARC
  5
60EC
330
60B7
100
AcDbEntity
  8
0
100
AcDbCircle
 10
-46.7183854891472
 20
67.24083496185032
 30
0.0
 40
2.000000000000002
100
AcDbArc
 50
68.00000000000022
 51
180.0
  0
LINE
  5
60ED
330
60B7
100
AcDbEntity
  8
0
100
AcDbLine
 10
-45.96917230231539
 20
69.09520267098388
 30
0.0
 11
-6.000000000000005
 21
52.94660883592431
 31
0.0
  0
ARC
  5
60EE
330
60B7
100
AcDbEntity
  8
0
100
AcDbCircle
 10
-4.718385489147199
 20
-0.9999999999999964
 30
0.0
 40
2.250000000000005
100
AcDbArc
 50
124.7227868229482
 51
235.2772131770524
  0
LINE
  5
60EF
330
60B7
100
AcDbEntity
  8
0
100
AcDbLine
 10
0.0
 20
53.74443401210678
 30
0.0
 11
0.0
 21
1.25
 31
0.0
  0
SPLINE
  5
60F0
330
60B7
100
AcDbEntity
  8
0
100
AcDbSpline
210
0.0
220
0.0
230
1.0
 70
     8
 71
     3
 72
    10
 73
     6
 74
     0
 42
0.000000001
 43
0.0000000001
 40
0.0
 40
0.0
 40
0.0
 40
0.0
 40
0.050700019439646
 40
0.050700019439646
 40
0.0861016273498547
 40
0.0861016273498547
 40
0.0861016273498547
 40
0.0861016273498547
 10
-5.999999999999987
 20
0.8493145339750896
 30
0.0
 10
-5.846476691578189
 20
0.9199659010760186
 30
0.0
 10
-5.515198743811727
 20
1.060232633685007
 30
0.0
 10
-4.741959542675253
 20
1.218335028911408
 30
0.0
 10
-4.421711722112484
 20
1.25000110579057
 30
0.0
 10
-4.109845709134259
 20
1.249999999999982
 30
0.0
  0
LINE
  5
60F1
330
60B7
100
AcDbEntity
  8
0
100
AcDbLine
 10
0.0
 20
1.250000000000184
 30
0.0
 11
-4.109845709134268
 21
1.250000000000064
 31
0.0
  0
SPLINE
  5
60F2
330
60B7
100
AcDbEntity
  8
0
100
AcDbSpline
210
0.0
220
0.0
230
1.0
 70
     8
 71
     3
 72
    20
 73
    16
 74
     0
 42
0.000000001
 43
0.0000000001
 40
0.0
 40
0.0
 40
0.0
 40
0.0
 40
0.0405976442384755
 40
0.0405976442384755
 40
0.0716043848051685
 40
0.0716043848051685
 40
0.1028570667680879
 40
0.1028570667680879
 40
0.1477895630015055
 40
0.1477895630015055
 40
0.2029079031401245
 40
0.2029079031401245
 40
0.233828643251334
 40
0.233828643251334
 40
0.2734021259534982
 40
0.2734021259534982
 40
0.2734021259534982
 40
0.2734021259534982
 10
0.0000000000000029
 20
53.74443401210676
 30
0.0
 10
0.0000000000000029
 20
53.60910857588674
 30
0.0
 10
0.0004087994863941
 20
53.4303375239711
 30
0.0
 10
-0.0015210907020448
 20
53.07063936821728
 30
0.0
 10
-0.0029743327861998
 20
52.89817092494913
 30
0.0
 10
-0.019974511278119
 20
52.53942874592588
 30
0.0
 10
-0.035229405445417
 20
52.38210031419438
 30
0.0
 10
-0.098350178373084
 20
52.05101522963444
 30
0.0
 10
-0.1594143250959728
 20
51.88770930673587
 30
0.0
 10
-0.3865153478670899
 20
51.6090531481924
 30
0.0
 10
-0.5640693250805786
 20
51.52472672750963
 30
0.0
 10
-0.9178293282592919
 20
51.4879252892226
 30
0.0
 10
-1.059692441947679
 20
51.49416197723178
 30
0.0
 10
-1.410206428586224
 20
51.55307382122891
 30
0.0
 10
-1.586752567439372
 20
51.61240070648755
 30
0.0
 10
-1.706802086225928
 20
51.65827033933148
 30
0.0
  0
SPLINE
  5
60F3
330
60B7
100
AcDbEntity
  8
0
100
AcDbSpline
210
0.0
220
0.0
230
1.0
 70
     8
 71
     3
 72
    12
 73
     8
 74
     0
 42
0.000000001
 43
0.0000000001
 40
0.0
 40
0.0
 40
0.0
 40
0.0
 40
0.1239712457412857
 40
0.1239712457412857
 40
0.3101197498474541
 40
0.3101197498474541
 40
0.4962683327629504
 40
0.4962683327629504
 40
0.4962683327629504
 40
0.4962683327629504
 10
-1.706802086225924
 20
51.65827033933149
 30
0.0
 10
-1.985551206012016
 20
51.76572174907066
 30
0.0
 10
-2.292088205023645
 20
51.87290459519228
 30
0.0
 10
-3.117020801816296
 20
52.1416966834327
 30
0.0
 10
-3.659931912819351
 20
52.30214020590351
 30
0.0
 10
-4.805061856518525
 20
52.62482365365496
 30
0.0
 10
-5.400848321169283
 20
52.78526555378192
 30
0.0
 10
-6.0
 20
52.94660883592431
 30
0.0
  0
SPLINE
  5
60F4
330
60B7
100
AcDbEntity
  8
0
100
AcDbSpline
210
0.0
220
0.0
230
1.0
 70
     8
 71
     3
 72
    12
 73
     8
 74
     0
 42
0.000000001
 43
0.0000000001
 40
0.3900856594075721
 40
0.3900856594075721
 40
0.3900856594075721
 40
0.3900856594075721
 40
0.4924973234164581
 40
0.4924973234164581
 40
0.5936467899456649
 40
0.5936467899456649
 40
0.7611251629618888
 40
0.7611251629618888
 40
0.7611251629618888
 40
0.7611251629618888
 10
-3.045649841383631
 20
52.11478213516453
 30
0.0
 10
-3.028179899719261
 20
52.24227226552928
 30
0.0
 10
-3.017749832807699
 20
52.38622017101562
 30
0.0
 10
-3.004875407166649
 20
52.70047903847371
 30
0.0
 10
-3.002465043087944
 20
52.86481987672155
 30
0.0
 10
-2.999242810694299
 20
53.31074827663096
 30
0.0
 10
-3.000000000000004
 20
53.55957521479417
 30
0.0
 10
-3.000000000000004
 20
53.74443401210676
 30
0.0
  0
CIRCLE
  5
60F5
330
60B7
100
AcDbEntity
  8
0
100
AcDbCircle
 10
-88.96838548914722
 20
19.00000000000002
 30
0.0
 40
6.25
  0
CIRCLE
  5
60F6
330
60B7
100
AcDbEntity
  8
0
100
AcDbCircle
 10
-52.9683854891472
 20
25.50000000000002
 30
0.0
 40
4.250000000000007
  0
CIRCLE
  5
60F7
330
60B7
100
AcDbEntity
  8
0
100
AcDbCircle
 10
-88.9683854891472
 20
-20.99999999999999
 30
0.0
 40
6.25
  0
CIRCLE
  5
60F8
330
60B7
100
AcDbEntity
  8
0
100
AcDbCircle
 10
-88.9683854891472
 20
-60.99999999999998
 30
0.0
 40
6.25
  0
CIRCLE
  5
60F9
330
60B7
100
AcDbEntity
  8
0
100
AcDbCircle
 10
-52.9683854891472
 20
-14.49999999999998
 30
0.0
 40
4.250000000000007
  0
CIRCLE
  5
60FA
330
60B7
100
AcDbEntity
  8
0
100
AcDbCircle
 10
-52.9683854891472
 20
-54.49999999999999
 30
0.0
 40
4.250000000000007
  0
ENDBLK
  5
60B9
330
60B7
100
AcDbEntity
  8
0
100
AcDbBlockEnd
  0
BLOCK
  5
60FC
330
60FB
100
AcDbEntity
  8
0
100
AcDbBlockBegin
  2
TU20-Top
 70
     0
 10
0.0
 20
0.0
 30
0.0
  3
TU20-Top
  1

  0
ARC
  5
60FE
330
60FB
100
AcDbEntity
  8
0
100
AcDbCircle
 10
4.500000000000017
 20
-5.999999999999997
 30
0.0
 40
3.0
100
AcDbArc
 50
90.00000000000003
 51
161.6376337998029
  0
SPLINE
  5
60FF
330
60FB
100
AcDbEntity
  8
0
100
AcDbSpline
210
0.0
220
0.0
230
1.0
 70
     8
 71
     3
 72
    12
 73
     8
 74
     0
 42
0.000000001
 43
0.0000000001
 40
0.0
 40
0.0
 40
0.0
 40
0.0
 40
0.04637596600491
 40
0.04637596600491
 40
0.0752344047793535
 40
0.0752344047793535
 40
0.1164597033193082
 40
0.1164597033193082
 40
0.1164597033193082
 40
0.1164597033193082
 10
1.652750592382108
 20
-5.05492285456714
 30
0.0
 10
1.604051852866515
 20
-5.201638345368691
 30
0.0
 10
1.5678435804769
 20
-5.349190800318364
 30
0.0
 10
1.527972406043563
 20
-5.581407130122406
 30
0.0
 10
1.517383414123443
 20
-5.667250896947159
 30
0.0
 10
1.50071988764181
 20
-5.86568739178436
 30
0.0
 10
1.50000000000001
 20
-5.951653230206991
 30
0.0
 10
1.50000000000001
 20
-5.999999999999998
 30
0.0
  0
LINE
  5
6100
330
60FB
100
AcDbEntity
  8
0
100
AcDbLine
 10
-30.0
 20
0.0
 30
0.0
 11
-28.00000000000001
 21
0.0
 31
0.0
  0
LINE
  5
6101
330
60FB
100
AcDbEntity
  8
0
100
AcDbLine
 10
-1.732050807568879
 20
0.0
 30
0.0
 11
-28.00000000000001
 21
0.0
 31
0.0
  0
LINE
  5
6102
330
60FB
100
AcDbEntity
  8
0
100
AcDbLine
 10
0.0
 20
0.0
 30
0.0
 11
-1.732050807568879
 21
0.0
 31
0.0
  0
LINE
  5
6103
330
60FB
100
AcDbEntity
  8
0
100
AcDbLine
 10
1.732050807568891
 20
0.0
 30
0.0
 11
0.0
 21
0.0
 31
0.0
  0
LINE
  5
6104
330
60FB
100
AcDbEntity
  8
0
100
AcDbLine
 10
27.99999999999999
 20
0.0
 30
0.0
 11
1.73205080756889
 21
0.0
 31
0.0
  0
LINE
  5
6105
330
60FB
100
AcDbEntity
  8
0
100
AcDbLine
 10
27.99999999999999
 20
0.0
 30
0.0
 11
29.99999999999998
 21
0.0
 31
0.0
  0
LINE
  5
6106
330
60FB
100
AcDbEntity
  8
0
100
AcDbLine
 10
29.99999999999998
 20
-2.999999999999984
 30
0.0
 11
27.99999999999999
 21
-2.999999999999985
 31
0.0
  0
LINE
  5
6107
330
60FB
100
AcDbEntity
  8
0
100
AcDbLine
 10
1.732050807568892
 20
-3.000000000000003
 30
0.0
 11
27.99999999999999
 21
-2.999999999999985
 31
0.0
  0
LINE
  5
6108
330
60FB
100
AcDbEntity
  8
0
100
AcDbLine
 10
0.0
 20
-3.000000000000004
 30
0.0
 11
1.732050807568892
 21
-3.000000000000003
 31
0.0
  0
LINE
  5
6109
330
60FB
100
AcDbEntity
  8
0
100
AcDbLine
 10
-1.732050807568879
 20
-3.000000000000004
 30
0.0
 11
0.0
 21
-3.000000000000004
 31
0.0
  0
LINE
  5
610A
330
60FB
100
AcDbEntity
  8
0
100
AcDbLine
 10
-28.00000000000001
 20
-3.000000000000027
 30
0.0
 11
-1.732050807568881
 21
-3.000000000000004
 31
0.0
  0
LINE
  5
610B
330
60FB
100
AcDbEntity
  8
0
100
AcDbLine
 10
-28.00000000000001
 20
-3.000000000000027
 30
0.0
 11
-30.0
 21
-3.000000000000028
 31
0.0
  0
LINE
  5
610C
330
60FB
100
AcDbEntity
  8
0
100
AcDbLine
 10
-30.0
 20
0.0
 30
0.0
 11
-30.0
 21
-3.000000000000031
 31
0.0
  0
LINE
  5
610D
330
60FB
100
AcDbEntity
  8
0
100
AcDbLine
 10
-1.732050807568879
 20
0.0
 30
0.0
 11
-1.732050807568879
 21
-3.000000000000004
 31
0.0
  0
LINE
  5
610E
330
60FB
100
AcDbEntity
  8
0
100
AcDbLine
 10
0.0
 20
0.0
 30
0.0
 11
0.0
 21
-3.000000000000004
 31
0.0
  0
LINE
  5
610F
330
60FB
100
AcDbEntity
  8
0
100
AcDbLine
 10
1.732050807568891
 20
0.0
 30
0.0
 11
1.732050807568892
 21
-3.000000000000003
 31
0.0
  0
LINE
  5
6110
330
60FB
100
AcDbEntity
  8
0
100
AcDbLine
 10
30.0
 20
0.0
 30
0.0
 11
30.0
 21
-2.999999999999984
 31
0.0
  0
LINE
  5
6111
330
60FB
100
AcDbEntity
  8
0
100
AcDbLine
 10
1.500000000000086
 20
-107.2183854891472
 30
0.0
 11
-1.49999999999992
 21
-107.2183854891472
 31
0.0
  0
LINE
  5
6112
330
60FB
100
AcDbEntity
  8
0
100
AcDbLine
 10
-1.49999999999992
 20
-107.2183854891472
 30
0.0
 11
-1.49999999999992
 21
-105.2183854891472
 31
0.0
  0
LINE
  5
6113
330
60FB
100
AcDbEntity
  8
0
100
AcDbLine
 10
1.500000000000086
 20
-105.2183854891472
 30
0.0
 11
1.500000000000087
 21
-107.2183854891472
 31
0.0
  0
LINE
  5
6114
330
60FB
100
AcDbEntity
  8
0
100
AcDbLine
 10
-1.499999999999922
 20
-99.85423414066056
 30
0.0
 11
-1.499999999999921
 21
-105.2183854891472
 31
0.0
  0
LINE
  5
6115
330
60FB
100
AcDbEntity
  8
0
100
AcDbLine
 10
1.500000000000085
 20
-105.2183854891472
 30
0.0
 11
1.500000000000067
 21
-99.85423414066056
 31
0.0
  0
LINE
  5
6116
330
60FB
100
AcDbEntity
  8
0
100
AcDbLine
 10
-1.499999999999922
 20
-99.85423414066056
 30
0.0
 11
-1.499999999999923
 21
-98.1398995392564
 31
0.0
  0
LINE
  5
6117
330
60FB
100
AcDbEntity
  8
0
100
AcDbLine
 10
1.500000000000066
 20
-98.1398995392564
 30
0.0
 11
1.500000000000067
 21
-99.85423414066056
 31
0.0
  0
LINE
  5
6118
330
60FB
100
AcDbEntity
  8
0
100
AcDbLine
 10
-1.499999999999923
 20
-95.71838548914719
 30
0.0
 11
-1.499999999999922
 21
-98.13989953925634
 31
0.0
  0
LINE
  5
6119
330
60FB
100
AcDbEntity
  8
0
100
AcDbLine
 10
1.500000000000066
 20
-98.13989953925634
 30
0.0
 11
1.500000000000066
 21
-95.71838548914719
 31
0.0
  0
LINE
  5
611A
330
60FB
100
AcDbEntity
  8
0
100
AcDbLine
 10
1.500000000000066
 20
-95.71838548914719
 30
0.0
 11
-1.499999999999923
 21
-95.71838548914719
 31
0.0
  0
LINE
  5
611B
330
60FB
100
AcDbEntity
  8
0
100
AcDbLine
 10
-1.499999999999924
 20
-91.96838548914717
 30
0.0
 11
-1.499999999999922
 21
-95.71838548914719
 31
0.0
  0
LINE
  5
611C
330
60FB
100
AcDbEntity
  8
0
100
AcDbLine
 10
1.500000000000067
 20
-95.71838548914719
 30
0.0
 11
1.500000000000064
 21
-91.96838548914717
 31
0.0
  0
LINE
  5
611D
330
60FB
100
AcDbEntity
  8
0
100
AcDbLine
 10
-1.499999999999942
 20
-88.9683854891472
 30
0.0
 11
-1.499999999999941
 21
-91.96838548914717
 31
0.0
  0
LINE
  5
611E
330
60FB
100
AcDbEntity
  8
0
100
AcDbLine
 10
1.500000000000065
 20
-91.96838548914717
 30
0.0
 11
1.500000000000064
 21
-88.9683854891472
 31
0.0
  0
LINE
  5
611F
330
60FB
100
AcDbEntity
  8
0
100
AcDbLine
 10
-1.499999999999945
 20
-82.7183854891472
 30
0.0
 11
-1.499999999999943
 21
-88.9683854891472
 31
0.0
  0
LINE
  5
6120
330
60FB
100
AcDbEntity
  8
0
100
AcDbLine
 10
1.500000000000063
 20
-88.9683854891472
 30
0.0
 11
1.500000000000061
 21
-82.7183854891472
 31
0.0
  0
LINE
  5
6121
330
60FB
100
AcDbEntity
  8
0
100
AcDbLine
 10
1.500000000000063
 20
-82.7183854891472
 30
0.0
 11
-1.499999999999943
 21
-82.7183854891472
 31
0.0
  0
LINE
  5
6122
330
60FB
100
AcDbEntity
  8
0
100
AcDbLine
 10
-1.499999999999944
 20
-79.83163414319908
 30
0.0
 11
-1.499999999999943
 21
-82.7183854891472
 31
0.0
  0
LINE
  5
6123
330
60FB
100
AcDbEntity
  8
0
100
AcDbLine
 10
1.500000000000063
 20
-82.7183854891472
 30
0.0
 11
1.500000000000062
 21
-79.83163414319908
 31
0.0
  0
LINE
  5
6124
330
60FB
100
AcDbEntity
  8
0
100
AcDbLine
 10
-1.499999999999943
 20
-79.8316341431991
 30
0.0
 11
-1.499999999999944
 21
-78.09958333563021
 31
0.0
  0
LINE
  5
6125
330
60FB
100
AcDbEntity
  8
0
100
AcDbLine
 10
1.500000000000062
 20
-78.09958333563021
 30
0.0
 11
1.500000000000063
 21
-79.8316341431991
 31
0.0
  0
LINE
  5
6126
330
60FB
100
AcDbEntity
  8
0
100
AcDbLine
 10
-1.499999999999948
 20
-63.6279914503151
 30
0.0
 11
-1.499999999999944
 21
-78.09958333563021
 31
0.0
  0
LINE
  5
6127
330
60FB
100
AcDbEntity
  8
0
100
AcDbLine
 10
1.500000000000062
 20
-78.09958333563021
 30
0.0
 11
1.500000000000059
 21
-63.6279914503151
 31
0.0
  0
LINE
  5
6128
330
60FB
100
AcDbEntity
  8
0
100
AcDbLine
 10
-1.499999999999947
 20
-63.62799145031511
 30
0.0
 11
-1.499999999999948
 21
-62.87877826348335
 31
0.0
  0
LINE
  5
6129
330
60FB
100
AcDbEntity
  8
0
100
AcDbLine
 10
1.500000000000058
 20
-62.87877826348335
 30
0.0
 11
1.500000000000059
 21
-63.6279914503151
 31
0.0
  0
LINE
  5
612A
330
60FB
100
AcDbEntity
  8
0
100
AcDbLine
 10
-1.499999999999948
 20
-59.85917230231536
 30
0.0
 11
-1.499999999999948
 21
-62.87877826348325
 31
0.0
  0
LINE
  5
612B
330
60FB
100
AcDbEntity
  8
0
100
AcDbLine
 10
1.500000000000058
 20
-62.87877826348325
 30
0.0
 11
1.500000000000058
 21
-59.85917230231536
 31
0.0
  0
LINE
  5
612C
330
60FB
100
AcDbEntity
  8
0
100
AcDbLine
 10
-1.499999999999949
 20
-59.85917230231535
 30
0.0
 11
-1.499999999999949
 21
-58.87633468157827
 31
0.0
  0
LINE
  5
612D
330
60FB
100
AcDbEntity
  8
0
100
AcDbLine
 10
1.500000000000057
 20
-58.87633468157827
 30
0.0
 11
1.500000000000057
 21
-59.85917230231535
 31
0.0
  0
LINE
  5
612E
330
60FB
100
AcDbEntity
  8
0
100
AcDbLine
 10
-1.499999999999949
 20
-57.71838548914719
 30
0.0
 11
-1.499999999999949
 21
-58.8763346815783
 31
0.0
  0
LINE
  5
612F
330
60FB
100
AcDbEntity
  8
0
100
AcDbLine
 10
1.500000000000057
 20
-58.8763346815783
 30
0.0
 11
1.500000000000057
 21
-57.71838548914719
 31
0.0
  0
LINE
  5
6130
330
60FB
100
AcDbEntity
  8
0
100
AcDbLine
 10
1.500000000000057
 20
-57.71838548914719
 30
0.0
 11
-1.499999999999949
 21
-57.71838548914719
 31
0.0
  0
LINE
  5
6131
330
60FB
100
AcDbEntity
  8
0
100
AcDbLine
 10
-1.49999999999995
 20
-54.4683854891472
 30
0.0
 11
-1.499999999999948
 21
-57.71838548914719
 31
0.0
  0
LINE
  5
6132
330
60FB
100
AcDbEntity
  8
0
100
AcDbLine
 10
1.500000000000058
 20
-57.71838548914719
 30
0.0
 11
1.500000000000056
 21
-54.4683854891472
 31
0.0
  0
LINE
  5
6133
330
60FB
100
AcDbEntity
  8
0
100
AcDbLine
 10
-1.49999999999995
 20
-52.9683854891472
 30
0.0
 11
-1.49999999999995
 21
-54.4683854891472
 31
0.0
  0
LINE
  5
6134
330
60FB
100
AcDbEntity
  8
0
100
AcDbLine
 10
1.500000000000057
 20
-54.4683854891472
 30
0.0
 11
1.500000000000056
 21
-52.9683854891472
 31
0.0
  0
LINE
  5
6135
330
60FB
100
AcDbEntity
  8
0
100
AcDbLine
 10
-1.499999999999952
 20
-48.7183854891472
 30
0.0
 11
-1.499999999999951
 21
-52.9683854891472
 31
0.0
  0
LINE
  5
6136
330
60FB
100
AcDbEntity
  8
0
100
AcDbLine
 10
1.500000000000055
 20
-52.9683854891472
 30
0.0
 11
1.500000000000054
 21
-48.7183854891472
 31
0.0
  0
LINE
  5
6137
330
60FB
100
AcDbEntity
  8
0
100
AcDbLine
 10
1.500000000000055
 20
-48.7183854891472
 30
0.0
 11
-1.499999999999951
 21
-48.7183854891472
 31
0.0
  0
LINE
  5
6138
330
60FB
100
AcDbEntity
  8
0
100
AcDbLine
 10
-1.49999999999995
 20
-48.7183854891472
 30
0.0
 11
-1.499999999999952
 21
-45.96917230231539
 31
0.0
  0
LINE
  5
6139
330
60FB
100
AcDbEntity
  8
0
100
AcDbLine
 10
1.500000000000055
 20
-45.96917230231539
 30
0.0
 11
1.500000000000056
 21
-48.7183854891472
 31
0.0
  0
LINE
  5
613A
330
60FB
100
AcDbEntity
  8
0
100
AcDbLine
 10
-1.499999999999978
 20
-6.000000000000004
 30
0.0
 11
-1.499999999999952
 21
-45.96917230231539
 31
0.0
  0
LINE
  5
613B
330
60FB
100
AcDbEntity
  8
0
100
AcDbLine
 10
1.500000000000055
 20
-45.96917230231539
 30
0.0
 11
1.50000000000001
 21
-6.000000000000005
 31
0.0
  0
LINE
  5
613C
330
60FB
100
AcDbEntity
  8
0
100
AcDbLine
 10
-3.999999999999946
 20
-80.49136883535465
 30
0.0
 11
-3.999999999999937
 21
-97.4454021429398
 31
0.0
  0
ARC
  5
613D
330
60FB
100
AcDbEntity
  8
0
100
AcDbCircle
 10
-1.499999999999947
 20
-80.49136883535465
 30
0.0
 40
2.5
100
AcDbArc
 50
114.3157391711763
 51
180.0
  0
ARC
  5
613E
330
60FB
100
AcDbEntity
  8
0
100
AcDbCircle
 10
-1.499999999999937
 20
-97.4454021429398
 30
0.0
 40
2.5
100
AcDbArc
 50
180.0
 51
245.6842608288235
  0
ARC
  5
613F
330
60FB
100
AcDbEntity
  8
0
100
AcDbCircle
 10
-3.249999999999938
 20
-76.61838548914722
 30
0.0
 40
1.75
100
AcDbArc
 50
294.3157391711765
 51
0.0
  0
ARC
  5
6140
330
60FB
100
AcDbEntity
  8
0
100
AcDbCircle
 10
-3.249999999999924
 20
-101.3183854891472
 30
0.0
 40
1.75
100
AcDbArc
 50
0.0
 51
65.68426082882353
  0
LINE
  5
6141
330
60FB
100
AcDbEntity
  8
0
100
AcDbLine
 10
4.000000000000035
 20
-46.49136883535461
 30
0.0
 11
4.000000000000042
 21
-59.44540214293979
 31
0.0
  0
ARC
  5
6142
330
60FB
100
AcDbEntity
  8
0
100
AcDbCircle
 10
1.500000000000035
 20
-46.49136883535461
 30
0.0
 40
2.5
100
AcDbArc
 50
0.0
 51
65.68426082882374
  0
ARC
  5
6143
330
60FB
100
AcDbEntity
  8
0
100
AcDbCircle
 10
1.500000000000042
 20
-59.44540214293979
 30
0.0
 40
2.5
100
AcDbArc
 50
294.3157391711769
 51
0.0
  0
ARC
  5
6144
330
60FB
100
AcDbEntity
  8
0
100
AcDbCircle
 10
3.25000000000004
 20
-42.61838548914719
 30
0.0
 40
1.75
100
AcDbArc
 50
180.0
 51
245.684260828823
  0
ARC
  5
6145
330
60FB
100
AcDbEntity
  8
0
100
AcDbCircle
 10
3.250000000000051
 20
-63.31838548914721
 30
0.0
 40
1.75
100
AcDbArc
 50
114.315739171176
 51
180.0
  0
LINE
  5
6146
330
60FB
100
AcDbEntity
  8
0
100
AcDbLine
 10
-3.999999999999974
 20
-23.34136883535462
 30
0.0
 11
-3.999999999999974
 21
-23.59540214293973
 31
0.0
  0
ARC
  5
6147
330
60FB
100
AcDbEntity
  8
0
100
AcDbCircle
 10
-1.499999999999974
 20
-23.34136883535463
 30
0.0
 40
2.5
100
AcDbArc
 50
114.3157391711766
 51
180.0
  0
ARC
  5
6148
330
60FB
100
AcDbEntity
  8
0
100
AcDbCircle
 10
-3.249999999999964
 20
-19.46838548914722
 30
0.0
 40
1.75
100
AcDbArc
 50
294.3157391711765
 51
0.0
  0
ARC
  5
6149
330
60FB
100
AcDbEntity
  8
0
100
AcDbCircle
 10
-1.499999999999974
 20
-23.59540214293975
 30
0.0
 40
2.5
100
AcDbArc
 50
180.0
 51
245.6842608288234
  0
ARC
  5
614A
330
60FB
100
AcDbEntity
  8
0
100
AcDbCircle
 10
-3.249999999999962
 20
-27.46838548914717
 30
0.0
 40
1.75
100
AcDbArc
 50
0.0
 51
65.68426082882357
  0
LINE
  5
614B
330
60FB
100
AcDbEntity
  8
0
100
AcDbLine
 10
1.50000000000001
 20
-6.000000000000004
 30
0.0
 11
-0.5009609454684245
 21
-6.0
 31
0.0
  0
LINE
  5
614C
330
60FB
100
AcDbEntity
  8
0
100
AcDbLine
 10
-0.5009609454684246
 20
-6.0
 30
0.0
 11
-1.499999999999978
 21
-6.000000000000004
 31
0.0
  0
SPLINE
  5
614D
330
60FB
100
AcDbEntity
  8
0
100
AcDbSpline
210
0.0
220
0.0
230
1.0
 70
     8
 71
     3
 72
    10
 73
     6
 74
     0
 42
0.000000001
 43
0.0000000001
 40
0.1702807264026916
 40
0.1702807264026916
 40
0.1702807264026916
 40
0.1702807264026916
 40
0.3101197498474541
 40
0.3101197498474541
 40
0.4962683327629504
 40
0.4962683327629504
 40
0.4962683327629504
 40
0.4962683327629504
 10
0.6961521796114213
 20
-3.000000017594569
 30
0.0
 10
0.9207315404146005
 20
-3.388983750843148
 30
0.0
 10
1.1011625733078
 20
-3.802372922516124
 30
0.0
 10
1.410254314391153
 20
-4.805061856518525
 30
0.0
 10
1.50000000000001
 20
-5.400848321169283
 30
0.0
 10
1.50000000000001
 20
-6.0
 30
0.0
  0
SPLINE
  5
614E
330
60FB
100
AcDbEntity
  8
0
100
AcDbSpline
210
0.0
220
0.0
230
1.0
 70
     8
 71
     3
 72
    10
 73
     6
 74
     0
 42
0.000000001
 43
0.0000000001
 40
0.0
 40
0.0
 40
0.0
 40
0.0
 40
0.1362998422634507
 40
0.1362998422634507
 40
0.2725996852923973
 40
0.2725996852923973
 40
0.2725996852923973
 40
0.2725996852923973
 10
-1.499999999999978
 20
-6.000000000000004
 30
0.0
 10
-1.499999999999978
 20
-5.599991287114328
 30
0.0
 10
-1.580003492034347
 20
-5.203992570414651
 30
0.0
 10
-1.89058233632273
 20
-4.466720217059858
 30
0.0
 10
-2.118043726024112
 20
-4.132838710488875
 30
0.0
 10
-2.404263156240376
 20
-3.853401043112953
 30
0.0
  0
SPLINE
  5
614F
330
60FB
100
AcDbEntity
  8
0
100
AcDbSpline
210
0.0
220
0.0
230
1.0
 70
     8
 71
     3
 72
    20
 73
    16
 74
     0
 42
0.000000001
 43
0.0000000001
 40
0.0
 40
0.0
 40
0.0
 40
0.0
 40
0.0292038487373608
 40
0.0292038487373608
 40
0.1061564375196237
 40
0.1061564375196237
 40
0.2088926108889397
 40
0.2088926108889397
 40
0.3299865151397173
 40
0.3299865151397173
 40
0.4924973234164581
 40
0.4924973234164581
 40
0.5936467899456649
 40
0.5936467899456649
 40
0.7610143407067512
 40
0.7610143407067512
 40
0.7610143407067512
 40
0.7610143407067512
 10
-2.404263156240376
 20
-3.853401043112958
 30
0.0
 10
-2.465674248597402
 20
-3.793445042270215
 30
0.0
 10
-2.523558632590721
 20
-3.741953848794858
 30
0.0
 10
-2.722765588237419
 20
-3.575788910623134
 30
0.0
 10
-2.856603618617967
 20
-3.48744865373539
 30
0.0
 10
-3.090693379598985
 20
-3.347036989113463
 30
0.0
 10
-3.226847097519318
 20
-3.279755693675237
 30
0.0
 10
-3.516412986705177
 20
-3.160767333413918
 30
0.0
 10
-3.662991456262549
 20
-3.115986682583384
 30
0.0
 10
-3.969360485237178
 20
-3.041782749644613
 30
0.0
 10
-4.121946791539087
 20
-3.021550862807492
 30
0.0
 10
-4.313761828381583
 20
-3.004875407166649
 30
0.0
 10
-4.371358554570623
 20
-3.002465043087944
 30
0.0
 10
-4.482821456214164
 20
-2.999244140024353
 30
0.0
 10
-4.500000709263673
 20
-2.999998999130434
 30
0.0
 10
-4.500000023948317
 20
-2.999999999006393
 30
0.0
  0
ENDBLK
  5
60FD
330
60FB
100
AcDbEntity
  8
0
100
AcDbBlockEnd
  0
BLOCK
  5
6151
330
6150
100
AcDbEntity
  8
0
100
AcDbBlockBegin
  2
TU20-Bottom
 70
     0
 10
0.0
 20
0.0
 30
0.0
  3
TU20-Bottom
  1

  0
SPLINE
  5
6153
330
6150
100
AcDbEntity
  8
0
100
AcDbSpline
210
0.0
220
0.0
230
1.0
 70
     8
 71
     3
 72
    20
 73
    16
 74
     0
 42
0.000000001
 43
0.0000000001
 40
0.0
 40
0.0
 40
0.0
 40
0.0
 40
0.0292038487373986
 40
0.0292038487373986
 40
0.1061564375201217
 40
0.1061564375201217
 40
0.2088926108922036
 40
0.2088926108922036
 40
0.3299865151461315
 40
0.3299865151461315
 40
0.4924973234352621
 40
0.4924973234352621
 40
0.5936467899772168
 40
0.5936467899772168
 40
0.7610143407597715
 40
0.7610143407597715
 40
0.7610143407597715
 40
0.7610143407597715
 10
2.404263156240407
 20
3.853401043112959
 30
0.0
 10
2.465674248597504
 20
3.793445042270138
 30
0.0
 10
2.523558632590432
 20
3.74195384879514
 30
0.0
 10
2.722765588238142
 20
3.575788910622532
 30
0.0
 10
2.856603618620947
 20
3.487448653733618
 30
0.0
 10
3.090693379597559
 20
3.347036989114321
 30
0.0
 10
3.226847097517058
 20
3.279755693676325
 30
0.0
 10
3.516412986701797
 20
3.16076733341513
 30
0.0
 10
3.662991456258584
 20
3.115986682584536
 30
0.0
 10
3.969360485242237
 20
3.041782749643146
 30
0.0
 10
4.121946791542512
 20
3.02155086280727
 30
0.0
 10
4.313761828380087
 20
3.004875407166726
 30
0.0
 10
4.371358554569606
 20
3.002465043087985
 30
0.0
 10
4.482821456214191
 20
2.999244140024337
 30
0.0
 10
4.500000709263693
 20
2.999998999130426
 30
0.0
 10
4.500000023948348
 20
2.999999999006384
 30
0.0
  0
SPLINE
  5
6154
330
6150
100
AcDbEntity
  8
0
100
AcDbSpline
210
0.0
220
0.0
230
1.0
 70
     8
 71
     3
 72
    10
 73
     6
 74
     0
 42
0.000000001
 43
0.0000000001
 40
0.0
 40
0.0
 40
0.0
 40
0.0
 40
0.1362998422634566
 40
0.1362998422634566
 40
0.2725996852924425
 40
0.2725996852924425
 40
0.2725996852924425
 40
0.2725996852924425
 10
1.50000000000001
 20
5.999999999999992
 30
0.0
 10
1.50000000000001
 20
5.59999128711428
 30
0.0
 10
1.580003492034396
 20
5.203992570414589
 30
0.0
 10
1.890582336322761
 20
4.466720217059817
 30
0.0
 10
2.118043726024161
 20
4.132838710488861
 30
0.0
 10
2.404263156240407
 20
3.853401043112959
 30
0.0
  0
LINE
  5
6155
330
6150
100
AcDbEntity
  8
0
100
AcDbLine
 10
0.5009609454714941
 20
5.999999999999982
 30
0.0
 11
1.50000000000001
 21
5.999999999999986
 31
0.0
  0
LINE
  5
6156
330
6150
100
AcDbEntity
  8
0
100
AcDbLine
 10
-1.499999999999996
 20
5.999999999999986
 30
0.0
 11
0.5009609454714942
 21
5.999999999999982
 31
0.0
  0
SPLINE
  5
6157
330
6150
100
AcDbEntity
  8
0
100
AcDbSpline
210
0.0
220
0.0
230
1.0
 70
     8
 71
     3
 72
    10
 73
     6
 74
     0
 42
0.000000001
 43
0.0000000001
 40
0.1702807264027009
 40
0.1702807264027009
 40
0.1702807264027009
 40
0.1702807264027009
 40
0.3101197498474831
 40
0.3101197498474831
 40
0.4962683327629939
 40
0.4962683327629939
 40
0.4962683327629939
 40
0.4962683327629939
 10
-0.6961521796113781
 20
3.000000017594545
 30
0.0
 10
-0.9207315404145628
 20
3.388983750843125
 30
0.0
 10
-1.101162573307768
 20
3.802372922516107
 30
0.0
 10
-1.410254314391121
 20
4.805061856518501
 30
0.0
 10
-1.499999999999996
 20
5.40084832116925
 30
0.0
 10
-1.499999999999996
 20
5.999999999999985
 30
0.0
  0
LINE
  5
6158
330
6150
100
AcDbEntity
  8
0
100
AcDbLine
 10
-30.0
 20
3.000000000000004
 30
0.0
 11
-28.00000000000001
 21
3.000000000000004
 31
0.0
  0
LINE
  5
6159
330
6150
100
AcDbEntity
  8
0
100
AcDbLine
 10
-1.732050807568879
 20
2.999999999999995
 30
0.0
 11
-28.00000000000001
 21
3.000000000000004
 31
0.0
  0
LINE
  5
615A
330
6150
100
AcDbEntity
  8
0
100
AcDbLine
 10
0.0
 20
2.999999999999995
 30
0.0
 11
-1.732050807568879
 21
2.999999999999995
 31
0.0
  0
LINE
  5
615B
330
6150
100
AcDbEntity
  8
0
100
AcDbLine
 10
1.732050807568874
 20
2.999999999999993
 30
0.0
 11
0.0
 21
2.999999999999995
 31
0.0
  0
LINE
  5
615C
330
6150
100
AcDbEntity
  8
0
100
AcDbLine
 10
28.00000000000001
 20
2.999999999999984
 30
0.0
 11
1.732050807568872
 21
2.999999999999993
 31
0.0
  0
LINE
  5
615D
330
6150
100
AcDbEntity
  8
0
100
AcDbLine
 10
28.00000000000001
 20
2.999999999999984
 30
0.0
 11
30.00000000000001
 21
2.999999999999984
 31
0.0
  0
LINE
  5
615E
330
6150
100
AcDbEntity
  8
0
100
AcDbLine
 10
30.00000000000001
 20
0.0
 30
0.0
 11
28.00000000000001
 21
0.0
 31
0.0
  0
LINE
  5
615F
330
6150
100
AcDbEntity
  8
0
100
AcDbLine
 10
1.732050807568873
 20
0.0
 30
0.0
 11
28.00000000000001
 21
0.0
 31
0.0
  0
LINE
  5
6160
330
6150
100
AcDbEntity
  8
0
100
AcDbLine
 10
0.0
 20
0.0
 30
0.0
 11
1.732050807568873
 21
0.0
 31
0.0
  0
LINE
  5
6161
330
6150
100
AcDbEntity
  8
0
100
AcDbLine
 10
-1.732050807568879
 20
0.0
 30
0.0
 11
0.0
 21
0.0
 31
0.0
  0
LINE
  5
6162
330
6150
100
AcDbEntity
  8
0
100
AcDbLine
 10
-28.00000000000001
 20
0.0
 30
0.0
 11
-1.732050807568881
 21
0.0
 31
0.0
  0
LINE
  5
6163
330
6150
100
AcDbEntity
  8
0
100
AcDbLine
 10
-28.00000000000001
 20
0.0
 30
0.0
 11
-30.0
 21
0.0
 31
0.0
  0
LINE
  5
6164
330
6150
100
AcDbEntity
  8
0
100
AcDbLine
 10
-30.0
 20
3.000000000000004
 30
0.0
 11
-30.0
 21
0.0
 31
0.0
  0
LINE
  5
6165
330
6150
100
AcDbEntity
  8
0
100
AcDbLine
 10
-1.732050807568879
 20
2.999999999999995
 30
0.0
 11
-1.732050807568879
 21
0.0
 31
0.0
  0
LINE
  5
6166
330
6150
100
AcDbEntity
  8
0
100
AcDbLine
 10
0.0
 20
2.999999999999995
 30
0.0
 11
0.0
 21
0.0
 31
0.0
  0
LINE
  5
6167
330
6150
100
AcDbEntity
  8
0
100
AcDbLine
 10
1.732050807568874
 20
2.999999999999993
 30
0.0
 11
1.732050807568873
 21
0.0
 31
0.0
  0
LINE
  5
6168
330
6150
100
AcDbEntity
  8
0
100
AcDbLine
 10
30.0
 20
2.999999999999984
 30
0.0
 11
30.0
 21
0.0
 31
0.0
  0
LINE
  5
6169
330
6150
100
AcDbEntity
  8
0
100
AcDbLine
 10
1.50000000000001
 20
5.999999999999986
 30
0.0
 11
1.500000000000042
 21
69.66762729548863
 31
0.0
  0
LINE
  5
616A
330
6150
100
AcDbEntity
  8
0
100
AcDbLine
 10
1.500000000000042
 20
69.66762729548863
 30
0.0
 11
-1.499999999999964
 21
69.66762729548863
 31
0.0
  0
LINE
  5
616B
330
6150
100
AcDbEntity
  8
0
100
AcDbLine
 10
-1.499999999999964
 20
69.66762729548863
 30
0.0
 11
-1.499999999999996
 21
5.999999999999987
 31
0.0
  0
LINE
  5
616C
330
6150
100
AcDbEntity
  8
0
100
AcDbLine
 10
-1.499999999999938
 20
105.2183854891472
 30
0.0
 11
-1.499999999999964
 21
69.66762729548863
 31
0.0
  0
LINE
  5
616D
330
6150
100
AcDbEntity
  8
0
100
AcDbLine
 10
1.500000000000042
 20
69.66762729548863
 30
0.0
 11
1.500000000000068
 21
105.2183854891472
 31
0.0
  0
LINE
  5
616E
330
6150
100
AcDbEntity
  8
0
100
AcDbLine
 10
-1.499999999999939
 20
105.2183854891472
 30
0.0
 11
-1.499999999999937
 21
107.2183854891472
 31
0.0
  0
LINE
  5
616F
330
6150
100
AcDbEntity
  8
0
100
AcDbLine
 10
1.500000000000069
 20
107.2183854891472
 30
0.0
 11
1.500000000000067
 21
105.2183854891472
 31
0.0
  0
LINE
  5
6170
330
6150
100
AcDbEntity
  8
0
100
AcDbLine
 10
1.500000000000068
 20
107.2183854891472
 30
0.0
 11
-1.499999999999938
 21
107.2183854891472
 31
0.0
  0
LINE
  5
6171
330
6150
100
AcDbEntity
  8
0
100
AcDbLine
 10
-3.999999999999937
 20
97.44540214293978
 30
0.0
 11
-3.999999999999946
 21
80.49136883535462
 31
0.0
  0
LINE
  5
6172
330
6150
100
AcDbEntity
  8
0
100
AcDbLine
 10
4.000000000000042
 20
59.44540214293978
 30
0.0
 11
4.000000000000035
 21
46.49136883535461
 31
0.0
  0
ARC
  5
6173
330
6150
100
AcDbEntity
  8
0
100
AcDbCircle
 10
-1.499999999999937
 20
97.44540214293978
 30
0.0
 40
2.5
100
AcDbArc
 50
114.3157391711767
 51
180.0
  0
ARC
  5
6174
330
6150
100
AcDbEntity
  8
0
100
AcDbCircle
 10
-1.499999999999947
 20
80.49136883535462
 30
0.0
 40
2.5
100
AcDbArc
 50
180.0
 51
245.6842608288233
  0
ARC
  5
6175
330
6150
100
AcDbEntity
  8
0
100
AcDbCircle
 10
-3.249999999999941
 20
101.3183854891472
 30
0.0
 40
1.75
100
AcDbArc
 50
294.3157391711765
 51
0.0
  0
ARC
  5
6176
330
6150
100
AcDbEntity
  8
0
100
AcDbCircle
 10
-3.249999999999956
 20
76.61838548914722
 30
0.0
 40
1.75
100
AcDbArc
 50
0.0
 51
65.68426082882351
  0
ARC
  5
6177
330
6150
100
AcDbEntity
  8
0
100
AcDbCircle
 10
1.500000000000042
 20
59.44540214293978
 30
0.0
 40
2.5
100
AcDbArc
 50
0.0
 51
65.68426082882313
  0
ARC
  5
6178
330
6150
100
AcDbEntity
  8
0
100
AcDbCircle
 10
1.500000000000035
 20
46.49136883535461
 30
0.0
 40
2.5
100
AcDbArc
 50
294.3157391711763
 51
0.0
  0
ARC
  5
6179
330
6150
100
AcDbEntity
  8
0
100
AcDbCircle
 10
3.250000000000033
 20
63.31838548914719
 30
0.0
 40
1.75
100
AcDbArc
 50
180.0
 51
245.6842608288244
  0
ARC
  5
617A
330
6150
100
AcDbEntity
  8
0
100
AcDbCircle
 10
3.250000000000023
 20
42.61838548914719
 30
0.0
 40
1.75
100
AcDbArc
 50
114.3157391711765
 51
180.0
  0
LINE
  5
617B
330
6150
100
AcDbEntity
  8
0
100
AcDbLine
 10
-3.999999999999974
 20
23.59540214293982
 30
0.0
 11
-3.999999999999974
 21
23.34136883535464
 31
0.0
  0
ARC
  5
617C
330
6150
100
AcDbEntity
  8
0
100
AcDbCircle
 10
-1.499999999999974
 20
23.34136883535465
 30
0.0
 40
2.5
100
AcDbArc
 50
180.0
 51
245.6842608288234
  0
ARC
  5
617D
330
6150
100
AcDbEntity
  8
0
100
AcDbCircle
 10
-3.249999999999982
 20
19.46838548914723
 30
0.0
 40
1.75
100
AcDbArc
 50
0.0
 51
65.68426082882353
  0
ARC
  5
617E
330
6150
100
AcDbEntity
  8
0
100
AcDbCircle
 10
-1.499999999999974
 20
23.59540214293975
 30
0.0
 40
2.5
100
AcDbArc
 50
114.3157391711765
 51
180.0
  0
ARC
  5
617F
330
6150
100
AcDbEntity
  8
0
100
AcDbCircle
 10
-3.24999999999998
 20
27.46838548914717
 30
0.0
 40
1.75
100
AcDbArc
 50
294.3157391711764
 51
0.0
  0
ARC
  5
6180
330
6150
100
AcDbEntity
  8
0
100
AcDbCircle
 10
-4.499999999999985
 20
5.999999999999995
 30
0.0
 40
3.0
100
AcDbArc
 50
269.9999999999993
 51
341.6376337998028
  0
SPLINE
  5
6181
330
6150
100
AcDbEntity
  8
0
100
AcDbSpline
210
0.0
220
0.0
230
1.0
 70
     8
 71
     3
 72
    12
 73
     8
 74
     0
 42
0.000000001
 43
0.0000000001
 40
0.0
 40
0.0
 40
0.0
 40
0.0
 40
0.0463759660219439
 40
0.0463759660219439
 40
0.075234404795242
 40
0.075234404795242
 40
0.1164597033381801
 40
0.1164597033381801
 40
0.1164597033381801
 40
0.1164597033381801
 10
-1.652750592382094
 20
5.054922854567128
 30
0.0
 10
-1.604051852848613
 20
5.201638345422568
 30
0.0
 10
-1.567843580455214
 20
5.34919080041
 30
0.0
 10
-1.527972406030137
 20
5.581407130221825
 30
0.0
 10
-1.517383414114956
 20
5.667250897028758
 30
0.0
 10
-1.500719887640819
 20
5.865687391823374
 30
0.0
 10
-1.499999999999996
 20
5.95165323023263
 30
0.0
 10
-1.499999999999996
 20
5.999999999999987
 30
0.0
  0
ENDBLK
  5
6152
330
6150
100
AcDbEntity
  8
0
100
AcDbBlockEnd
  0
BLOCK
  5
6183
330
6182
100
AcDbEntity
  8
0
100
AcDbBlockBegin
  2
TU20-ISO
 70
     0
 10
0.0
 20
0.0
 30
0.0
  3
TU20-ISO
  1

  0
ELLIPSE
  5
6185
330
6182
100
AcDbEntity
  8
0
100
AcDbEllipse
 10
36.84645969798107
 20
14.94546492312422
 30
0.0
 11
-3.0
 21
-0.0000000000002129
 31
0.0
210
0.0
220
0.0
230
1.0
 40
0.5773502691896181
 41
3.926990816986995
 42
5.177303395131611
  0
LINE
  5
6186
330
6182
100
AcDbEntity
  8
0
100
AcDbLine
 10
41.08910038510035
 20
17.39495466590738
 30
0.0
 11
38.96778004154072
 21
16.17020979451579
 31
0.0
  0
ELLIPSE
  5
6187
330
6182
100
AcDbEntity
  8
0
100
AcDbEllipse
 10
36.84645969798107
 20
14.94546492312422
 30
0.0
 11
6.000000000000001
 21
-0.0000000000000622
 31
0.0
210
0.0
220
0.0
230
1.0
 40
0.577350269189631
 41
0.7853981633975789
 42
2.035710741542033
  0
LINE
  5
6188
330
6182
100
AcDbEntity
  8
0
100
AcDbLine
 10
35.50142079240507
 20
16.49367575528792
 30
0.0
 11
34.15638188682907
 21
18.04188658745161
 31
0.0
  0
SPLINE
  5
6189
330
6182
100
AcDbEntity
  8
0
100
AcDbSpline
210
0.0
220
0.0
230
1.0
 70
     8
 71
     3
 72
    12
 73
     8
 74
     0
 42
0.000000001
 43
0.0000000001
 40
0.0
 40
0.0
 40
0.0
 40
0.0
 40
0.04637596600491
 40
0.04637596600491
 40
0.0752344047793535
 40
0.0752344047793535
 40
0.1164597033193082
 40
0.1164597033193082
 40
0.1164597033193082
 40
0.1164597033193082
 10
35.50142079240507
 20
16.49367575528789
 30
0.0
 10
35.36324206500746
 20
16.4536587598366
 30
0.0
 10
35.23330360859008
 20
16.43123140363909
 30
0.0
 10
35.04090868926771
 20
16.42386691118972
 30
0.0
 10
34.97272043163068
 20
16.42806001411764
 30
0.0
 10
34.82062174792277
 20
16.4543614522574
 30
0.0
 10
34.75932568319052
 20
16.48073139308644
 30
0.0
 10
34.72513935442143
 20
16.49736810755254
 30
0.0
  0
SPLINE
  5
618A
330
6182
100
AcDbEntity
  8
0
100
AcDbSpline
210
0.0
220
0.0
230
1.0
 70
     8
 71
     3
 72
     8
 73
     4
 74
     0
 42
0.000000001
 43
0.0000000001
 40
0.0828577000493254
 40
0.0828577000493254
 40
0.0828577000493254
 40
0.0828577000493254
 40
0.0861016274010382
 40
0.0861016274010382
 40
0.0861016274010382
 40
0.0861016274010382
 10
34.07596082975317
 20
18.01880514933651
 30
0.0
 10
34.10265856421438
 20
18.02639723720693
 30
0.0
 10
34.12946769166148
 20
18.03409242421014
 30
0.0
 10
34.15638188682907
 20
18.04188658745159
 30
0.0
  0
LINE
  5
618B
330
6182
100
AcDbEntity
  8
0
100
AcDbLine
 10
34.72513935442143
 20
16.49736810755254
 30
0.0
 11
34.32371481839189
 21
16.72913067148852
 31
0.0
  0
SPLINE
  5
618C
330
6182
100
AcDbEntity
  8
0
100
AcDbSpline
210
0.0
220
0.0
230
1.0
 70
     8
 71
     3
 72
    20
 73
    16
 74
     0
 42
0.000000001
 43
0.0000000001
 40
0.0
 40
0.0
 40
0.0
 40
0.0
 40
0.0292038487373986
 40
0.0292038487373986
 40
0.1061564375201217
 40
0.1061564375201217
 40
0.2088926108922036
 40
0.2088926108922036
 40
0.3299865151461315
 40
0.3299865151461315
 40
0.4924973234352621
 40
0.4924973234352621
 40
0.5936467899772168
 40
0.5936467899772168
 40
0.7611251630148886
 40
0.7611251630148886
 40
0.7611251630148886
 40
0.7611251630148886
 10
36.88242464307895
 20
-23.11723983108355
 30
0.0
 10
36.96824413769351
 20
-23.08032626120089
 30
0.0
 10
37.04558435021727
 20
-23.05721748490783
 30
0.0
 10
37.3039412939926
 20
-23.00230758667781
 30
0.0
 10
37.46104506755485
 20
-23.01512754578828
 30
0.0
 10
37.72585756515774
 20
-23.06518393512111
 30
0.0
 10
37.8697078426336
 20
-23.12338246405453
 30
0.0
 10
38.1585993228994
 20
-23.30294907027483
 30
0.0
 10
38.29391065456721
 20
-23.43013650821454
 30
0.0
 10
38.56301637668066
 20
-23.76771650803064
 30
0.0
 10
38.68521729295963
 20
-23.99749266814217
 30
0.0
 10
38.83264233400384
 20
-24.40134009879728
 30
0.0
 10
38.8750737544518
 20
-24.55805356932246
 30
0.0
 10
38.95620091941682
 20
-24.96636043198763
 30
0.0
 10
38.96779661385044
 20
-25.17683979602367
 30
0.0
 10
38.96778004154072
 20
-25.32776680395624
 30
0.0
  0
SPLINE
  5
618D
330
6182
100
AcDbEntity
  8
0
100
AcDbSpline
210
0.0
220
0.0
230
1.0
 70
     8
 71
     3
 72
    10
 73
     6
 74
     0
 42
0.000000001
 43
0.0000000001
 40
0.0
 40
0.0
 40
0.0
 40
0.0
 40
0.1362998422634566
 40
0.1362998422634566
 40
0.2725996852924425
 40
0.2725996852924425
 40
0.2725996852924425
 40
0.2725996852924425
 10
34.72513935442143
 20
-24.6763452754252
 30
0.0
 10
35.00798822783661
 20
-24.33714218499887
 30
0.0
 10
35.34457261749226
 20
-24.03397523311494
 30
0.0
 10
36.08551530502016
 20
-23.5079796795671
 30
0.0
 10
36.48244467354524
 20
-23.29037140620564
 30
0.0
 10
36.88242464307895
 20
-23.11723983108355
 30
0.0
  0
LINE
  5
618E
330
6182
100
AcDbEntity
  8
0
100
AcDbLine
 10
34.72513935442143
 20
-24.67634527542519
 30
0.0
 11
34.72513935442143
 21
16.49736810755254
 31
0.0
  0
LINE
  5
618F
330
6182
100
AcDbEntity
  8
0
100
AcDbLine
 10
38.96778004154072
 20
16.17020979451579
 30
0.0
 11
38.96778004154072
 21
-25.32776680395624
 31
0.0
  0
LINE
  5
6190
330
6182
100
AcDbEntity
  8
0
100
AcDbLine
 10
37.97278522445453
 20
-26.45665178454589
 30
0.0
 11
38.8519302635554
 21
-25.94907715956427
 31
0.0
  0
ELLIPSE
  5
6191
330
6182
100
AcDbEntity
  8
0
100
AcDbEllipse
 10
37.37678978387097
 20
-24.40920815041254
 30
0.0
 11
1.125
 21
-1.948557158514988
 31
0.0
210
0.0
220
0.0
230
1.0
 40
0.5773502691896258
 41
5.881759579220886
 42
7.068583470577034
  0
ELLIPSE
  5
6192
330
6182
100
AcDbEntity
  8
0
100
AcDbEllipse
 10
32.95737240145505
 20
-43.84228890367206
 30
0.0
 11
1.249999999999998
 21
-2.165063509461094
 31
0.0
210
0.0
220
0.0
230
1.0
 40
0.577350269189626
 41
0.0
 42
6.283185307179586
  0
ELLIPSE
  5
6193
330
6182
100
AcDbEntity
  8
0
100
AcDbEllipse
 10
25.88630458958957
 20
-31.59484018975618
 30
0.0
 11
1.25
 21
-2.165063509461097
 31
0.0
210
0.0
220
0.0
230
1.0
 40
0.5773502691896259
 41
5.594401534667632
 42
7.304981685070233
  0
LINE
  5
6194
330
6182
100
AcDbEntity
  8
0
100
AcDbLine
 10
33.49503752229806
 20
-25.96042344660572
 30
0.0
 11
37.97278522445453
 21
-26.45665178454589
 31
0.0
  0
LINE
  5
6195
330
6182
100
AcDbEntity
  8
0
100
AcDbLine
 10
34.56105465480965
 20
-49.66715476990732
 30
0.0
 11
19.25198234822502
 21
-40.82845775265726
 31
0.0
  0
LINE
  5
6196
330
6182
100
AcDbEntity
  8
0
100
AcDbLine
 10
35.78579952620124
 20
-47.9247718083107
 30
0.0
 11
34.56105465480965
 21
-49.66715476990732
 31
0.0
  0
LINE
  5
6197
330
6182
100
AcDbEntity
  8
0
100
AcDbLine
 10
37.01054439759282
 20
-51.08136833228042
 30
0.0
 11
35.78579952620124
 21
-47.9247718083107
 31
0.0
  0
LINE
  5
6198
330
6182
100
AcDbEntity
  8
0
100
AcDbLine
 10
55.58478939942458
 20
-61.80521368408204
 30
0.0
 11
37.01054439759282
 21
-51.08136833228042
 31
0.0
  0
ELLIPSE
  5
6199
330
6182
100
AcDbEntity
  8
0
100
AcDbEllipse
 10
55.58478939942458
 20
-60.1722205222266
 30
0.0
 11
1.0
 21
-1.732050807568877
 31
0.0
210
0.0
220
0.0
230
1.0
 40
0.577350269189626
 41
5.497787143782137
 42
7.068583470577026
  0
LINE
  5
619A
330
6182
100
AcDbEntity
  8
0
100
AcDbLine
 10
56.99900296179769
 20
4.126885225831841
 30
0.0
 11
56.99900296179767
 21
-60.98871710315432
 31
0.0
  0
ELLIPSE
  5
619B
330
6182
100
AcDbEntity
  8
0
100
AcDbEllipse
 10
55.58478939942459
 20
4.943381806759572
 30
0.0
 11
0.9999999999999021
 21
-1.732050807568946
 31
0.0
210
0.0
220
0.0
230
0.9999999999999998
 40
0.5773502691896261
 41
0.7853981633976935
 42
2.356194490192585
  0
LINE
  5
619C
330
6182
100
AcDbEntity
  8
0
100
AcDbLine
 10
38.96778004154072
 20
16.17020979451579
 30
0.0
 11
55.58478939942459
 21
6.576374968615019
 31
0.0
  0
LINE
  5
619D
330
6182
100
AcDbEntity
  8
0
100
AcDbLine
 10
57.70610974298422
 20
7.801119840006607
 30
0.0
 11
41.08910038510035
 21
17.39495466590738
 31
0.0
  0
ELLIPSE
  5
619E
330
6182
100
AcDbEntity
  8
0
100
AcDbEllipse
 10
57.70610974298422
 20
6.168126678151162
 30
0.0
 11
-1.000000000000109
 21
1.732050807568826
 31
0.0
210
0.0
220
0.0
230
1.0
 40
0.577350269189626
 41
3.926990816987
 42
5.497787143781896
  0
LINE
  5
619F
330
6182
100
AcDbEntity
  8
0
100
AcDbLine
 10
59.12032330535731
 20
-59.76397223176272
 30
0.0
 11
59.12032330535733
 21
5.351630097223427
 31
0.0
  0
ELLIPSE
  5
61A0
330
6182
100
AcDbEntity
  8
0
100
AcDbEllipse
 10
57.70610974298422
 20
-58.947475650835
 30
0.0
 11
1.000000000000001
 21
-1.732050807568876
 31
0.0
210
0.0
220
0.0
230
1.0
 40
0.5773502691896261
 41
0.0
 42
0.7853981633974519
  0
LINE
  5
61A1
330
6182
100
AcDbEntity
  8
0
100
AcDbLine
 10
38.95942382651821
 20
-25.10616038339728
 30
0.0
 11
34.75552968640748
 21
-24.64028076248454
 31
0.0
  0
ELLIPSE
  5
61A2
330
6182
100
AcDbEntity
  8
0
100
AcDbEllipse
 10
28.00762493314921
 20
-30.3700953183646
 30
0.0
 11
1.25
 21
-2.165063509461096
 31
0.0
210
0.0
220
0.0
230
1.0
 40
0.5773502691896261
 41
5.263003954883037
 42
5.269987807084228
  0
ELLIPSE
  5
61A3
330
6182
100
AcDbEntity
  8
0
100
AcDbEllipse
 10
35.07869274501469
 20
-42.61754403228048
 30
0.0
 11
1.250000000000127
 21
-2.165063509461019
 31
0.0
210
0.0
220
0.0
230
1.0
 40
0.577350269189626
 41
4.154790153685034
 42
5.269987807084105
  0
LINE
  5
61A4
330
6182
100
AcDbEntity
  8
0
100
AcDbLine
 10
34.56105465480965
 20
-49.66715476990732
 30
0.0
 11
36.11396892542477
 21
-48.77057929773927
 31
0.0
  0
LINE
  5
61A5
330
6182
100
AcDbEntity
  8
0
100
AcDbLine
 10
56.99900296179767
 20
-60.98871710315432
 30
0.0
 11
59.12032330535731
 21
-59.76397223176272
 31
0.0
  0
LINE
  5
61A6
330
6182
100
AcDbEntity
  8
0
100
AcDbLine
 10
56.99900296179769
 20
4.126885225831841
 30
0.0
 11
59.12032330535733
 21
5.351630097223432
 31
0.0
  0
LINE
  5
61A7
330
6182
100
AcDbEntity
  8
0
100
AcDbLine
 10
55.58478939942459
 20
6.576374968615019
 30
0.0
 11
57.70610974298422
 21
7.801119840006607
 31
0.0
  0
ELLIPSE
  5
61A8
330
6182
100
AcDbEntity
  8
0
100
AcDbEllipse
 10
47.80661480637255
 20
72.50847387852892
 30
0.0
 11
1.250000000000129
 21
-2.165063509461018
 31
0.0
210
0.0
220
0.0
230
1.0
 40
0.577350269189626
 41
4.154790153685031
 42
5.269987807084108
  0
ELLIPSE
  5
61A9
330
6182
100
AcDbEntity
  8
0
100
AcDbEllipse
 10
54.87768261823804
 20
76.59095678316754
 30
0.0
 11
1.250000000000131
 21
-2.165063509461023
 31
0.0
210
0.0
220
0.0
230
1.0
 40
0.5773502691896262
 41
4.154790153685036
 42
5.269987807084108
  0
ELLIPSE
  5
61AA
330
6182
100
AcDbEntity
  8
0
100
AcDbEllipse
 10
40.73554699450707
 20
84.75592259244479
 30
0.0
 11
1.250000000000129
 21
-2.165063509461021
 31
0.0
210
0.0
220
0.0
230
1.0
 40
0.5773502691896261
 41
4.154790153685034
 42
5.269987807084108
  0
ELLIPSE
  5
61AB
330
6182
100
AcDbEntity
  8
0
100
AcDbEllipse
 10
18.10812999653753
 20
102.7188473728548
 30
0.0
 11
-0.9999999999999975
 21
1.73205080756887
 31
0.0
210
0.0
220
0.0
230
1.0
 40
0.5773502691896262
 41
5.497787143782137
 42
6.283185307179587
  0
LINE
  5
61AC
330
6182
100
AcDbEntity
  8
0
100
AcDbLine
 10
36.68237499836929
 20
93.62799518290861
 30
0.0
 11
18.10812999653753
 21
104.3518405347102
 31
0.0
  0
LINE
  5
61AD
330
6182
100
AcDbEntity
  8
0
100
AcDbLine
 10
37.57895047053735
 20
91.31720614836746
 30
0.0
 11
36.68237499836929
 21
93.62799518290861
 31
0.0
  0
LINE
  5
61AE
330
6182
100
AcDbEntity
  8
0
100
AcDbLine
 10
57.70610974298422
 20
81.48993626873389
 30
0.0
 11
39.13186474115248
 21
92.21378162053552
 31
0.0
  0
ELLIPSE
  5
61AF
330
6182
100
AcDbEntity
  8
0
100
AcDbEllipse
 10
57.70610974298421
 20
79.85694310687847
 30
0.0
 11
-1.000000000000097
 21
1.732050807568803
 31
0.0
210
0.0
220
0.0
230
1.0
 40
0.5773502691896261
 41
3.926990816986997
 42
5.497787143781896
  0
LINE
  5
61B0
330
6182
100
AcDbEntity
  8
0
100
AcDbLine
 10
59.12032330535731
 20
67.24207093154507
 30
0.0
 11
59.12032330535732
 21
79.04044652595074
 31
0.0
  0
ELLIPSE
  5
61B1
330
6182
100
AcDbEntity
  8
0
100
AcDbEllipse
 10
57.70610974298422
 20
68.05856751247279
 30
0.0
 11
1.000000000000043
 21
-1.732050807568943
 31
0.0
210
0.0
220
0.0
230
1.0
 40
0.5773502691896262
 41
0.0
 42
0.7853981633974323
  0
ELLIPSE
  5
61B2
330
6182
100
AcDbEntity
  8
0
100
AcDbEllipse
 10
34.19480926853152
 20
65.46164625794296
 30
0.0
 11
-1.124999999999999
 21
1.948557158514984
 31
0.0
210
0.0
220
0.0
230
1.0
 40
0.5773502691896261
 41
5.881759579220896
 42
7.068583470577038
  0
LINE
  5
61B3
330
6182
100
AcDbEntity
  8
0
100
AcDbLine
 10
56.11456312438775
 20
65.01387274407379
 30
0.0
 11
33.59881382794795
 21
67.5090898920763
 31
0.0
  0
ELLIPSE
  5
61B4
330
6182
100
AcDbEntity
  8
0
100
AcDbEllipse
 10
55.58478939942458
 20
66.8338226410812
 30
0.0
 11
1.00000000000004
 21
-1.732050807568944
 31
0.0
210
0.0
220
0.0
230
1.0
 40
0.5773502691896264
 41
5.881759579220895
 42
7.068583470577033
  0
LINE
  5
61B5
330
6182
100
AcDbEntity
  8
0
100
AcDbLine
 10
56.99900296179769
 20
77.81570165455915
 30
0.0
 11
56.99900296179766
 21
66.01732606015348
 31
0.0
  0
ELLIPSE
  5
61B6
330
6182
100
AcDbEntity
  8
0
100
AcDbEllipse
 10
55.58478939942458
 20
78.63219823548688
 30
0.0
 11
0.99999999999989
 21
-1.732050807568922
 31
0.0
210
0.0
220
0.0
230
1.0
 40
0.5773502691896263
 41
0.7853981633976899
 42
2.356194490192585
  0
LINE
  5
61B7
330
6182
100
AcDbEntity
  8
0
100
AcDbLine
 10
37.01054439759284
 20
90.98903674914394
 30
0.0
 11
55.58478939942458
 21
80.26519139734231
 31
0.0
  0
LINE
  5
61B8
330
6182
100
AcDbEntity
  8
0
100
AcDbLine
 10
35.78579952620124
 20
89.24665378754729
 30
0.0
 11
37.01054439759284
 21
90.98903674914394
 31
0.0
  0
LINE
  5
61B9
330
6182
100
AcDbEntity
  8
0
100
AcDbLine
 10
34.56105465480965
 20
92.40325031151702
 30
0.0
 11
35.78579952620124
 21
89.24665378754729
 31
0.0
  0
LINE
  5
61BA
330
6182
100
AcDbEntity
  8
0
100
AcDbLine
 10
15.98680965297789
 20
103.1270956633186
 30
0.0
 11
34.56105465480965
 21
92.40325031151702
 31
0.0
  0
ELLIPSE
  5
61BB
330
6182
100
AcDbEntity
  8
0
100
AcDbEllipse
 10
15.98680965297789
 20
101.4941025014632
 30
0.0
 11
-0.9999999999999975
 21
1.73205080756887
 31
0.0
210
0.0
220
0.0
230
1.0
 40
0.5773502691896262
 41
5.49778714378214
 42
7.068583470577036
  0
LINE
  5
61BC
330
6182
100
AcDbEntity
  8
0
100
AcDbLine
 10
14.57259609060479
 20
61.28105604933216
 30
0.0
 11
14.57259609060479
 21
102.3105990823909
 31
0.0
  0
ELLIPSE
  5
61BD
330
6182
100
AcDbEntity
  8
0
100
AcDbEllipse
 10
38.61422665094744
 20
83.53117772105321
 30
0.0
 11
-1.250000000000001
 21
2.165063509461095
 31
0.0
210
0.0
220
0.0
230
1.0
 40
0.5773502691896262
 41
0.0
 42
6.283185307179586
  0
ELLIPSE
  5
61BE
330
6182
100
AcDbEntity
  8
0
100
AcDbEllipse
 10
52.75636227467839
 20
75.36621191177596
 30
0.0
 11
-1.250000000000003
 21
2.165063509461098
 31
0.0
210
0.0
220
0.0
230
1.0
 40
0.5773502691896262
 41
0.0
 42
6.283185307179586
  0
ELLIPSE
  5
61BF
330
6182
100
AcDbEntity
  8
0
100
AcDbEllipse
 10
45.68529446281291
 20
71.28372900713732
 30
0.0
 11
-1.249999999999999
 21
2.165063509461091
 31
0.0
210
0.0
220
0.0
230
0.9999999999999998
 40
0.5773502691896263
 41
0.0
 42
6.283185307179586
  0
LINE
  5
61C0
330
6182
100
AcDbEntity
  8
0
100
AcDbLine
 10
18.10812999653753
 20
104.3518405347102
 30
0.0
 11
15.98680965297789
 21
103.1270956633186
 31
0.0
  0
LINE
  5
61C1
330
6182
100
AcDbEntity
  8
0
100
AcDbLine
 10
36.68237499836929
 20
93.62799518290861
 30
0.0
 11
34.56105465480965
 21
92.40325031151702
 31
0.0
  0
LINE
  5
61C2
330
6182
100
AcDbEntity
  8
0
100
AcDbLine
 10
39.13186474115248
 20
92.21378162053552
 30
0.0
 11
37.01054439759284
 21
90.98903674914394
 31
0.0
  0
LINE
  5
61C3
330
6182
100
AcDbEntity
  8
0
100
AcDbLine
 10
57.70610974298422
 20
81.48993626873389
 30
0.0
 11
55.58478939942458
 21
80.26519139734231
 31
0.0
  0
LINE
  5
61C4
330
6182
100
AcDbEntity
  8
0
100
AcDbLine
 10
59.12032330535732
 20
79.04044652595074
 30
0.0
 11
56.99900296179769
 21
77.81570165455915
 31
0.0
  0
LINE
  5
61C5
330
6182
100
AcDbEntity
  8
0
100
AcDbLine
 10
59.12032330535731
 20
67.24207093154507
 30
0.0
 11
56.99900296179766
 21
66.01732606015348
 31
0.0
  0
LINE
  5
61C6
330
6182
100
AcDbEntity
  8
0
100
AcDbLine
 10
34.72513935442143
 20
-24.67634527542519
 30
0.0
 11
-10.29467164827631
 21
-71.6716062120331
 31
0.0
  0
LINE
  5
61C7
330
6182
100
AcDbEntity
  8
0
100
AcDbLine
 10
-10.29467164827631
 20
-71.6716062120331
 30
0.0
 11
-35.43285384333548
 21
-86.18514246928839
 31
0.0
  0
ELLIPSE
  5
61C8
330
6182
100
AcDbEntity
  8
0
100
AcDbEllipse
 10
-37.55417418689513
 20
-83.32740443604135
 30
0.0
 11
-0.9999999999999962
 21
-1.732050807568871
 31
0.0
210
0.0
220
0.0
230
1.0
 40
0.5773502691896257
 41
5.497787143782136
 42
6.283185307179588
  0
ELLIPSE
  5
61C9
330
6182
100
AcDbEntity
  8
0
100
AcDbEllipse
 10
-35.43285384333548
 20
-84.55214930743293
 30
0.0
 11
-0.9999999999999962
 21
-1.732050807568871
 31
0.0
210
0.0
220
0.0
230
1.0
 40
0.5773502691896253
 41
5.497787143782134
 42
7.068583470577034
  0
LINE
  5
61CA
330
6182
100
AcDbEntity
  8
0
100
AcDbLine
 10
-36.84706740570857
 20
-85.36864588836065
 30
0.0
 11
-38.96838774926822
 21
-84.14390101696907
 31
0.0
  0
LINE
  5
61CB
330
6182
100
AcDbEntity
  8
0
100
AcDbLine
 10
-38.96838774926822
 20
37.51408954126212
 30
0.0
 11
-38.96838774926822
 21
-84.14390101696907
 31
0.0
  0
LINE
  5
61CC
330
6182
100
AcDbEntity
  8
0
100
AcDbLine
 10
-36.84706740570857
 20
-85.36864588836065
 30
0.0
 11
-36.84706740570858
 21
36.28934466987053
 31
0.0
  0
LINE
  5
61CD
330
6182
100
AcDbEntity
  8
0
100
AcDbLine
 10
-36.84706740570858
 20
36.28934466987053
 30
0.0
 11
-38.96838774926822
 21
37.51408954126212
 31
0.0
  0
ELLIPSE
  5
61CE
330
6182
100
AcDbEntity
  8
0
100
AcDbEllipse
 10
-37.55417418689513
 20
38.33058612218984
 30
0.0
 11
-0.9999999999998923
 21
-1.732050807568931
 31
0.0
210
0.0
220
0.0
230
1.0
 40
0.5773502691896255
 41
3.926990816986998
 42
5.497787143781892
  0
ELLIPSE
  5
61CF
330
6182
100
AcDbEntity
  8
0
100
AcDbEllipse
 10
-35.43285384333549
 20
37.10584125079825
 30
0.0
 11
1.000000000000099
 21
1.732050807568811
 31
0.0
210
0.0
220
0.0
230
1.0
 40
0.5773502691896257
 41
0.785398163397689
 42
2.356194490192585
  0
LINE
  5
61D0
330
6182
100
AcDbEntity
  8
0
100
AcDbLine
 10
-35.43285384333549
 20
38.73883441265372
 30
0.0
 11
-37.55417418689513
 21
39.96357928404531
 31
0.0
  0
LINE
  5
61D1
330
6182
100
AcDbEntity
  8
0
100
AcDbLine
 10
-33.76114639306925
 20
42.15348490185444
 30
0.0
 11
-37.55417418689513
 21
39.96357928404531
 31
0.0
  0
LINE
  5
61D2
330
6182
100
AcDbEntity
  8
0
100
AcDbLine
 10
-35.43285384333549
 20
38.73883441265372
 30
0.0
 11
-31.63982604950962
 21
40.92874003046286
 31
0.0
  0
LINE
  5
61D3
330
6182
100
AcDbEntity
  8
0
100
AcDbLine
 10
-31.63982604950962
 20
40.92874003046286
 30
0.0
 11
-33.76114639306925
 21
42.15348490185444
 31
0.0
  0
ELLIPSE
  5
61D4
330
6182
100
AcDbEntity
  8
0
100
AcDbEllipse
 10
-33.76114639306925
 20
40.52049173999893
 30
0.0
 11
0.9999999999999753
 21
1.732050807568835
 31
0.0
210
0.0
220
0.0
230
1.0
 40
0.5773502691896255
 41
0.0
 42
0.7853981633974485
  0
ELLIPSE
  5
61D5
330
6182
100
AcDbEntity
  8
0
100
AcDbEllipse
 10
-31.63982604950962
 20
39.29574686860736
 30
0.0
 11
0.9999999999999747
 21
1.732050807568835
 31
0.0
210
0.0
220
0.0
230
1.0
 40
0.5773502691896253
 41
6.038839211900384
 42
7.068583470577034
  0
LINE
  5
61D6
330
6182
100
AcDbEntity
  8
0
100
AcDbLine
 10
-30.42760842763396
 20
40.83667469333703
 30
0.0
 11
-28.71533942206327
 21
38.53471026742182
 31
0.0
  0
LINE
  5
61D7
330
6182
100
AcDbEntity
  8
0
100
AcDbLine
 10
-28.71533942206327
 20
38.53471026742182
 30
0.0
 11
-28.71533942206327
 21
34.45222736278318
 31
0.0
  0
ELLIPSE
  5
61D8
330
6182
100
AcDbEntity
  8
0
100
AcDbEllipse
 10
-28.18500933617335
 20
33.12542041877563
 30
0.0
 11
-3.124999999999997
 21
-5.412658773652743
 31
0.0
210
0.0
220
0.0
230
1.0
 40
0.5773502691896255
 41
0.3462909271588792
 42
0.7853981633974483
  0
ELLIPSE
  5
61D9
330
6182
100
AcDbEntity
  8
0
100
AcDbEllipse
 10
-26.06368899261371
 20
31.90067554738404
 30
0.0
 11
-3.124999999999998
 21
-5.412658773652746
 31
0.0
210
0.0
220
0.0
230
1.0
 40
0.5773502691896252
 41
4.570491925780528
 42
7.068583470577033
  0
LINE
  5
61DA
330
6182
100
AcDbEntity
  8
0
100
AcDbLine
 10
-26.06368899261371
 20
26.79757191658576
 30
0.0
 11
-28.18500933617335
 21
28.02231678797735
 31
0.0
  0
LINE
  5
61DB
330
6182
100
AcDbEntity
  8
0
100
AcDbLine
 10
-26.06368899261373
 20
29.24706165936893
 30
0.0
 11
-28.18500933617335
 21
28.02231678797735
 31
0.0
  0
LINE
  5
61DC
330
6182
100
AcDbEntity
  8
0
100
AcDbLine
 10
-26.06368899261371
 20
26.79757191658576
 30
0.0
 11
-23.94236864905408
 21
28.02231678797734
 31
0.0
  0
LINE
  5
61DD
330
6182
100
AcDbEntity
  8
0
100
AcDbLine
 10
-23.94236864905408
 20
28.02231678797734
 30
0.0
 11
-26.06368899261373
 21
29.24706165936893
 31
0.0
  0
ELLIPSE
  5
61DE
330
6182
100
AcDbEntity
  8
0
100
AcDbEllipse
 10
-26.06368899261373
 20
34.35016529016721
 30
0.0
 11
-3.125000000000321
 21
-5.412658773652556
 31
0.0
210
0.0
220
0.0
230
0.9999999999999998
 40
0.5773502691896255
 41
0.7853981633976899
 42
2.356194490192587
  0
ELLIPSE
  5
61DF
330
6182
100
AcDbEntity
  8
0
100
AcDbEllipse
 10
-23.94236864905408
 20
33.12542041877562
 30
0.0
 11
3.124999999999674
 21
5.412658773652929
 31
0.0
210
0.0
220
0.0
230
1.0
 40
0.5773502691896255
 41
3.926990816986998
 42
5.497787143781895
  0
LINE
  5
61E0
330
6182
100
AcDbEntity
  8
0
100
AcDbLine
 10
-19.52295126663816
 20
35.67697223417476
 30
0.0
 11
-21.64427161019781
 21
36.90171710556636
 31
0.0
  0
LINE
  5
61E1
330
6182
100
AcDbEntity
  8
0
100
AcDbLine
 10
-21.64427161019781
 20
45.88317949577133
 30
0.0
 11
-21.64427161019781
 21
36.90171710556636
 31
0.0
  0
LINE
  5
61E2
330
6182
100
AcDbEntity
  8
0
100
AcDbLine
 10
-19.52295126663816
 20
35.67697223417476
 30
0.0
 11
-19.52295126663816
 21
44.65843462437973
 31
0.0
  0
LINE
  5
61E3
330
6182
100
AcDbEntity
  8
0
100
AcDbLine
 10
-19.52295126663816
 20
44.65843462437973
 30
0.0
 11
-21.64427161019781
 21
45.88317949577133
 31
0.0
  0
LINE
  5
61E4
330
6182
100
AcDbEntity
  8
0
100
AcDbLine
 10
-19.6030301578785
 20
51.14417370238751
 30
0.0
 11
-21.64427161019781
 21
45.88317949577133
 31
0.0
  0
LINE
  5
61E5
330
6182
100
AcDbEntity
  8
0
100
AcDbLine
 10
-19.52295126663816
 20
44.65843462437973
 30
0.0
 11
-17.48170981431885
 21
49.91942883099591
 31
0.0
  0
LINE
  5
61E6
330
6182
100
AcDbEntity
  8
0
100
AcDbLine
 10
-17.48170981431885
 20
49.91942883099591
 30
0.0
 11
-19.6030301578785
 21
51.14417370238751
 31
0.0
  0
ELLIPSE
  5
61E7
330
6182
100
AcDbEntity
  8
0
100
AcDbEllipse
 10
-18.37828528648691
 20
51.03478390264633
 30
0.0
 11
-0.9999999999998912
 21
-1.732050807568929
 31
0.0
210
0.0
220
0.0
230
1.0
 40
0.5773502691896254
 41
3.926990816986998
 42
4.974188368183725
  0
ELLIPSE
  5
61E8
330
6182
100
AcDbEntity
  8
0
100
AcDbEllipse
 10
-16.25696494292727
 20
49.81003903125476
 30
0.0
 11
0.9999999999999944
 21
1.732050807568869
 31
0.0
210
0.0
220
0.0
230
1.0
 40
0.5773502691896254
 41
0.7853981633974483
 42
1.832595714594052
  0
LINE
  5
61E9
330
6182
100
AcDbEntity
  8
0
100
AcDbLine
 10
-16.25696494292727
 20
51.44303219311019
 30
0.0
 11
-18.37828528648691
 21
52.66777706450179
 31
0.0
  0
LINE
  5
61EA
330
6182
100
AcDbEntity
  8
0
100
AcDbLine
 10
-8.145324529816392
 20
58.57577971197239
 30
0.0
 11
-18.37828528648691
 21
52.66777706450179
 31
0.0
  0
LINE
  5
61EB
330
6182
100
AcDbEntity
  8
0
100
AcDbLine
 10
-16.25696494292727
 20
51.44303219311019
 30
0.0
 11
-6.024004186256743
 21
57.3510348405808
 31
0.0
  0
LINE
  5
61EC
330
6182
100
AcDbEntity
  8
0
100
AcDbLine
 10
-6.024004186256743
 20
57.3510348405808
 30
0.0
 11
-8.145324529816392
 21
58.57577971197239
 31
0.0
  0
ELLIPSE
  5
61ED
330
6182
100
AcDbEntity
  8
0
100
AcDbEllipse
 10
-8.145324529816392
 20
56.94278655011697
 30
0.0
 11
-0.9999999999997951
 21
-1.732050807568763
 31
0.0
210
0.0
220
0.0
230
1.0
 40
0.5773502691896252
 41
3.543018381548057
 42
3.926990816986903
  0
ELLIPSE
  5
61EE
330
6182
100
AcDbEntity
  8
0
100
AcDbEllipse
 10
-6.024004186256743
 20
55.71804167872539
 30
0.0
 11
0.9999999999998985
 21
1.732050807568702
 31
0.0
210
0.0
220
0.0
230
1.0
 40
0.5773502691896254
 41
0.4014257279586957
 42
0.7853981633974483
  0
LINE
  5
61EF
330
6182
100
AcDbEntity
  8
0
100
AcDbLine
 10
-5.494230461293558
 20
57.53799157573284
 30
0.0
 11
-7.615550804853206
 21
58.76273644712444
 31
0.0
  0
LINE
  5
61F0
330
6182
100
AcDbEntity
  8
0
100
AcDbLine
 10
-5.48036695320007
 20
58.99935958991388
 30
0.0
 11
-7.615550804853206
 21
58.76273644712444
 31
0.0
  0
LINE
  5
61F1
330
6182
100
AcDbEntity
  8
0
100
AcDbLine
 10
-5.494230461293558
 20
57.53799157573284
 30
0.0
 11
-3.359046609640423
 21
57.77461471852229
 31
0.0
  0
LINE
  5
61F2
330
6182
100
AcDbEntity
  8
0
100
AcDbLine
 10
-3.359046609640423
 20
57.77461471852229
 30
0.0
 11
-5.48036695320007
 21
58.99935958991388
 31
0.0
  0
ELLIPSE
  5
61F3
330
6182
100
AcDbEntity
  8
0
100
AcDbEllipse
 10
-6.010140678163238
 20
57.17940969290644
 30
0.0
 11
1.000000000000026
 21
1.732050807568924
 31
0.0
210
0.0
220
0.0
230
1.0
 40
0.5773502691896253
 41
0.0
 42
0.4014257279586957
  0
ELLIPSE
  5
61F4
330
6182
100
AcDbEntity
  8
0
100
AcDbEllipse
 10
-3.888820334603591
 20
55.95466482151485
 30
0.0
 11
1.000000000000026
 21
1.732050807568924
 31
0.0
210
0.0
220
0.0
230
1.0
 40
0.5773502691896253
 41
6.021385919380439
 42
6.684611035138281
  0
LINE
  5
61F5
330
6182
100
AcDbEntity
  8
0
100
AcDbLine
 10
-2.664075463211994
 20
57.47826818362913
 30
0.0
 11
-1.845281736974468
 21
56.31341150940807
 31
0.0
  0
LINE
  5
61F6
330
6182
100
AcDbEntity
  8
0
100
AcDbLine
 10
-1.845281736974468
 20
56.31341150940807
 30
0.0
 11
-1.845281736974468
 21
53.42647524930136
 31
0.0
  0
ELLIPSE
  5
61F7
330
6182
100
AcDbEntity
  8
0
100
AcDbEllipse
 10
-1.668505041677841
 20
53.74195908720071
 30
0.0
 11
-2.124999999999996
 21
-3.680607966083862
 31
0.0
210
0.0
220
0.0
230
1.0
 40
0.5773502691896253
 41
0.5225993223155206
 42
0.7853981633974474
  0
ELLIPSE
  5
61F8
330
6182
100
AcDbEntity
  8
0
100
AcDbEllipse
 10
0.4528153018818104
 20
52.51721421580912
 30
0.0
 11
-2.124999999999997
 21
-3.680607966083863
 31
0.0
210
0.0
220
0.0
230
1.0
 40
0.5773502691896254
 41
4.797575588247849
 42
7.068583470577036
  0
LINE
  5
61F9
330
6182
100
AcDbEntity
  8
0
100
AcDbLine
 10
0.4528153018818104
 20
49.04710374686628
 30
0.0
 11
-1.668505041677841
 21
50.27184861825787
 31
0.0
  0
LINE
  5
61FA
330
6182
100
AcDbEntity
  8
0
100
AcDbLine
 10
-0.6078448698980177
 20
50.88422105395366
 30
0.0
 11
-1.668505041677841
 21
50.27184861825787
 31
0.0
  0
LINE
  5
61FB
330
6182
100
AcDbEntity
  8
0
100
AcDbLine
 10
0.4528153018818104
 20
49.04710374686628
 30
0.0
 11
1.513475473661634
 21
49.65947618256207
 31
0.0
  0
LINE
  5
61FC
330
6182
100
AcDbEntity
  8
0
100
AcDbLine
 10
1.513475473661634
 20
49.65947618256207
 30
0.0
 11
-0.6078448698980177
 21
50.88422105395366
 31
0.0
  0
ELLIPSE
  5
61FD
330
6182
100
AcDbEntity
  8
0
100
AcDbEllipse
 10
-0.6078448698980177
 20
54.3543315228965
 30
0.0
 11
-2.125000000000221
 21
-3.680607966083744
 31
0.0
210
0.0
220
0.0
230
1.0
 40
0.5773502691896257
 41
0.785398163397689
 42
2.356194490192585
  0
ELLIPSE
  5
61FE
330
6182
100
AcDbEntity
  8
0
100
AcDbEllipse
 10
1.513475473661634
 20
53.12958665150491
 30
0.0
 11
2.124999999999782
 21
3.680607966083999
 31
0.0
210
0.0
220
0.0
230
1.0
 40
0.5773502691896253
 41
3.926990816986998
 42
5.497787143781895
  0
LINE
  5
61FF
330
6182
100
AcDbEntity
  8
0
100
AcDbLine
 10
4.51867929370445
 20
54.86464188597633
 30
0.0
 11
2.397358950144798
 21
56.08938675736792
 31
0.0
  0
LINE
  5
6200
330
6182
100
AcDbEntity
  8
0
100
AcDbLine
 10
2.397358950144812
 20
57.51077255167815
 30
0.0
 11
2.397358950144798
 21
56.08938675736792
 31
0.0
  0
LINE
  5
6201
330
6182
100
AcDbEntity
  8
0
100
AcDbLine
 10
4.51867929370445
 20
54.86464188597633
 30
0.0
 11
4.518679293704463
 21
56.28602768028656
 31
0.0
  0
LINE
  5
6202
330
6182
100
AcDbEntity
  8
0
100
AcDbLine
 10
4.518679293704463
 20
56.28602768028656
 30
0.0
 11
2.397358950144812
 21
57.51077255167815
 31
0.0
  0
ELLIPSE
  5
6203
330
6182
100
AcDbEntity
  8
0
100
AcDbEllipse
 10
3.811572512517904
 20
58.32726913260587
 30
0.0
 11
-0.999999999999898
 21
-1.732050807568939
 31
0.0
210
0.0
220
0.0
230
1.0
 40
0.5773502691896254
 41
3.54301838154806
 42
5.497787143781802
  0
ELLIPSE
  5
6204
330
6182
100
AcDbEntity
  8
0
100
AcDbEllipse
 10
5.932892856077556
 20
57.10252426121428
 30
0.0
 11
1.000000000000103
 21
1.73205080756882
 31
0.0
210
0.0
220
0.0
230
1.0
 40
0.5773502691896257
 41
0.4014257279590368
 42
2.356194490192587
  0
LINE
  5
6205
330
6182
100
AcDbEntity
  8
0
100
AcDbLine
 10
6.46266658104071
 20
58.92247415822168
 30
0.0
 11
4.341346237481058
 21
60.14721902961326
 31
0.0
  0
LINE
  5
6206
330
6182
100
AcDbEntity
  8
0
100
AcDbLine
 10
32.60381901086179
 20
63.27929364017243
 30
0.0
 11
4.341346237481058
 21
60.14721902961326
 31
0.0
  0
LINE
  5
6207
330
6182
100
AcDbEntity
  8
0
100
AcDbLine
 10
6.46266658104071
 20
58.92247415822168
 30
0.0
 11
34.72513935442143
 21
62.05454876878083
 31
0.0
  0
ELLIPSE
  5
6208
330
6182
100
AcDbEntity
  8
0
100
AcDbEllipse
 10
35.63137766591252
 20
18.53054403469251
 30
0.0
 11
-1.125000000000002
 21
-1.948557158514992
 31
0.0
210
0.0
220
0.0
230
1.0
 40
0.5773502691896255
 41
4.533017772515789
 42
6.462556515048497
  0
LINE
  5
6209
330
6182
100
AcDbEntity
  8
0
100
AcDbLine
 10
56.58478939942458
 20
-61.90427132979547
 30
0.0
 11
58.70610974298422
 21
-60.67952645840387
 31
0.0
  0
LINE
  5
620A
330
6182
100
AcDbEntity
  8
0
100
AcDbLine
 10
17.10812999653753
 20
104.4508981804236
 30
0.0
 11
14.98680965297789
 21
103.226153309032
 31
0.0
  0
LINE
  5
620B
330
6182
100
AcDbEntity
  8
0
100
AcDbLine
 10
58.70610974298426
 20
66.32651670490386
 30
0.0
 11
56.58478939942462
 21
65.10177183351226
 31
0.0
  0
LINE
  5
620C
330
6182
100
AcDbEntity
  8
0
100
AcDbLine
 10
-36.43285384333548
 20
-86.28420011500182
 30
0.0
 11
-38.55417418689513
 21
-85.05945524361022
 31
0.0
  0
LINE
  5
620D
330
6182
100
AcDbEntity
  8
0
100
AcDbLine
 10
-30.63982604950965
 20
41.02779767617619
 30
0.0
 11
-32.76114639306928
 21
42.25254254756777
 31
0.0
  0
LINE
  5
620E
330
6182
100
AcDbEntity
  8
0
100
AcDbLine
 10
-2.888820334603559
 20
57.68671562908377
 30
0.0
 11
-5.010140678163206
 21
58.91146050047537
 31
0.0
  0
ELLIPSE
  5
620F
330
6182
100
AcDbEntity
  8
0
100
AcDbEllipse
 10
52.75636227467838
 20
-6.283446180996676
 30
0.0
 11
1.250000000000001
 21
-2.165063509461098
 31
0.0
210
0.0
220
0.0
230
0.9999999999999998
 40
0.577350269189626
 41
0.0
 42
6.283185307179586
  0
ELLIPSE
  5
6210
330
6182
100
AcDbEntity
  8
0
100
AcDbEllipse
 10
45.6852944628129
 20
5.964002532919203
 30
0.0
 11
1.250000000000001
 21
-2.165063509461098
 31
0.0
210
0.0
220
0.0
230
0.9999999999999998
 40
0.5773502691896261
 41
0.0
 42
6.283185307179586
  0
ELLIPSE
  5
6211
330
6182
100
AcDbEntity
  8
0
100
AcDbEllipse
 10
47.80661480637255
 20
7.188747404310793
 30
0.0
 11
1.250000000000131
 21
-2.165063509461023
 31
0.0
210
0.0
220
0.0
230
1.0
 40
0.5773502691896261
 41
4.154790153685031
 42
5.269987807084109
  0
ELLIPSE
  5
6212
330
6182
100
AcDbEntity
  8
0
100
AcDbEllipse
 10
54.87768261823802
 20
-5.058701309605089
 30
0.0
 11
1.25000000000013
 21
-2.165063509461023
 31
0.0
210
0.0
220
0.0
230
0.9999999999999998
 40
0.577350269189626
 41
4.154790153685029
 42
5.269987807084109
  0
ELLIPSE
  5
6213
330
6182
100
AcDbEntity
  8
0
100
AcDbEllipse
 10
20.93655712128373
 20
96.18687472543298
 30
0.0
 11
1.25000000000013
 21
-2.165063509461022
 31
0.0
210
0.0
220
0.0
230
1.0
 40
0.5773502691896261
 41
4.15479015368502
 42
5.269987807084103
  0
ELLIPSE
  5
6214
330
6182
100
AcDbEntity
  8
0
100
AcDbEllipse
 10
28.00762493314921
 20
83.93942601151707
 30
0.0
 11
1.250000000000133
 21
-2.165063509461024
 31
0.0
210
0.0
220
0.0
230
1.0
 40
0.5773502691896262
 41
4.154790153685036
 42
5.26998780708411
  0
ELLIPSE
  5
6215
330
6182
100
AcDbEntity
  8
0
100
AcDbEllipse
 10
25.88630458958956
 20
82.71468114012549
 30
0.0
 11
-1.250000000000003
 21
2.165063509461097
 31
0.0
210
0.0
220
0.0
230
0.9999999999999998
 40
0.5773502691896264
 41
0.0
 42
6.283185307179586
  0
ELLIPSE
  5
6216
330
6182
100
AcDbEntity
  8
0
100
AcDbEllipse
 10
18.81523677772409
 20
94.9621298540414
 30
0.0
 11
-1.250000000000001
 21
2.165063509461096
 31
0.0
210
0.0
220
0.0
230
0.9999999999999998
 40
0.5773502691896263
 41
0.0
 42
6.283185307179586
  0
ELLIPSE
  5
6217
330
6182
100
AcDbEntity
  8
0
100
AcDbEllipse
 10
52.75636227467838
 20
-22.6133777995512
 30
0.0
 11
1.250000000000001
 21
-2.165063509461098
 31
0.0
210
0.0
220
0.0
230
0.9999999999999998
 40
0.577350269189626
 41
0.0
 42
6.283185307179586
  0
ELLIPSE
  5
6218
330
6182
100
AcDbEntity
  8
0
100
AcDbEllipse
 10
45.6852944628129
 20
-10.36592908563531
 30
0.0
 11
1.250000000000001
 21
-2.165063509461098
 31
0.0
210
0.0
220
0.0
230
0.9999999999999998
 40
0.5773502691896261
 41
0.0
 42
6.283185307179586
  0
ELLIPSE
  5
6219
330
6182
100
AcDbEntity
  8
0
100
AcDbEllipse
 10
52.75636227467838
 20
-38.94330941810572
 30
0.0
 11
1.250000000000001
 21
-2.165063509461098
 31
0.0
210
0.0
220
0.0
230
0.9999999999999998
 40
0.577350269189626
 41
0.0
 42
6.283185307179586
  0
ELLIPSE
  5
621A
330
6182
100
AcDbEntity
  8
0
100
AcDbEllipse
 10
45.6852944628129
 20
-26.69586070418983
 30
0.0
 11
1.250000000000001
 21
-2.165063509461098
 31
0.0
210
0.0
220
0.0
230
0.9999999999999998
 40
0.5773502691896261
 41
0.0
 42
6.283185307179586
  0
ELLIPSE
  5
621B
330
6182
100
AcDbEntity
  8
0
100
AcDbEllipse
 10
52.75636227467838
 20
-55.27324103666024
 30
0.0
 11
1.250000000000001
 21
-2.165063509461098
 31
0.0
210
0.0
220
0.0
230
0.9999999999999998
 40
0.577350269189626
 41
0.0
 42
6.283185307179586
  0
ELLIPSE
  5
621C
330
6182
100
AcDbEntity
  8
0
100
AcDbEllipse
 10
45.6852944628129
 20
-43.02579232274435
 30
0.0
 11
1.250000000000001
 21
-2.165063509461098
 31
0.0
210
0.0
220
0.0
230
0.9999999999999998
 40
0.5773502691896261
 41
0.0
 42
6.283185307179586
  0
ELLIPSE
  5
621D
330
6182
100
AcDbEntity
  8
0
100
AcDbEllipse
 10
47.80661480637255
 20
-41.80104745135277
 30
0.0
 11
1.250000000000131
 21
-2.165063509461023
 31
0.0
210
0.0
220
0.0
230
0.9999999999999998
 40
0.5773502691896261
 41
4.154790153685032
 42
5.269987807084108
  0
ELLIPSE
  5
621E
330
6182
100
AcDbEntity
  8
0
100
AcDbEllipse
 10
54.87768261823802
 20
-54.04849616526864
 30
0.0
 11
1.25000000000013
 21
-2.165063509461023
 31
0.0
210
0.0
220
0.0
230
0.9999999999999998
 40
0.577350269189626
 41
4.154790153685032
 42
5.26998780708411
  0
ELLIPSE
  5
621F
330
6182
100
AcDbEntity
  8
0
100
AcDbEllipse
 10
47.80661480637255
 20
-25.47111583279825
 30
0.0
 11
1.250000000000131
 21
-2.165063509461023
 31
0.0
210
0.0
220
0.0
230
0.9999999999999998
 40
0.5773502691896261
 41
4.154790153685034
 42
5.269987807084108
  0
ELLIPSE
  5
6220
330
6182
100
AcDbEntity
  8
0
100
AcDbEllipse
 10
54.87768261823802
 20
-37.71856454671413
 30
0.0
 11
1.25000000000013
 21
-2.165063509461023
 31
0.0
210
0.0
220
0.0
230
1.0
 40
0.5773502691896262
 41
4.154790153685034
 42
5.269987807084109
  0
ELLIPSE
  5
6221
330
6182
100
AcDbEntity
  8
0
100
AcDbEllipse
 10
47.80661480637255
 20
-9.141184214243729
 30
0.0
 11
1.250000000000131
 21
-2.165063509461023
 31
0.0
210
0.0
220
0.0
230
1.0
 40
0.5773502691896261
 41
4.154790153685029
 42
5.269987807084108
  0
ELLIPSE
  5
6222
330
6182
100
AcDbEntity
  8
0
100
AcDbEllipse
 10
54.87768261823803
 20
-21.38863292815962
 30
0.0
 11
1.25000000000013
 21
-2.165063509461023
 31
0.0
210
0.0
220
0.0
230
1.0
 40
0.5773502691896262
 41
4.154790153685034
 42
5.269987807084109
  0
ELLIPSE
  5
6223
330
6182
100
AcDbEntity
  8
0
100
AcDbEllipse
 10
20.93655712128374
 20
63.52701148832391
 30
0.0
 11
1.25000000000013
 21
-2.165063509461022
 31
0.0
210
0.0
220
0.0
230
1.0
 40
0.5773502691896261
 41
4.154790153685031
 42
5.169886393362837
  0
ELLIPSE
  5
6224
330
6182
100
AcDbEntity
  8
0
100
AcDbEllipse
 10
20.93655712128374
 20
79.85694310687844
 30
0.0
 11
1.25000000000013
 21
-2.165063509461021
 31
0.0
210
0.0
220
0.0
230
1.0
 40
0.5773502691896262
 41
4.154790153685036
 42
5.269987807084109
  0
ELLIPSE
  5
6225
330
6182
100
AcDbEntity
  8
0
100
AcDbEllipse
 10
28.00762493314921
 20
67.60949439296256
 30
0.0
 11
1.250000000000133
 21
-2.165063509461024
 31
0.0
210
0.0
220
0.0
230
0.9999999999999998
 40
0.5773502691896262
 41
4.154790153685027
 42
5.269987807084111
  0
ELLIPSE
  5
6226
330
6182
100
AcDbEntity
  8
0
100
AcDbEllipse
 10
25.88630458958956
 20
66.38474952157096
 30
0.0
 11
-1.250000000000003
 21
2.165063509461097
 31
0.0
210
0.0
220
0.0
230
0.9999999999999998
 40
0.5773502691896264
 41
0.0
 42
6.283185307179586
  0
ELLIPSE
  5
6227
330
6182
100
AcDbEntity
  8
0
100
AcDbEllipse
 10
18.81523677772409
 20
78.63219823548686
 30
0.0
 11
-1.250000000000001
 21
2.165063509461096
 31
0.0
210
0.0
220
0.0
230
0.9999999999999998
 40
0.5773502691896263
 41
0.0
 42
6.283185307179586
  0
ELLIPSE
  5
6228
330
6182
100
AcDbEntity
  8
0
100
AcDbEllipse
 10
18.81523677772409
 20
62.30226661693233
 30
0.0
 11
-1.250000000000002
 21
2.165063509461096
 31
0.0
210
0.0
220
0.0
230
1.0
 40
0.5773502691896263
 41
4.23042159005093
 42
7.840060259194729
  0
LINE
  5
6229
330
6182
100
AcDbEntity
  8
0
100
AcDbLine
 10
32.60381901086177
 20
63.27929364017243
 30
0.0
 11
32.60381901086179
 21
66.38020491148664
 31
0.0
  0
LINE
  5
622A
330
6182
100
AcDbEntity
  8
0
100
AcDbLine
 10
32.60381901086179
 20
66.38020491148664
 30
0.0
 11
34.40446280683313
 21
67.41980709180534
 31
0.0
  0
LINE
  5
622B
330
6182
100
AcDbEntity
  8
0
100
AcDbLine
 10
34.72513935442143
 20
62.05454876878083
 30
0.0
 11
33.31024630099125
 21
62.87143765405328
 31
0.0
  0
LINE
  5
622C
330
6182
100
AcDbEntity
  8
0
100
AcDbLine
 10
33.31024630099125
 20
62.87143765405328
 30
0.0
 11
32.60381901086179
 21
63.27929364017243
 31
0.0
  0
SPLINE
  5
622D
330
6182
100
AcDbEntity
  8
0
100
AcDbSpline
210
0.0
220
0.0
230
1.0
 70
     8
 71
     3
 72
    10
 73
     6
 74
     0
 42
0.000000001
 43
0.0000000001
 40
0.0
 40
0.0
 40
0.0
 40
0.0
 40
0.050700019439646
 40
0.050700019439646
 40
0.0861016273498547
 40
0.0861016273498547
 40
0.0861016273498547
 40
0.0861016273498547
 10
34.72513935442143
 20
19.51728609565379
 30
0.0
 10
34.83369672687668
 20
19.63764832353912
 30
0.0
 10
35.066619335082
 20
19.88818501227265
 30
0.0
 10
35.5266406777986
 20
20.3830287953283
 30
0.0
 10
35.69833299484556
 20
20.57123868390573
 30
0.0
 10
35.84565831157415
 20
20.74081700306408
 30
0.0
  0
ELLIPSE
  5
622E
330
6182
100
AcDbEntity
  8
0
100
AcDbEllipse
 10
30.48249866730214
 20
22.29393415147375
 30
0.0
 11
6.000000000000001
 21
0.0000000000001379
 31
0.0
210
0.0
220
0.0
230
1.0
 40
0.5773502691896423
 41
5.818270892432487
 42
6.283185307179573
  0
SPLINE
  5
622F
330
6182
100
AcDbEntity
  8
0
100
AcDbSpline
210
0.0
220
0.0
230
1.0
 70
     8
 71
     3
 72
    20
 73
    16
 74
     0
 42
0.000000001
 43
0.0000000001
 40
0.0224332788373745
 40
0.0224332788373745
 40
0.0224332788373745
 40
0.0224332788373745
 40
0.0405976442384755
 40
0.0405976442384755
 40
0.0716043848051685
 40
0.0716043848051685
 40
0.1028570667680879
 40
0.1028570667680879
 40
0.1477895630015055
 40
0.1477895630015055
 40
0.2029079031401245
 40
0.2029079031401245
 40
0.233828643251334
 40
0.233828643251334
 40
0.2734021259534982
 40
0.2734021259534982
 40
0.2734021259534982
 40
0.2734021259534982
 10
34.74127412657944
 20
67.38253371262492
 30
0.0
 10
34.7510984377214
 20
67.31187468723764
 30
0.0
 10
34.76622587679587
 20
67.23259760473111
 30
0.0
 10
34.82728160429993
 20
66.99458493907456
 30
0.0
 10
34.88810795088498
 20
66.81746037006051
 30
0.0
 10
35.07046553895837
 20
66.40538381727671
 30
0.0
 10
35.1769819177896
 20
66.2029728617639
 30
0.0
 10
35.44264628372455
 20
65.72772373375695
 30
0.0
 10
35.61481248400421
 20
65.44512613697169
 30
0.0
 10
35.98029956814769
 20
64.82116306123312
 30
0.0
 10
36.15101040306756
 20
64.50877866524425
 30
0.0
 10
36.3385674632592
 20
64.08160046445522
 30
0.0
 10
36.39019467943672
 20
63.94105496444709
 30
0.0
 10
36.4702607647634
 20
63.65673663607285
 30
0.0
 10
36.48000732263225
 20
63.55540033848479
 30
0.0
 10
36.48206749271755
 20
63.4936432754857
 30
0.0
  0
SPLINE
  5
6230
330
6182
100
AcDbEntity
  8
0
100
AcDbSpline
210
0.0
220
0.0
230
1.0
 70
     8
 71
     3
 72
    12
 73
     8
 74
     0
 42
0.000000001
 43
0.0000000001
 40
0.0
 40
0.0
 40
0.0
 40
0.0
 40
0.1239712457412857
 40
0.1239712457412857
 40
0.3101197498474541
 40
0.3101197498474541
 40
0.4962683327629504
 40
0.4962683327629504
 40
0.4962683327629504
 40
0.4962683327629504
 10
36.48206749271756
 20
63.49364327548571
 30
0.0
 10
36.48685110704348
 20
63.35101745989287
 30
0.0
 10
36.45182082146174
 20
63.20847022047485
 30
0.0
 10
36.26589682731123
 20
62.86172666479815
 30
0.0
 10
36.06674817533137
 20
62.66442171427522
 30
0.0
 10
35.50662843589938
 20
62.31628224467741
 30
0.0
 10
35.14880356948193
 20
62.16741517916711
 30
0.0
 10
34.72513935442143
 20
62.05454876878083
 30
0.0
  0
LINE
  5
6231
330
6182
100
AcDbEntity
  8
0
100
AcDbLine
 10
34.72513935442143
 20
19.5172860956538
 30
0.0
 11
34.72513935442143
 21
62.05454876878083
 31
0.0
  0
SPLINE
  5
6232
330
6182
100
AcDbEntity
  8
0
100
AcDbSpline
210
0.0
220
0.0
230
1.0
 70
     8
 71
     3
 72
    10
 73
     6
 74
     0
 42
0.000000001
 43
0.0000000001
 40
0.0
 40
0.0
 40
0.0
 40
0.0
 40
0.1362998422634507
 40
0.1362998422634507
 40
0.2725996852923973
 40
0.2725996852923973
 40
0.2725996852923973
 40
0.2725996852923973
 10
32.60381901086179
 20
63.27929364017243
 30
0.0
 10
32.88666788427696
 20
63.26669629615854
 30
0.0
 10
33.11011025046036
 20
63.28686094251168
 30
0.0
 10
33.4118281242095
 20
63.36284574469065
 30
0.0
 10
33.48707851050266
 20
63.41785057987927
 30
0.0
 10
33.48228308000985
 20
63.47287890475207
 30
0.0
  0
SPLINE
  5
6233
330
6182
100
AcDbEntity
  8
0
100
AcDbSpline
210
0.0
220
0.0
230
1.0
 70
     8
 71
     3
 72
    20
 73
    16
 74
     0
 42
0.000000001
 43
0.0000000001
 40
0.0
 40
0.0
 40
0.0
 40
0.0
 40
0.0292038487373608
 40
0.0292038487373608
 40
0.1061564375196237
 40
0.1061564375196237
 40
0.2088926108889397
 40
0.2088926108889397
 40
0.3299865151397173
 40
0.3299865151397173
 40
0.4924973234164581
 40
0.4924973234164581
 40
0.5936467899456649
 40
0.5936467899456649
 40
0.7611251629618888
 40
0.7611251629618888
 40
0.7611251629618888
 40
0.7611251629618888
 10
33.48228308000985
 20
63.47287890475207
 30
0.0
 10
33.48125417493285
 20
63.48491920456367
 30
0.0
 10
33.47673350656419
 20
63.50385281169096
 30
0.0
 10
33.45336927194355
 20
63.58461601734845
 30
0.0
 10
33.4211974877779
 20
63.66956549416531
 30
0.0
 10
33.35495707059374
 20
63.83426752758524
 30
0.0
 10
33.30625691361989
 20
63.94740100420512
 30
0.0
 10
33.18564038619931
 20
64.22412119975046
 30
0.0
 10
33.11365845826756
 20
64.38787188598616
 30
0.0
 10
32.94949294450578
 20
64.78603914332982
 30
0.0
 10
32.85590423698222
 20
65.03233456986611
 30
0.0
 10
32.73206185146036
 20
65.44979745304932
 30
0.0
 10
32.69303920058312
 20
65.608478977603
 30
0.0
 10
32.61646896037108
 20
66.0194167819983
 30
0.0
 10
32.60380243855204
 20
66.22927790355396
 30
0.0
 10
32.60381901086179
 20
66.38020491148663
 30
0.0
  0
LINE
  5
6234
330
6182
100
AcDbEntity
  8
0
100
AcDbLine
 10
33.48228308000985
 20
63.47287890475207
 30
0.0
 11
36.48206749271756
 21
63.49364327548572
 31
0.0
  0
LINE
  5
6235
330
6182
100
AcDbEntity
  8
0
100
AcDbLine
 10
36.48249866730215
 20
22.29393415147381
 30
0.0
 11
36.48249866730215
 21
63.46793018147052
 31
0.0
  0
ELLIPSE
  5
6236
330
6182
100
AcDbEntity
  8
0
100
AcDbEllipse
 10
-24.67027268851084
 20
0.8858127747911348
 30
0.0
 11
5.377621075780821
 21
9.314312927105593
 31
0.0
210
0.0
220
0.0
230
1.0
 40
0.5773502691896254
 41
2.816385777593058
 42
6.608392183176323
  0
ELLIPSE
  5
6237
330
6182
100
AcDbEntity
  8
0
100
AcDbEllipse
 10
-23.94236864905409
 20
0.4655571816665694
 30
0.0
 11
-6.174999999999997
 21
-10.69541373673782
 31
0.0
210
0.0
220
0.0
230
1.0
 40
0.5773502691896257
 41
0.0
 42
6.283185307179586
  0
ELLIPSE
  5
6238
330
6182
100
AcDbEntity
  8
0
100
AcDbEllipse
 10
-25.71013560202047
 20
1.486177907826227
 30
0.0
 11
4.238508326896289
 21
7.341311770488137
 31
0.0
210
0.0
220
0.0
230
1.0
 40
0.5773502691896253
 41
2.013279936772268
 42
7.411498023997101
  0
ELLIPSE
  5
6239
330
6182
100
AcDbEntity
  8
0
100
AcDbEllipse
 10
-25.71013560202047
 20
1.486177907826227
 30
0.0
 11
3.124999999999997
 21
5.412658773652743
 31
0.0
210
0.0
220
0.0
230
1.0
 40
0.5773502691896255
 41
0.0
 42
6.283185307179586
  0
ELLIPSE
  5
623A
330
6182
100
AcDbEntity
  8
0
100
AcDbEllipse
 10
-27.83145594558011
 20
2.710922779217819
 30
0.0
 11
3.124999999999996
 21
5.412658773652743
 31
0.0
210
0.0
220
0.0
230
0.9999999999999998
 40
0.5773502691896255
 41
3.487883580748673
 42
5.936894380020706
  0
SPLINE
  5
623B
330
6182
100
AcDbEntity
  8
0
100
AcDbSpline
210
0.0
220
0.0
230
1.0
 70
     8
 71
     3
 72
    24
 73
    20
 74
     0
 42
0.000000001
 43
0.0000000001
 40
2.681401366189077
 40
2.681401366189077
 40
2.681401366189077
 40
2.681401366189077
 40
3.014345191289621
 40
3.014345191289621
 40
3.307025466620236
 40
3.307025466620236
 40
3.602050720618002
 40
3.602050720618002
 40
3.901852555931288
 40
3.901852555931288
 40
4.203660984601161
 40
4.203660984601161
 40
4.50401297134457
 40
4.50401297134457
 40
4.799817405389999
 40
4.799817405389999
 40
5.092108631578068
 40
5.092108631578068
 40
5.172580267785404
 40
5.172580267785404
 40
5.172580267785404
 40
5.172580267785404
 10
-31.48419974892594
 20
-6.948297861264709
 30
0.0
 10
-31.77615610358261
 20
-6.436748031386292
 30
0.0
 10
-32.0037285421674
 20
-5.743032196202593
 30
0.0
 10
-32.19233748730519
 20
-4.149651064653738
 30
0.0
 10
-32.18220156571738
 20
-3.289206539095506
 30
0.0
 10
-31.93425914756645
 20
-1.431266201465808
 30
0.0
 10
-31.69524343238285
 20
-0.4334175815045649
 30
0.0
 10
-30.99579133609362
 20
1.598689725942872
 30
0.0
 10
-30.53213661500953
 20
2.633008356981276
 30
0.0
 10
-29.42413062573771
 20
4.618128532813035
 30
0.0
 10
-28.77874634731615
 20
5.568047872315244
 30
0.0
 10
-27.38307856364656
 20
7.272598023706455
 30
0.0
 10
-26.63338907382708
 20
8.027753940597195
 30
0.0
 10
-25.12910212083042
 20
9.263535039717085
 30
0.0
 10
-24.37496808449618
 20
9.747355557211779
 30
0.0
 10
-22.96340166983019
 20
10.41945682792515
 30
0.0
 10
-22.30693501876475
 20
10.61000748160333
 30
0.0
 10
-21.58438821437708
 20
10.69420116751804
 30
0.0
 10
-21.43505551062137
 20
10.70319305707742
 30
0.0
 10
-21.29269739183616
 20
10.70390202667276
 30
0.0
  0
ELLIPSE
  5
623C
330
6182
100
AcDbEntity
  8
0
100
AcDbEllipse
 10
2.24137951311838
 20
20.04946782127132
 30
0.0
 11
4.377621075780823
 21
7.58226211953672
 31
0.0
210
0.0
220
0.0
230
0.9999999999999998
 40
0.5773502691896254
 41
5.95797843118285
 42
9.749984836766113
  0
ELLIPSE
  5
623D
330
6182
100
AcDbEntity
  8
0
100
AcDbEllipse
 10
3.281242426627986
 20
19.44910268823621
 30
0.0
 11
3.238508326896292
 21
5.609260962919263
 31
0.0
210
0.0
220
0.0
230
0.9999999999999998
 40
0.5773502691896254
 41
0.0
 42
6.283185307179586
  0
ELLIPSE
  5
623E
330
6182
100
AcDbEntity
  8
0
100
AcDbEllipse
 10
3.281242426627986
 20
19.44910268823621
 30
0.0
 11
2.125000000000002
 21
3.680607966083871
 31
0.0
210
0.0
220
0.0
230
1.0
 40
0.5773502691896255
 41
0.0
 42
6.283185307179586
  0
ELLIPSE
  5
623F
330
6182
100
AcDbEntity
  8
0
100
AcDbEllipse
 10
1.159922083068369
 20
20.67384755962782
 30
0.0
 11
2.124999999999784
 21
3.680607966083999
 31
0.0
210
0.0
220
0.0
230
1.0
 40
0.5773502691896255
 41
3.66419197590492
 42
5.760585984863688
  0
ELLIPSE
  5
6240
330
6182
100
AcDbEntity
  8
0
100
AcDbEllipse
 10
1.513475473661616
 20
20.46972341439587
 30
0.0
 11
-5.174999999999998
 21
-8.963362929168946
 31
0.0
210
0.0
220
0.0
230
1.0
 40
0.5773502691896254
 41
2.07552392347349
 42
7.349254037295886
  0
SPLINE
  5
6241
330
6182
100
AcDbEntity
  8
0
100
AcDbSpline
210
0.0
220
0.0
230
1.0
 70
     8
 71
     3
 72
    22
 73
    18
 74
     0
 42
0.000000001
 43
0.0000000001
 40
5.822994019778874
 40
5.822994019778874
 40
5.822994019778874
 40
5.822994019778874
 40
6.088087961568492
 40
6.088087961568492
 40
6.421273080242096
 40
6.421273080242096
 40
6.789766923390136
 40
6.789766923390136
 40
7.154709371790283
 40
7.154709371790283
 40
7.5174793616615
 40
7.5174793616615
 40
7.885319521951048
 40
7.885319521951048
 40
8.244512209762337
 40
8.244512209762337
 40
8.314172921375192
 40
8.314172921375192
 40
8.314172921375192
 40
8.314172921375192
 10
7.7882170995088
 20
26.42677989795331
 30
0.0
 10
8.125459629566869
 20
25.8358821280389
 30
0.0
 10
8.340105377809132
 20
25.2006825693701
 30
0.0
 10
8.616642616216886
 20
23.74445071851115
 30
0.0
 10
8.627820066946991
 20
22.91371735780164
 30
0.0
 10
8.430533262506569
 20
21.16058554298682
 30
0.0
 10
8.196824062523852
 20
20.2360868770034
 30
0.0
 10
7.522706380134782
 20
18.44405001644473
 30
0.0
 10
7.083660489899648
 20
17.576643356598
 30
0.0
 10
6.042549740156468
 20
15.96447762222303
 30
0.0
 10
5.441920116909275
 20
15.21932541598074
 30
0.0
 10
4.102170922028567
 20
13.90466727981441
 30
0.0
 10
3.362113859981192
 20
13.3364742271089
 30
0.0
 10
1.776361475904058
 20
12.4783402921981
 30
0.0
 10
0.9287002428455659
 20
12.17804813093287
 30
0.0
 10
-0.1518811634147665
 20
12.06784113880716
 30
0.0
 10
-0.3293343337417465
 20
12.05799988780636
 30
0.0
 10
-0.5081159599543073
 20
12.05710952244982
 30
0.0
  0
ELLIPSE
  5
6242
330
6182
100
AcDbEntity
  8
0
100
AcDbEllipse
 10
-24.67027268851083
 20
-31.77405046231791
 30
0.0
 11
5.377621075780821
 21
9.314312927105593
 31
0.0
210
0.0
220
0.0
230
1.0
 40
0.5773502691896254
 41
2.816385777593058
 42
6.608392183176323
  0
ELLIPSE
  5
6243
330
6182
100
AcDbEntity
  8
0
100
AcDbEllipse
 10
-23.94236864905408
 20
-32.19430605544248
 30
0.0
 11
-6.174999999999997
 21
-10.69541373673782
 31
0.0
210
0.0
220
0.0
230
1.0
 40
0.5773502691896257
 41
0.0
 42
6.283185307179586
  0
ELLIPSE
  5
6244
330
6182
100
AcDbEntity
  8
0
100
AcDbEllipse
 10
-25.71013560202046
 20
-31.17368532928282
 30
0.0
 11
4.238508326896289
 21
7.341311770488137
 31
0.0
210
0.0
220
0.0
230
1.0
 40
0.5773502691896253
 41
2.01327993677228
 42
7.411498023997101
  0
ELLIPSE
  5
6245
330
6182
100
AcDbEntity
  8
0
100
AcDbEllipse
 10
-25.71013560202046
 20
-31.17368532928282
 30
0.0
 11
3.124999999999997
 21
5.412658773652743
 31
0.0
210
0.0
220
0.0
230
1.0
 40
0.5773502691896255
 41
0.0
 42
6.283185307179586
  0
ELLIPSE
  5
6246
330
6182
100
AcDbEntity
  8
0
100
AcDbEllipse
 10
-27.83145594558011
 20
-29.94894045789122
 30
0.0
 11
3.124999999999996
 21
5.412658773652743
 31
0.0
210
0.0
220
0.0
230
0.9999999999999998
 40
0.5773502691896255
 41
3.487883580748673
 42
5.936894380020705
  0
ELLIPSE
  5
6247
330
6182
100
AcDbEntity
  8
0
100
AcDbEllipse
 10
-24.67027268851083
 20
-64.43391369942695
 30
0.0
 11
5.377621075780821
 21
9.314312927105593
 31
0.0
210
0.0
220
0.0
230
1.0
 40
0.5773502691896254
 41
2.816385777593058
 42
6.608392183176323
  0
ELLIPSE
  5
6248
330
6182
100
AcDbEntity
  8
0
100
AcDbEllipse
 10
-23.94236864905408
 20
-64.85416929255151
 30
0.0
 11
-6.174999999999997
 21
-10.69541373673782
 31
0.0
210
0.0
220
0.0
230
1.0
 40
0.5773502691896257
 41
0.0
 42
6.283185307179586
  0
ELLIPSE
  5
6249
330
6182
100
AcDbEntity
  8
0
100
AcDbEllipse
 10
-25.71013560202046
 20
-63.83354856639186
 30
0.0
 11
4.238508326896288
 21
7.341311770488138
 31
0.0
210
0.0
220
0.0
230
0.9999999999999998
 40
0.5773502691896253
 41
2.01327993677227
 42
7.411498023997101
  0
ELLIPSE
  5
624A
330
6182
100
AcDbEntity
  8
0
100
AcDbEllipse
 10
-25.71013560202046
 20
-63.83354856639186
 30
0.0
 11
3.124999999999997
 21
5.412658773652743
 31
0.0
210
0.0
220
0.0
230
1.0
 40
0.5773502691896255
 41
0.0
 42
6.283185307179586
  0
ELLIPSE
  5
624B
330
6182
100
AcDbEntity
  8
0
100
AcDbEllipse
 10
-27.83145594558011
 20
-62.60880369500028
 30
0.0
 11
3.124999999999996
 21
5.412658773652743
 31
0.0
210
0.0
220
0.0
230
0.9999999999999998
 40
0.5773502691896255
 41
3.487883580748672
 42
5.936894380020704
  0
ELLIPSE
  5
624C
330
6182
100
AcDbEntity
  8
0
100
AcDbEllipse
 10
2.241379513118388
 20
-12.61039541583772
 30
0.0
 11
4.377621075780823
 21
7.58226211953672
 31
0.0
210
0.0
220
0.0
230
0.9999999999999998
 40
0.5773502691896254
 41
5.95797843118285
 42
9.749984836766115
  0
ELLIPSE
  5
624D
330
6182
100
AcDbEntity
  8
0
100
AcDbEllipse
 10
3.28124242662799
 20
-13.21076054887283
 30
0.0
 11
3.238508326896292
 21
5.609260962919263
 31
0.0
210
0.0
220
0.0
230
0.9999999999999998
 40
0.5773502691896254
 41
0.0
 42
6.283185307179586
  0
ELLIPSE
  5
624E
330
6182
100
AcDbEntity
  8
0
100
AcDbEllipse
 10
3.28124242662799
 20
-13.21076054887283
 30
0.0
 11
2.125000000000002
 21
3.680607966083871
 31
0.0
210
0.0
220
0.0
230
1.0
 40
0.5773502691896255
 41
0.0
 42
6.283185307179586
  0
ELLIPSE
  5
624F
330
6182
100
AcDbEntity
  8
0
100
AcDbEllipse
 10
1.159922083068365
 20
-11.98601567748122
 30
0.0
 11
2.124999999999781
 21
3.680607966083998
 31
0.0
210
0.0
220
0.0
230
1.0
 40
0.5773502691896254
 41
3.664191975904921
 42
5.760585984863683
  0
ELLIPSE
  5
6250
330
6182
100
AcDbEntity
  8
0
100
AcDbEllipse
 10
1.51347547366162
 20
-12.19013982271317
 30
0.0
 11
-5.174999999999998
 21
-8.963362929168946
 31
0.0
210
0.0
220
0.0
230
1.0
 40
0.5773502691896254
 41
2.075523923473491
 42
7.349254037295886
  0
ELLIPSE
  5
6251
330
6182
100
AcDbEntity
  8
0
100
AcDbEllipse
 10
2.241379513118384
 20
-45.27025865294676
 30
0.0
 11
4.377621075780823
 21
7.58226211953672
 31
0.0
210
0.0
220
0.0
230
0.9999999999999998
 40
0.5773502691896254
 41
5.95797843118285
 42
9.749984836766113
  0
ELLIPSE
  5
6252
330
6182
100
AcDbEntity
  8
0
100
AcDbEllipse
 10
3.281242426627986
 20
-45.87062378598186
 30
0.0
 11
3.238508326896292
 21
5.609260962919263
 31
0.0
210
0.0
220
0.0
230
0.9999999999999998
 40
0.5773502691896254
 41
0.0
 42
6.283185307179586
  0
ELLIPSE
  5
6253
330
6182
100
AcDbEntity
  8
0
100
AcDbEllipse
 10
3.281242426627986
 20
-45.87062378598186
 30
0.0
 11
2.125000000000002
 21
3.680607966083871
 31
0.0
210
0.0
220
0.0
230
1.0
 40
0.5773502691896255
 41
0.0
 42
6.283185307179586
  0
ELLIPSE
  5
6254
330
6182
100
AcDbEntity
  8
0
100
AcDbEllipse
 10
1.15992208306836
 20
-44.64587891459027
 30
0.0
 11
2.124999999999782
 21
3.680607966083999
 31
0.0
210
0.0
220
0.0
230
1.0
 40
0.5773502691896255
 41
3.664191975904921
 42
5.760585984863684
  0
ELLIPSE
  5
6255
330
6182
100
AcDbEntity
  8
0
100
AcDbEllipse
 10
1.513475473661616
 20
-44.85000305982222
 30
0.0
 11
-5.174999999999998
 21
-8.963362929168946
 31
0.0
210
0.0
220
0.0
230
1.0
 40
0.5773502691896254
 41
2.075523923473492
 42
7.349254037295886
  0
SPLINE
  5
6256
330
6182
100
AcDbEntity
  8
0
100
AcDbSpline
210
0.0
220
0.0
230
1.0
 70
     8
 71
     3
 72
    24
 73
    20
 74
     0
 42
0.000000001
 43
0.0000000001
 40
2.681401366189077
 40
2.681401366189077
 40
2.681401366189077
 40
2.681401366189077
 40
3.014345191289621
 40
3.014345191289621
 40
3.307025466620236
 40
3.307025466620236
 40
3.602050720618002
 40
3.602050720618002
 40
3.901852555931288
 40
3.901852555931288
 40
4.203660984601161
 40
4.203660984601161
 40
4.50401297134457
 40
4.50401297134457
 40
4.799817405389999
 40
4.799817405389999
 40
5.092108631578068
 40
5.092108631578068
 40
5.172580267785404
 40
5.172580267785404
 40
5.172580267785404
 40
5.172580267785404
 10
-31.48419974892592
 20
-39.60816109837376
 30
0.0
 10
-31.77615610358259
 20
-39.09661126849535
 30
0.0
 10
-32.0037285421674
 20
-38.40289543331164
 30
0.0
 10
-32.19233748730518
 20
-36.80951430176278
 30
0.0
 10
-32.18220156571737
 20
-35.94906977620456
 30
0.0
 10
-31.93425914756643
 20
-34.09112943857487
 30
0.0
 10
-31.69524343238284
 20
-33.09328081861361
 30
0.0
 10
-30.99579133609362
 20
-31.06117351116618
 30
0.0
 10
-30.53213661500951
 20
-30.02685488012776
 30
0.0
 10
-29.42413062573768
 20
-28.04173470429601
 30
0.0
 10
-28.77874634731615
 20
-27.0918153647938
 30
0.0
 10
-27.38307856364655
 20
-25.38726521340259
 30
0.0
 10
-26.63338907382707
 20
-24.63210929651185
 30
0.0
 10
-25.12910212083041
 20
-23.39632819739196
 30
0.0
 10
-24.37496808449616
 20
-22.91250767989728
 30
0.0
 10
-22.96340166983018
 20
-22.2404064091839
 30
0.0
 10
-22.30693501876475
 20
-22.0498557555057
 30
0.0
 10
-21.58438821437707
 20
-21.96566206959101
 30
0.0
 10
-21.43505551062136
 20
-21.95667018003162
 30
0.0
 10
-21.29269739183615
 20
-21.95596121043629
 30
0.0
  0
SPLINE
  5
6257
330
6182
100
AcDbEntity
  8
0
100
AcDbSpline
210
0.0
220
0.0
230
1.0
 70
     8
 71
     3
 72
    24
 73
    20
 74
     0
 42
0.000000001
 43
0.0000000001
 40
2.681401366189076
 40
2.681401366189076
 40
2.681401366189076
 40
2.681401366189076
 40
3.014345191289621
 40
3.014345191289621
 40
3.307025466620235
 40
3.307025466620235
 40
3.602050720618001
 40
3.602050720618001
 40
3.901852555931287
 40
3.901852555931287
 40
4.20366098460116
 40
4.20366098460116
 40
4.504012971344569
 40
4.504012971344569
 40
4.799817405389998
 40
4.799817405389998
 40
5.092108631578067
 40
5.092108631578067
 40
5.172580267785404
 40
5.172580267785404
 40
5.172580267785404
 40
5.172580267785404
 10
-31.48419974892592
 20
-72.26802433548279
 30
0.0
 10
-31.77615610358259
 20
-71.7564745056044
 30
0.0
 10
-32.0037285421674
 20
-71.06275867042069
 30
0.0
 10
-32.19233748730518
 20
-69.46937753887183
 30
0.0
 10
-32.18220156571737
 20
-68.6089330133136
 30
0.0
 10
-31.93425914756643
 20
-66.75099267568391
 30
0.0
 10
-31.69524343238284
 20
-65.75314405572266
 30
0.0
 10
-30.99579133609362
 20
-63.72103674827524
 30
0.0
 10
-30.53213661500951
 20
-62.68671811723681
 30
0.0
 10
-29.42413062573769
 20
-60.70159794140507
 30
0.0
 10
-28.77874634731615
 20
-59.75167860190286
 30
0.0
 10
-27.38307856364656
 20
-58.04712845051165
 30
0.0
 10
-26.63338907382708
 20
-57.29197253362091
 30
0.0
 10
-25.12910212083042
 20
-56.056191434501
 30
0.0
 10
-24.37496808449618
 20
-55.57237091700631
 30
0.0
 10
-22.96340166983019
 20
-54.90026964629294
 30
0.0
 10
-22.30693501876475
 20
-54.70971899261477
 30
0.0
 10
-21.58438821437708
 20
-54.62552530670006
 30
0.0
 10
-21.43505551062136
 20
-54.61653341714067
 30
0.0
 10
-21.29269739183615
 20
-54.61582444754533
 30
0.0
  0
SPLINE
  5
6258
330
6182
100
AcDbEntity
  8
0
100
AcDbSpline
210
0.0
220
0.0
230
1.0
 70
     8
 71
     3
 72
    22
 73
    18
 74
     0
 42
0.000000001
 43
0.0000000001
 40
5.822994019778874
 40
5.822994019778874
 40
5.822994019778874
 40
5.822994019778874
 40
6.088087961568492
 40
6.088087961568492
 40
6.421273080242096
 40
6.421273080242096
 40
6.789766923390136
 40
6.789766923390136
 40
7.154709371790283
 40
7.154709371790283
 40
7.5174793616615
 40
7.5174793616615
 40
7.885319521951048
 40
7.885319521951048
 40
8.244512209762337
 40
8.244512209762337
 40
8.314172921375192
 40
8.314172921375192
 40
8.314172921375192
 40
8.314172921375192
 10
7.788217099508809
 20
-6.233083339155731
 30
0.0
 10
8.125459629566877
 20
-6.823981109070151
 30
0.0
 10
8.340105377809141
 20
-7.459180667738953
 30
0.0
 10
8.616642616216889
 20
-8.9154125185979
 30
0.0
 10
8.627820066947
 20
-9.746145879307404
 30
0.0
 10
8.430533262506575
 20
-11.49927769412222
 30
0.0
 10
8.196824062523862
 20
-12.42377636010565
 30
0.0
 10
7.522706380134791
 20
-14.21581322066432
 30
0.0
 10
7.083660489899652
 20
-15.08321988051104
 30
0.0
 10
6.042549740156473
 20
-16.69538561488602
 30
0.0
 10
5.44192011690928
 20
-17.4405378211283
 30
0.0
 10
4.102170922028567
 20
-18.75519595729464
 30
0.0
 10
3.362113859981197
 20
-19.32338901000015
 30
0.0
 10
1.776361475904066
 20
-20.18152294491095
 30
0.0
 10
0.9287002428455704
 20
-20.48181510617618
 30
0.0
 10
-0.1518811634147577
 20
-20.5920220983019
 30
0.0
 10
-0.3293343337417376
 20
-20.60186334930268
 30
0.0
 10
-0.5081159599542984
 20
-20.60275371465923
 30
0.0
  0
SPLINE
  5
6259
330
6182
100
AcDbEntity
  8
0
100
AcDbSpline
210
0.0
220
0.0
230
1.0
 70
     8
 71
     3
 72
    22
 73
    18
 74
     0
 42
0.000000001
 43
0.0000000001
 40
5.822994019778874
 40
5.822994019778874
 40
5.822994019778874
 40
5.822994019778874
 40
6.088087961568492
 40
6.088087961568492
 40
6.421273080242096
 40
6.421273080242096
 40
6.789766923390136
 40
6.789766923390136
 40
7.154709371790283
 40
7.154709371790283
 40
7.5174793616615
 40
7.5174793616615
 40
7.885319521951048
 40
7.885319521951048
 40
8.244512209762337
 40
8.244512209762337
 40
8.314172921375192
 40
8.314172921375192
 40
8.314172921375192
 40
8.314172921375192
 10
7.788217099508805
 20
-38.89294657626478
 30
0.0
 10
8.125459629566872
 20
-39.4838443461792
 30
0.0
 10
8.340105377809138
 20
-40.119043904848
 30
0.0
 10
8.616642616216886
 20
-41.57527575570695
 30
0.0
 10
8.627820066946995
 20
-42.40600911641644
 30
0.0
 10
8.430533262506569
 20
-44.15914093123126
 30
0.0
 10
8.196824062523857
 20
-45.0836395972147
 30
0.0
 10
7.522706380134787
 20
-46.87567645777336
 30
0.0
 10
7.083660489899648
 20
-47.74308311762008
 30
0.0
 10
6.042549740156468
 20
-49.35524885199505
 30
0.0
 10
5.441920116909275
 20
-50.10040105823735
 30
0.0
 10
4.102170922028562
 20
-51.41505919440368
 30
0.0
 10
3.362113859981192
 20
-51.98325224710919
 30
0.0
 10
1.776361475904062
 20
-52.84138618202
 30
0.0
 10
0.9287002428455659
 20
-53.14167834328522
 30
0.0
 10
-0.1518811634147621
 20
-53.25188533541094
 30
0.0
 10
-0.329334333741742
 20
-53.26172658641173
 30
0.0
 10
-0.5081159599543028
 20
-53.26261695176828
 30
0.0
  0
ELLIPSE
  5
625A
330
6182
100
AcDbEntity
  8
0
100
AcDbEllipse
 10
21.64522147920803
 20
48.85498690429507
 30
0.0
 11
1.202621075780818
 21
2.083000805505519
 31
0.0
210
0.0
220
0.0
230
1.0
 40
0.5773502691896254
 41
5.497787143782138
 42
6.608392183176322
  0
ELLIPSE
  5
625B
330
6182
100
AcDbEntity
  8
0
100
AcDbEllipse
 10
23.96411577633447
 20
50.7821589813377
 30
0.0
 11
-1.75
 21
0.0000000000001079
 31
0.0
210
0.0
220
0.0
230
1.0
 40
0.5773502691896244
 41
1.209787871990773
 42
2.356194490192581
  0
ELLIPSE
  5
625C
330
6182
100
AcDbEntity
  8
0
100
AcDbEllipse
 10
22.37312551866477
 20
48.4347313111705
 30
0.0
 11
2.000000000000198
 21
3.464101615137624
 31
0.0
210
0.0
220
0.0
230
1.0
 40
0.5773502691896254
 41
5.497787143782376
 42
8.639379797372169
  0
ELLIPSE
  5
625D
330
6182
100
AcDbEntity
  8
0
100
AcDbEllipse
 10
22.46293985588512
 20
48.48658564294176
 30
0.0
 11
-2.5
 21
0.0000000000000069
 31
0.0
210
0.0
220
0.0
230
1.0
 40
0.5773502691896234
 41
4.351380525580432
 42
5.495874389475099
  0
ELLIPSE
  5
625E
330
6182
100
AcDbEntity
  8
0
100
AcDbEllipse
 10
20.60535856569839
 20
-25.66233340802064
 30
0.0
 11
-0.0635083268962955
 21
-0.1099996488880768
 31
0.0
210
0.0
220
0.0
230
1.0
 40
0.5773502691896257
 41
5.49778714378219
 42
8.639379797371983
  0
LINE
  5
625F
330
6182
100
AcDbEntity
  8
0
100
AcDbLine
 10
20.69517290291877
 20
49.50352283500695
 30
0.0
 11
20.69517290291873
 21
-25.6104790762494
 31
0.0
  0
LINE
  5
6260
330
6182
100
AcDbEntity
  8
0
100
AcDbLine
 10
23.34598451497298
 20
49.83692290082173
 30
0.0
 11
23.34598451497297
 21
-25.2807625445291
 31
0.0
  0
ELLIPSE
  5
6261
330
6182
100
AcDbEntity
  8
0
100
AcDbEllipse
 10
23.96411577633447
 20
-24.33552646401312
 30
0.0
 11
-1.75
 21
0.0000000000001079
 31
0.0
210
0.0
220
0.0
230
1.0
 40
0.5773502691896244
 41
1.209787871990773
 42
2.356194490192589
  0
LINE
  5
6262
330
6182
100
AcDbEntity
  8
0
100
AcDbLine
 10
25.20155264341096
 20
50.06772447302594
 30
0.0
 11
25.20155264341093
 21
-25.04996097232487
 31
0.0
  0
ELLIPSE
  5
6263
330
6182
100
AcDbEntity
  8
0
100
AcDbEllipse
 10
22.46293985588508
 20
-26.63109980240906
 30
0.0
 11
-2.5
 21
0.0000000000000069
 31
0.0
210
0.0
220
0.0
230
1.0
 40
0.5773502691896234
 41
4.351380525580431
 42
5.497787143782137
  0
ELLIPSE
  5
6264
330
6182
100
AcDbEntity
  8
0
100
AcDbEllipse
 10
21.64522147920801
 20
-26.26269854105576
 30
0.0
 11
-1.202621075780947
 21
-2.083000805505455
 31
0.0
210
0.0
220
0.0
230
1.0
 40
0.5773502691896254
 41
5.957978431183203
 42
8.639379797372173
  0
ELLIPSE
  5
6265
330
6182
100
AcDbEntity
  8
0
100
AcDbEllipse
 10
22.37312551866474
 20
-26.6829541341803
 30
0.0
 11
-2.000000000000207
 21
-3.464101615137639
 31
0.0
210
0.0
220
0.0
230
1.0
 40
0.5773502691896255
 41
5.497787143782382
 42
8.639379797372171
  0
SPLINE
  5
6266
330
6182
100
AcDbEntity
  8
0
100
AcDbSpline
210
0.0
220
0.0
230
1.0
 70
     8
 71
     3
 72
    24
 73
    20
 74
     0
 42
0.000000001
 43
0.0000000001
 40
3.141592653589793
 40
3.141592653589793
 40
3.141592653589793
 40
3.141592653589793
 40
3.363002096328805
 40
3.363002096328805
 40
3.600681815233281
 40
3.600681815233281
 40
3.852352465744871
 40
3.852352465744871
 40
4.110948982971207
 40
4.110948982971207
 40
4.367600266020784
 40
4.367600266020784
 40
4.613344275145483
 40
4.613344275145483
 40
4.841958289582591
 40
4.841958289582591
 40
5.056505913629747
 40
5.056505913629747
 40
5.172580267785403
 40
5.172580267785403
 40
5.172580267785403
 40
5.172580267785403
 10
20.05726152684213
 20
47.51617265762682
 30
0.0
 10
20.05726152684213
 20
47.64536077707316
 30
0.0
 10
20.07010184758614
 20
47.80033845025848
 30
0.0
 10
20.13218879607433
 20
48.15467345040914
 30
0.0
 10
20.18393098475814
 20
48.35635619834538
 30
0.0
 10
20.33093521050197
 20
48.78462535674266
 30
0.0
 10
20.42851170513981
 20
49.01194491449946
 30
0.0
 10
20.66265385619713
 20
49.4611931081723
 30
0.0
 10
20.80019668524071
 20
49.68276780918007
 30
0.0
 10
21.09607909723408
 20
50.08805772297764
 30
0.0
 10
21.25426989023361
 20
50.27197652000189
 30
0.0
 10
21.56336021110314
 20
50.57860724757587
 30
0.0
 10
21.71429661989846
 20
50.70344568009144
 30
0.0
 10
21.97993858859353
 20
50.88729454515
 30
0.0
 10
22.09631237253763
 20
50.95005581356137
 30
0.0
 10
22.27446903056316
 20
51.02610975217588
 30
0.0
 10
22.3386606270697
 20
51.04202952622693
 30
0.0
 10
22.39055281445839
 20
51.05051564267954
 30
0.0
 10
22.39990409782486
 20
51.0506461431451
 30
0.0
 10
22.40056351234446
 20
51.0506494271506
 30
0.0
  0
SPLINE
  5
6267
330
6182
100
AcDbEntity
  8
0
100
AcDbSpline
210
0.0
220
0.0
230
1.0
 70
     8
 71
     3
 72
    16
 73
    12
 74
     0
 42
0.000000001
 43
0.0000000001
 40
2.681401366189073
 40
2.681401366189073
 40
2.681401366189073
 40
2.681401366189073
 40
2.773439623669216
 40
2.773439623669216
 40
2.86547788114936
 40
2.86547788114936
 40
2.957516138629503
 40
2.957516138629503
 40
3.049554396109647
 40
3.049554396109647
 40
3.14159265358979
 40
3.14159265358979
 40
3.14159265358979
 40
3.14159265358979
 10
20.12139297284591
 20
-28.01467519172586
 30
0.0
 10
20.12113379482055
 20
-28.01422107427761
 30
0.0
 10
20.11821946492837
 20
-28.00902647374046
 30
0.0
 10
20.10930056104415
 20
-27.98747733752332
 30
0.0
 10
20.10331481483747
 20
-27.97113239101499
 30
0.0
 10
20.09065232905334
 20
-27.92684170579816
 30
0.0
 10
20.08398441790055
 20
-27.89890810079946
 30
0.0
 10
20.07206802687754
 20
-27.83188345465046
 30
0.0
 10
20.06682174372599
 20
-27.79280235603819
 30
0.0
 10
20.05941900949367
 20
-27.7044649371802
 30
0.0
 10
20.05726152684211
 20
-27.6552153274797
 30
0.0
 10
20.05726152684211
 20
-27.60151278772401
 30
0.0
  0
ELLIPSE
  5
6268
330
6182
100
AcDbEntity
  8
0
100
AcDbEllipse
 10
18.30726152684214
 20
47.51617265762682
 30
0.0
 11
1.75
 21
0.0000000000000033
 31
0.0
210
0.0
220
0.0
230
1.0
 40
0.5773502691896269
 41
5.497787143782133
 42
6.283185307179582
  0
LINE
  5
6269
330
6182
100
AcDbEntity
  8
0
100
AcDbLine
 10
20.51554422847805
 20
49.17811640737139
 30
0.0
 11
20.51554422847803
 21
-25.71418773979193
 31
0.0
  0
ELLIPSE
  5
626A
330
6182
100
AcDbEntity
  8
0
100
AcDbEllipse
 10
18.30726152684213
 20
-27.60151278772399
 30
0.0
 11
1.75
 21
0.0000000000000033
 31
0.0
210
0.0
220
0.0
230
1.0
 40
0.5773502691896269
 41
5.497787143782138
 42
6.283185307179591
  0
ELLIPSE
  5
626B
330
6182
100
AcDbEntity
  8
0
100
AcDbEllipse
 10
22.28331118144441
 20
-26.73480846595156
 30
0.0
 11
2.5
 21
-0.0000000000001472
 31
0.0
210
0.0
220
0.0
230
1.0
 40
0.5773502691896272
 41
2.356194490192669
 42
2.6690631548498
  0
LINE
  5
626C
330
6182
100
AcDbEntity
  8
0
100
AcDbLine
 10
19.54469839391857
 20
-28.31594729603576
 30
0.0
 11
19.54469839391859
 21
46.80173814931506
 31
0.0
  0
LINE
  5
626D
330
6182
100
AcDbEntity
  8
0
100
AcDbLine
 10
20.05726152684213
 20
-27.60151278772399
 30
0.0
 11
20.05726152684214
 21
47.51617265762682
 31
0.0
  0
ENDBLK
  5
6184
330
6182
100
AcDbEntity
  8
0
100
AcDbBlockEnd
  0
ENDSEC
  0
SECTION
  2
ENTITIES
  0
INSERT
  5
626E
330
1F
100
AcDbEntity
  8
0
100
AcDbBlockReference
  2
TU20-Front
 10
0.0
 20
0.0
 30
0.0
  0
INSERT
  5
626F
330
1F
100
AcDbEntity
  8
0
100
AcDbBlockReference
  2
TU20-Left
 10
82.20040879948649
 20
0.0
 30
0.0
  0
INSERT
  5
6270
330
1F
100
AcDbEntity
  8
0
100
AcDbBlockReference
  2
TU20-Right
 10
-82.20040879948644
 20
0.0
 30
0.0
  0
INSERT
  5
6271
330
1F
100
AcDbEntity
  8
0
100
AcDbBlockReference
  2
TU20-Top
 10
0.0
 20
-139.2
 30
0.0
  0
INSERT
  5
6272
330
1F
100
AcDbEntity
  8
0
100
AcDbBlockReference
  2
TU20-Bottom
 10
0.0
 20
139.2
 30
0.0
  0
INSERT
  5
6273
330
1F
100
AcDbEntity
  8
0
100
AcDbBlockReference
  2
TU20-ISO
 10
121.1683877492683
 20
-243.7445892312054
 30
0.0
  0
MTEXT
  5
6274
330
1F
100
AcDbEntity
  8
0
100
AcDbMText
 10
0.0
 20
-298.6183854891473
 30
0.0
 40
17.4
 41
0.0
 71
     5
 72
     5
  1
TU20
 73
     1
 44
1.0
1001
ACAD
1000
MTEXTBEGIN
1070
    73
1070
     1
1070
    44
1040
1.0
1070
    74
1070
     0
1000
MTEXTEND
  0
ENDSEC
  0
SECTION
  2
OBJECTS
  0
DICTIONARY
  5
C
330
0
100
AcDbDictionary
281
     1
  3
ACAD_CIP_PREVIOUS_PRODUCT_INFO
350
216
  3
ACAD_COLOR
350
6B
  3
ACAD_DETAILVIEWSTYLE
350
21B
  3
ACAD_GROUP
350
D
  3
ACAD_LAYOUT
350
1A
  3
ACAD_MATERIAL
350
6A
  3
ACAD_MLEADERSTYLE
350
12D
  3
ACAD_MLINESTYLE
350
17
  3
ACAD_PLOTSETTINGS
350
19
  3
ACAD_PLOTSTYLENAME
350
E
  3
ACAD_SCALELIST
350
10C
  3
ACAD_SECTIONVIEWSTYLE
350
219
  3
ACAD_TABLESTYLE
350
7E
  3
ACAD_VISUALSTYLE
350
EF
  3
ACDB_RECOMPOSE_DATA
350
6375
  3
AcDbVariableDictionary
350
5E
  3
DWGPROPS
350
6376
  0
DICTIONARY
  5
62C5
330
8
100
AcDbDictionary
280
     1
281
     1
  0
DICTIONARY
  5
1FF
330
2
100
AcDbDictionary
280
     1
281
     1
  3
ACAD_LAYERSTATES
360
200
  0
DICTIONARY
  5
13C
330
10
100
AcDbDictionary
280
     1
281
     1
  0
DICTIONARY
  5
1CE
330
1F
100
AcDbDictionary
280
     1
281
     1
  3
ACAD_LAYOUTSELFREF
360
62CD
  0
DICTIONARY
  5
6278
330
D2
100
AcDbDictionary
280
     1
281
     1
  3
ACAD_LAYOUTSELFREF
360
62D6
  0
DICTIONARY
  5
627A
330
D6
100
AcDbDictionary
280
     1
281
     1
  3
ACAD_LAYOUTSELFREF
360
62D9
  0
XRECORD
  5
216
102
{ACAD_REACTORS
330
C
102
}
330
C
100
AcDbXrecord
280
     1
300
ACD
300
2021
300

  0
DICTIONARY
  5
6B
102
{ACAD_REACTORS
330
C
102
}
330
C
100
AcDbDictionary
281
     1
  0
DICTIONARY
  5
21B
102
{ACAD_REACTORS
330
C
102
}
330
C
100
AcDbDictionary
281
     1
  3
Metric50
350
21C
  0
DICTIONARY
  5
D
102
{ACAD_REACTORS
330
C
102
}
330
C
100
AcDbDictionary
281
     1
  0
DICTIONARY
  5
1A
102
{ACAD_REACTORS
330
C
102
}
330
C
100
AcDbDictionary
281
     1
  3
Layout1
350
D3
  3
Layout2
350
D7
  3
Model
350
22
  0
DICTIONARY
  5
6A
102
{ACAD_REACTORS
330
C
102
}
330
C
100
AcDbDictionary
281
     1
  3
ByBlock
350
ED
  3
ByLayer
350
EC
  3
Global
350
EE
  0
DICTIONARY
  5
12D
102
{ACAD_REACTORS
330
C
102
}
330
C
100
AcDbDictionary
281
     1
  3
Standard
350
12E
  0
DICTIONARY
  5
17
102
{ACAD_REACTORS
330
C
102
}
330
C
100
AcDbDictionary
281
     1
  3
Standard
350
18
  0
DICTIONARY
  5
19
102
{ACAD_REACTORS
330
C
102
}
330
C
100
AcDbDictionary
281
     1
  0
ACDBDICTIONARYWDFLT
  5
E
102
{ACAD_REACTORS
330
C
102
}
330
C
100
AcDbDictionary
281
     1
  3
Normal
350
F
100
AcDbDictionaryWithDefault
340
F
  0
DICTIONARY
  5
10C
102
{ACAD_REACTORS
330
C
102
}
330
C
100
AcDbDictionary
281
     1
  3
A0
350
10D
  3
A1
350
1BE
  3
A2
350
1BF
  3
A3
350
1C0
  3
A4
350
1C1
  3
A5
350
1C2
  3
A6
350
1C3
  3
A7
350
1C4
  3
A8
350
1C5
  3
A9
350
1C6
  3
B0
350
1C7
  3
B1
350
1C8
  3
B2
350
1C9
  3
B3
350
1CA
  3
B4
350
1CB
  3
B5
350
1CC
  3
B6
350
1CD
  0
DICTIONARY
  5
219
102
{ACAD_REACTORS
330
C
102
}
330
C
100
AcDbDictionary
281
     1
  3
Metric50
350
21A
  0
DICTIONARY
  5
7E
102
{ACAD_REACTORS
330
C
102
}
330
C
100
AcDbDictionary
281
     1
  3
Standard
350
7F
  0
DICTIONARY
  5
EF
102
{ACAD_REACTORS
330
C
102
}
330
C
100
AcDbDictionary
281
     1
  3
2dWireframe
350
F5
  3
Basic
350
F4
  3
Brighten
350
FB
  3
ColorChange
350
FF
  3
Conceptual
350
F8
  3
Dim
350
FA
  3
EdgeColorOff
350
1E6
  3
Facepattern
350
FE
  3
Flat
350
F0
  3
FlatWithEdges
350
F1
  3
Gouraud
350
F2
  3
GouraudWithEdges
350
F3
  3
Hidden
350
F7
  3
JitterOff
350
1E4
  3
Linepattern
350
FD
  3
OverhangOff
350
1E5
  3
Realistic
350
F9
  3
Shaded
350
1F3
  3
Shaded with edges
350
1F2
  3
Shades of Gray
350
1EF
  3
Sketchy
350
1F0
  3
Thicken
350
FC
  3
Wireframe
350
F6
  3
X-Ray
350
1F1
  0
XRECORD
  5
6375
102
{ACAD_REACTORS
330
C
102
}
330
C
100
AcDbXrecord
280
     1
 90
        1
330
7F
  0
DICTIONARY
  5
5E
102
{ACAD_REACTORS
330
C
102
}
330
C
100
AcDbDictionary
281
     1
  3
CANNOSCALE
350
146
  3
CENTEREXE
350
259
  3
CENTERLTYPEFILE
350
25A
  3
CMLEADERSTYLE
350
145
  3
CTABLESTYLE
350
84
  3
CVIEWDETAILSTYLE
350
227
  3
CVIEWSECTIONSTYLE
350
228
  3
DIMASSOC
350
5F
  3
HIDETEXT
350
63
  3
INDEXCTL
350
6322
  3
LAYEREVAL
350
1AE
  3
LAYERNOTIFY
350
1AF
  3
LIGHTINGUNITS
350
6320
  3
MSLTSCALE
350
631F
  3
PSOLHEIGHT
350
6372
  3
PSOLWIDTH
350
6371
  3
SORTENTS
350
6321
  3
XCLIPFRAME
350
6373
  0
XRECORD
  5
6376
102
{ACAD_REACTORS
330
C
102
}
330
C
100
AcDbXrecord
280
     1
  1
DWGPROPS COOKIE
  2

  3

  4

  6

  7

  8
tronnguyen
  9

300
=
301
=
302
=
303
=
304
=
305
=
306
=
307
=
308
=
309
=
 40
0.0037731481481481
 41
2460367.705740741
 42
2460367.713935185
  1

 90
        0
  0
DICTIONARY
  5
200
102
{ACAD_REACTORS
330
1FF
102
}
330
1FF
100
AcDbDictionary
281
     1
  0
XRECORD
  5
62CD
102
{ACAD_REACTORS
330
1CE
102
}
330
1CE
100
AcDbXrecord
280
     1
340
1F
  0
XRECORD
  5
62D6
102
{ACAD_REACTORS
330
6278
102
}
330
6278
100
AcDbXrecord
280
     1
340
D2
  0
XRECORD
  5
62D9
102
{ACAD_REACTORS
330
627A
102
}
330
627A
100
AcDbXrecord
280
     1
340
D6
  0
ACDBDETAILVIEWSTYLE
  5
21C
102
{ACAD_XDICTIONARY
360
63B5
102
}
102
{ACAD_REACTORS
330
21B
102
}
330
21B
100
AcDbModelDocViewStyle
 70
     0
  3
Metric50
290
     0
100
AcDbDetailViewStyle
 70
     0
 71
     0
 90
        3
 71
     1
340
11
 40
5.0
340
0
 40
5.0
300

 40
0.0
280
     1
 71
     2
340
16
 90
       25
 71
     3
340
11
 40
5.0
 90
        0
 40
15.0
 90
        1
300
%<\AcVar ViewDetailId>% (%<\AcVar ViewScale \f "%sn">%)
 71
     4
340
16
 90
       25
340
16
 90
       25
280
     0
  0
LAYOUT
  5
D3
102
{ACAD_XDICTIONARY
360
637A
102
}
102
{ACAD_REACTORS
330
1A
102
}
330
1A
100
AcDbPlotSettings
  1

  2
C:\Documents and Settings\basas\Application Data\Autodesk\AutoCAD 2005\R16.1\enu\plotters\Default Windows System Printer.pc3
  4

  6

 40
0.0
 41
0.0
 42
0.0
 43
0.0
 44
0.0
 45
0.0
 46
0.0
 47
0.0
 48
0.0
 49
0.0
140
0.0
141
0.0
142
1.0
143
1.0
 70
   688
 72
     0
 73
     0
 74
     5
  7

 75
    16
147
1.0
148
0.0
149
0.0
100
AcDbLayout
  1
Layout1
 70
     1
 71
     1
 10
0.0
 20
0.0
 11
12.0
 21
9.0
 12
0.0
 22
0.0
 32
0.0
 14
0.0
 24
0.0
 34
0.0
 15
0.0
 25
0.0
 35
0.0
146
0.0
 13
0.0
 23
0.0
 33
0.0
 16
1.0
 26
0.0
 36
0.0
 17
0.0
 27
1.0
 37
0.0
 76
     0
330
D2
  0
LAYOUT
  5
D7
102
{ACAD_XDICTIONARY
360
637C
102
}
102
{ACAD_REACTORS
330
1A
102
}
330
1A
100
AcDbPlotSettings
  1

  2
C:\Documents and Settings\basas\Application Data\Autodesk\AutoCAD 2005\R16.1\enu\plotters\Default Windows System Printer.pc3
  4

  6

 40
0.0
 41
0.0
 42
0.0
 43
0.0
 44
0.0
 45
0.0
 46
0.0
 47
0.0
 48
0.0
 49
0.0
140
0.0
141
0.0
142
1.0
143
1.0
 70
   688
 72
     0
 73
     0
 74
     5
  7

 75
    16
147
1.0
148
0.0
149
0.0
100
AcDbLayout
  1
Layout2
 70
     1
 71
     2
 10
0.0
 20
0.0
 11
12.0
 21
9.0
 12
0.0
 22
0.0
 32
0.0
 14
0.0
 24
0.0
 34
0.0
 15
0.0
 25
0.0
 35
0.0
146
0.0
 13
0.0
 23
0.0
 33
0.0
 16
1.0
 26
0.0
 36
0.0
 17
0.0
 27
1.0
 37
0.0
 76
     0
330
D6
  0
LAYOUT
  5
22
102
{ACAD_XDICTIONARY
360
6377
102
}
102
{ACAD_REACTORS
330
1A
102
}
330
1A
100
AcDbPlotSettings
  1

  2
none_device
  4
ISO_A4_(210.00_x_297.00_MM)
  6

 40
7.5
 41
20.0
 42
7.5
 43
20.0
 44
210.0
 45
297.0
 46
11.54999923706054
 47
-13.65000009536743
 48
0.0
 49
0.0
140
0.0
141
0.0
142
1.0
143
8.704084754739808
 70
 11952
 72
     1
 73
     0
 74
     0
  7

 75
     0
147
0.1148885871608098
148
0.0
149
0.0
100
AcDbLayout
  1
Model
 70
     1
 71
     0
 10
0.0
 20
0.0
 11
12.0
 21
9.0
 12
0.0
 22
0.0
 32
0.0
 14
0.0
 24
0.0
 34
0.0
 15
0.0
 25
0.0
 35
0.0
146
0.0
 13
0.0
 23
0.0
 33
0.0
 16
1.0
 26
0.0
 36
0.0
 17
0.0
 27
1.0
 37
0.0
 76
     0
330
1F
331
EA
1001
ACAD_PSEXT
1000
None
1000
None
1000
Not applicable
1000
The layout will not be plotted unless a new plotter configuration name is selected.
1070
     0
  0
MATERIAL
  5
ED
102
{ACAD_XDICTIONARY
360
1F9
102
}
102
{ACAD_REACTORS
330
6A
102
}
330
6A
100
AcDbMaterial
  1
ByBlock
  0
MATERIAL
  5
EC
102
{ACAD_XDICTIONARY
360
1F7
102
}
102
{ACAD_REACTORS
330
6A
102
}
330
6A
100
AcDbMaterial
  1
ByLayer
  0
MATERIAL
  5
EE
102
{ACAD_XDICTIONARY
360
173
102
}
102
{ACAD_REACTORS
330
6A
102
}
330
6A
100
AcDbMaterial
  1
Global
 43
0.0007999999797903
 43
0.0
 43
0.0
 43
0.0
 43
0.0
 43
0.0007999999797903
 43
0.0
 43
0.0
 43
0.0
 43
0.0
 43
1.0
 43
0.0
 43
0.0
 43
0.0
 43
0.0
 43
1.0
 49
0.0007999999797903
 49
0.0
 49
0.0
 49
0.0
 49
0.0
 49
0.0007999999797903
 49
0.0
 49
0.0
 49
0.0
 49
0.0
 49
1.0
 49
0.0
 49
0.0
 49
0.0
 49
0.0
 49
1.0
142
0.0007999999797903
142
0.0
142
0.0
142
0.0
142
0.0
142
0.0007999999797903
142
0.0
142
0.0
142
0.0
142
0.0
142
1.0
142
0.0
142
0.0
142
0.0
142
0.0
142
1.0
144
0.0007999999797903
144
0.0
144
0.0
144
0.0
144
0.0
144
0.0007999999797903
144
0.0
144
0.0
144
0.0
144
0.0
144
1.0
144
0.0
144
0.0
144
0.0
144
0.0
144
1.0
1001
ACAD
1070
    -1
1070
     3
1070
     0
1000

1071
        0
1070
     0
  0
MLEADERSTYLE
  5
12E
102
{ACAD_XDICTIONARY
360
63A1
102
}
102
{ACAD_REACTORS
330
12D
102
}
330
12D
100
AcDbMLeaderStyle
170
     2
171
     1
172
     0
 90
        2
 40
0.0
 41
0.0
173
     1
 91
-1056964608
340
14
 92
       -2
290
     1
 42
2.0
291
     1
 43
8.0
  3
Standard
 44
4.0
300

342
11
174
     1
178
     1
175
     1
176
     0
 93
-1056964608
 45
4.0
292
     0
297
     0
 46
4.0
 94
-1056964608
 47
1.0
 49
1.0
140
1.0
293
     1
141
0.0
294
     1
177
     0
142
1.0
295
     0
296
     0
143
3.75
1001
ACAD_MLEADERVER
1070
     2
  0
MLINESTYLE
  5
18
102
{ACAD_REACTORS
330
17
102
}
330
17
100
AcDbMlineStyle
  2
STANDARD
 70
     0
  3

 62
   256
 51
90.0
 52
90.0
 71
     2
 49
0.5
 62
   256
  6
BYLAYER
 49
-0.5
 62
   256
  6
BYLAYER
  0
ACDBPLACEHOLDER
  5
F
102
{ACAD_REACTORS
330
E
102
}
330
E
  0
SCALE
  5
10D
102
{ACAD_REACTORS
330
10C
102
}
330
10C
100
AcDbScale
 70
     0
300
1:1
140
1.0
141
1.0
290
     1
  0
SCALE
  5
1BE
102
{ACAD_REACTORS
330
10C
102
}
330
10C
100
AcDbScale
 70
     0
300
1:2
140
1.0
141
2.0
290
     0
  0
SCALE
  5
1BF
102
{ACAD_REACTORS
330
10C
102
}
330
10C
100
AcDbScale
 70
     0
300
1:4
140
1.0
141
4.0
290
     0
  0
SCALE
  5
1C0
102
{ACAD_REACTORS
330
10C
102
}
330
10C
100
AcDbScale
 70
     0
300
1:5
140
1.0
141
5.0
290
     0
  0
SCALE
  5
1C1
102
{ACAD_REACTORS
330
10C
102
}
330
10C
100
AcDbScale
 70
     0
300
1:8
140
1.0
141
8.0
290
     0
  0
SCALE
  5
1C2
102
{ACAD_REACTORS
330
10C
102
}
330
10C
100
AcDbScale
 70
     0
300
1:10
140
1.0
141
10.0
290
     0
  0
SCALE
  5
1C3
102
{ACAD_REACTORS
330
10C
102
}
330
10C
100
AcDbScale
 70
     0
300
1:16
140
1.0
141
16.0
290
     0
  0
SCALE
  5
1C4
102
{ACAD_REACTORS
330
10C
102
}
330
10C
100
AcDbScale
 70
     0
300
1:20
140
1.0
141
20.0
290
     0
  0
SCALE
  5
1C5
102
{ACAD_REACTORS
330
10C
102
}
330
10C
100
AcDbScale
 70
     0
300
1:30
140
1.0
141
30.0
290
     0
  0
SCALE
  5
1C6
102
{ACAD_REACTORS
330
10C
102
}
330
10C
100
AcDbScale
 70
     0
300
1:40
140
1.0
141
40.0
290
     0
  0
SCALE
  5
1C7
102
{ACAD_REACTORS
330
10C
102
}
330
10C
100
AcDbScale
 70
     0
300
1:50
140
1.0
141
50.0
290
     0
  0
SCALE
  5
1C8
102
{ACAD_REACTORS
330
10C
102
}
330
10C
100
AcDbScale
 70
     0
300
1:100
140
1.0
141
100.0
290
     0
  0
SCALE
  5
1C9
102
{ACAD_REACTORS
330
10C
102
}
330
10C
100
AcDbScale
 70
     0
300
2:1
140
2.0
141
1.0
290
     0
  0
SCALE
  5
1CA
102
{ACAD_REACTORS
330
10C
102
}
330
10C
100
AcDbScale
 70
     0
300
4:1
140
4.0
141
1.0
290
     0
  0
SCALE
  5
1CB
102
{ACAD_REACTORS
330
10C
102
}
330
10C
100
AcDbScale
 70
     0
300
8:1
140
8.0
141
1.0
290
     0
  0
SCALE
  5
1CC
102
{ACAD_REACTORS
330
10C
102
}
330
10C
100
AcDbScale
 70
     0
300
10:1
140
10.0
141
1.0
290
     0
  0
SCALE
  5
1CD
102
{ACAD_REACTORS
330
10C
102
}
330
10C
100
AcDbScale
 70
     0
300
100:1
140
100.0
141
1.0
290
     0
  0
ACDBSECTIONVIEWSTYLE
  5
21A
102
{ACAD_XDICTIONARY
360
63B3
102
}
102
{ACAD_REACTORS
330
219
102
}
330
219
100
AcDbModelDocViewStyle
 70
     0
  3
Metric50
290
     0
100
AcDbSectionViewStyle
 70
     0
 71
     0
 90
      102
 71
     1
340
11
 40
5.0
340
0
340
0
 40
5.0
300
I, O, Q, S, X, Z
 40
10.0
 90
        0
 40
2.5
 90
        0
 71
     2
340
16
 90
       25
340
16
 90
       50
 40
5.0
 40
2.5
 40
5.0
 71
     3
340
11
 40
5.0
 90
        0
 40
15.0
 90
        1
300
%<\AcVar ViewSectionStartId>%-%<\AcVar ViewSectionEndId>% (%<\AcVar ViewScale \f "%sn">%)
 71
     4
300
ANSI31
 40
1.0
 90
        0
290
     0
290
     0
 90
        6
 40
0.0
 40
1.570796326794896
 40
0.2617993877991494
 40
1.308996938995747
 40
-0.2617993877991494
 40
1.832595714594046
  0
TABLESTYLE
  5
7F
102
{ACAD_XDICTIONARY
360
162
102
}
102
{ACAD_REACTORS
330
7E
102
}
330
7E
100
AcDbTableStyle
  3
Standard
 70
     0
 71
     0
 40
1.5
 41
1.5
280
     0
281
     0
  7
Standard
140
4.5
170
     2
 62
     0
 63
     7
283
     0
274
    -2
284
     1
 64
     0
275
    -2
285
     1
 65
     0
276
    -2
286
     1
 66
     0
277
    -2
287
     1
 67
     0
278
    -2
288
     1
 68
     0
279
    -2
289
     1
 69
     0
  7
Standard
140
6.0
170
     5
 62
     0
 63
     7
283
     0
274
    -2
284
     1
 64
     0
275
    -2
285
     1
 65
     0
276
    -2
286
     1
 66
     0
277
    -2
287
     1
 67
     0
278
    -2
288
     1
 68
     0
279
    -2
289
     1
 69
     0
  7
Standard
140
4.5
170
     5
 62
     0
 63
     7
283
     0
274
    -2
284
     1
 64
     0
275
    -2
285
     1
 65
     0
276
    -2
286
     1
 66
     0
277
    -2
287
     1
 67
     0
278
    -2
288
     1
 68
     0
279
    -2
289
     1
 69
     0
  0
VISUALSTYLE
  5
F5
102
{ACAD_XDICTIONARY
360
638B
102
}
102
{ACAD_REACTORS
330
EF
102
}
330
EF
100
AcDbVisualStyle
  2
2dWireframe
 70
     4
 71
     0
 72
     2
 73
     1
 90
        0
 40
-0.6
 41
-30.0
 62
     5
 63
     7
 74
     1
 91
        4
 64
     7
 65
   257
 75
     1
175
     1
 42
1.0
 92
        0
 66
   257
 43
1.0
 76
     1
 77
     6
 78
     2
 67
     7
 79
     5
170
     0
171
     0
290
     0
174
     0
 93
        1
 44
0.0
173
     0
291
     0
 45
0.0
1001
ACAD
1000
AcDbSavedByObjectVersion
1070
     0
  0
VISUALSTYLE
  5
F4
102
{ACAD_XDICTIONARY
360
6389
102
}
102
{ACAD_REACTORS
330
EF
102
}
330
EF
100
AcDbVisualStyle
  2
Basic
 70
     7
 71
     1
 72
     0
 73
     1
 90
        0
 40
-0.6
 41
-30.0
 62
     5
 63
     7
 74
     0
 91
        4
 64
     7
 65
   257
 75
     1
175
     1
 42
1.0
 92
        8
 66
     7
 43
1.0
 76
     1
 77
     6
 78
     2
 67
     7
 79
     5
170
     0
171
     0
290
     0
174
     0
 93
        1
 44
0.0
173
     0
291
     1
 45
0.0
1001
ACAD
1000
AcDbSavedByObjectVersion
1070
     0
  0
VISUALSTYLE
  5
FB
102
{ACAD_XDICTIONARY
360
6397
102
}
102
{ACAD_REACTORS
330
EF
102
}
330
EF
100
AcDbVisualStyle
  2
Brighten
 70
    12
 71
     2
 72
     2
 73
     1
 90
        0
 40
-0.6
 41
-30.0
 62
     5
 63
     7
 74
     1
 91
        4
 64
     7
 65
   257
 75
     1
175
     1
 42
1.0
 92
        8
 66
     7
 43
1.0
 76
     1
 77
     6
 78
     2
 67
     7
 79
     5
170
     0
171
     0
290
     0
174
     0
 93
        1
 44
50.0
173
     0
291
     1
 45
0.0
1001
ACAD
1000
AcDbSavedByObjectVersion
1070
     0
  0
VISUALSTYLE
  5
FF
102
{ACAD_XDICTIONARY
360
639F
102
}
102
{ACAD_REACTORS
330
EF
102
}
330
EF
100
AcDbVisualStyle
  2
ColorChange
 70
    16
 71
     2
 72
     2
 73
     3
 90
        0
 40
-0.6
 41
-30.0
 62
     5
 63
     8
 74
     1
 91
        4
 64
     7
 65
   257
 75
     1
175
     1
 42
1.0
 92
        8
 66
     8
 43
1.0
 76
     1
 77
     6
 78
     2
 67
     7
 79
     5
170
     0
171
     0
290
     0
174
     0
 93
        1
 44
0.0
173
     0
291
     1
 45
0.0
1001
ACAD
1000
AcDbSavedByObjectVersion
1070
     0
  0
VISUALSTYLE
  5
F8
102
{ACAD_XDICTIONARY
360
6391
102
}
102
{ACAD_REACTORS
330
EF
102
}
330
EF
100
AcDbVisualStyle
  2
Conceptual
 70
     9
 71
     3
 72
     2
 73
     1
 90
        0
 40
-0.6
 41
-30.0
 62
     5
 63
     7
 74
     2
 91
        2
 64
     7
 65
   257
 75
     1
175
     1
 42
40.0
 92
        8
 66
     7
 43
1.0
 76
     1
 77
     6
 78
     2
 67
     7
 79
     3
170
     0
171
     0
290
     0
174
     0
 93
        1
 44
0.0
173
     0
291
     0
 45
0.0
1001
ACAD
1000
AcDbSavedByObjectVersion
1070
     0
  0
VISUALSTYLE
  5
FA
102
{ACAD_XDICTIONARY
360
6395
102
}
102
{ACAD_REACTORS
330
EF
102
}
330
EF
100
AcDbVisualStyle
  2
Dim
 70
    11
 71
     2
 72
     2
 73
     1
 90
        0
 40
-0.6
 41
-30.0
 62
     5
 63
     7
 74
     1
 91
        4
 64
     7
 65
   257
 75
     1
175
     1
 42
1.0
 92
        8
 66
     7
 43
1.0
 76
     1
 77
     6
 78
     2
 67
     7
 79
     5
170
     0
171
     0
290
     0
174
     0
 93
        1
 44
-50.0
173
     0
291
     1
 45
0.0
1001
ACAD
1000
AcDbSavedByObjectVersion
1070
     0
  0
VISUALSTYLE
  5
1E6
102
{ACAD_XDICTIONARY
360
63A7
102
}
102
{ACAD_REACTORS
330
EF
102
}
330
EF
100
AcDbVisualStyle
  2
EdgeColorOff
 70
    22
 71
     2
 72
     2
 73
     0
 90
        0
 40
-0.6
 41
-30.0
 62
     5
 63
     7
 74
     1
 91
        4
 64
     7
 65
   257
 75
     1
175
     1
 42
1.0
 92
        8
 66
     7
 43
1.0
 76
     1
 77
     6
 78
     2
 67
     7
 79
     5
170
     0
171
     0
290
     0
174
     0
 93
        1
 44
0.0
173
     0
291
     1
 45
0.0
1001
ACAD
1000
AcDbSavedByObjectVersion
1070
     0
  0
VISUALSTYLE
  5
FE
102
{ACAD_XDICTIONARY
360
639D
102
}
102
{ACAD_REACTORS
330
EF
102
}
330
EF
100
AcDbVisualStyle
  2
Facepattern
 70
    15
 71
     2
 72
     2
 73
     1
 90
        0
 40
-0.6
 41
-30.0
 62
     5
 63
     7
 74
     1
 91
        4
 64
     7
 65
   257
 75
     1
175
     1
 42
1.0
 92
        8
 66
     7
 43
1.0
 76
     1
 77
     6
 78
     2
 67
     7
 79
     5
170
     0
171
     0
290
     0
174
     0
 93
        1
 44
0.0
173
     0
291
     1
 45
0.0
1001
ACAD
1000
AcDbSavedByObjectVersion
1070
     0
  0
VISUALSTYLE
  5
F0
102
{ACAD_XDICTIONARY
360
6381
102
}
102
{ACAD_REACTORS
330
EF
102
}
330
EF
100
AcDbVisualStyle
  2
Flat
 70
     0
 71
     2
 72
     1
 73
     1
 90
        2
 40
-0.6
 41
30.0
 62
     5
 63
     7
 74
     0
 91
        0
 64
     7
 65
   257
 75
     1
175
     1
 42
1.0
 92
        8
 66
     7
 43
1.0
 76
     1
 77
     6
 78
     2
 67
     7
 79
     5
170
     0
171
     0
290
     0
174
     0
 93
       13
 44
0.0
173
     0
291
     1
 45
0.0
1001
ACAD
1000
AcDbSavedByObjectVersion
1070
     0
  0
VISUALSTYLE
  5
F1
102
{ACAD_XDICTIONARY
360
6383
102
}
102
{ACAD_REACTORS
330
EF
102
}
330
EF
100
AcDbVisualStyle
  2
FlatWithEdges
 70
     1
 71
     2
 72
     1
 73
     1
 90
        2
 40
-0.6
 41
30.0
 62
     5
 63
     7
 74
     1
 91
        0
 64
     7
 65
   257
 75
     1
175
     1
 42
1.0
 92
        0
 66
   257
 43
1.0
 76
     1
 77
     6
 78
     2
 67
     7
 79
     5
170
     0
171
     0
290
     0
174
     0
 93
       13
 44
0.0
173
     0
291
     1
 45
0.0
1001
ACAD
1000
AcDbSavedByObjectVersion
1070
     0
  0
VISUALSTYLE
  5
F2
102
{ACAD_XDICTIONARY
360
6385
102
}
102
{ACAD_REACTORS
330
EF
102
}
330
EF
100
AcDbVisualStyle
  2
Gouraud
 70
     2
 71
     2
 72
     2
 73
     1
 90
        2
 40
-0.6
 41
30.0
 62
     5
 63
     7
 74
     0
 91
        0
 64
     7
 65
   257
 75
     1
175
     1
 42
1.0
 92
        0
 66
     7
 43
1.0
 76
     1
 77
     6
 78
     2
 67
     7
 79
     5
170
     0
171
     0
290
     0
174
     0
 93
       13
 44
0.0
173
     0
291
     1
 45
0.0
1001
ACAD
1000
AcDbSavedByObjectVersion
1070
     0
  0
VISUALSTYLE
  5
F3
102
{ACAD_XDICTIONARY
360
6387
102
}
102
{ACAD_REACTORS
330
EF
102
}
330
EF
100
AcDbVisualStyle
  2
GouraudWithEdges
 70
     3
 71
     2
 72
     2
 73
     1
 90
        2
 40
-0.6
 41
30.0
 62
     5
 63
     7
 74
     1
 91
        0
 64
     7
 65
   257
 75
     1
175
     1
 42
1.0
 92
        0
 66
   257
 43
1.0
 76
     1
 77
     6
 78
     2
 67
     7
 79
     5
170
     0
171
     0
290
     0
174
     0
 93
       13
 44
0.0
173
     0
291
     1
 45
0.0
1001
ACAD
1000
AcDbSavedByObjectVersion
1070
     0
  0
VISUALSTYLE
  5
F7
102
{ACAD_XDICTIONARY
360
638F
102
}
102
{ACAD_REACTORS
330
EF
102
}
330
EF
100
AcDbVisualStyle
  2
Hidden
 70
     6
 71
     1
 72
     2
 73
     2
 90
        0
 40
-0.6
 41
-30.0
 62
     5
 63
     7
 74
     2
 91
        2
 64
     7
 65
   257
 75
     2
175
     1
 42
40.0
 92
        0
 66
   257
 43
1.0
 76
     1
 77
     6
 78
     2
 67
     7
 79
     3
170
     0
171
     0
290
     0
174
     0
 93
        1
 44
0.0
173
     0
291
     0
 45
0.0
1001
ACAD
1000
AcDbSavedByObjectVersion
1070
     0
  0
VISUALSTYLE
  5
1E4
102
{ACAD_XDICTIONARY
360
63A3
102
}
102
{ACAD_REACTORS
330
EF
102
}
330
EF
100
AcDbVisualStyle
  2
JitterOff
 70
    20
 71
     2
 72
     2
 73
     0
 90
        0
 40
-0.6
 41
-30.0
 62
     5
 63
     7
 74
     1
 91
        4
 64
     7
 65
   257
 75
     1
175
     1
 42
1.0
 92
       10
 66
     7
 43
1.0
 76
     1
 77
     6
 78
     2
 67
     7
 79
     5
170
     0
171
     0
290
     0
174
     0
 93
        1
 44
0.0
173
     0
291
     1
 45
0.0
1001
ACAD
1000
AcDbSavedByObjectVersion
1070
     0
  0
VISUALSTYLE
  5
FD
102
{ACAD_XDICTIONARY
360
639B
102
}
102
{ACAD_REACTORS
330
EF
102
}
330
EF
100
AcDbVisualStyle
  2
Linepattern
 70
    14
 71
     2
 72
     2
 73
     1
 90
        0
 40
-0.6
 41
-30.0
 62
     5
 63
     7
 74
     1
 91
        4
 64
     7
 65
   257
 75
     7
175
     7
 42
1.0
 92
        8
 66
     7
 43
1.0
 76
     1
 77
     6
 78
     2
 67
     7
 79
     5
170
     0
171
     0
290
     0
174
     0
 93
        1
 44
0.0
173
     0
291
     1
 45
0.0
1001
ACAD
1000
AcDbSavedByObjectVersion
1070
     0
  0
VISUALSTYLE
  5
1E5
102
{ACAD_XDICTIONARY
360
63A5
102
}
102
{ACAD_REACTORS
330
EF
102
}
330
EF
100
AcDbVisualStyle
  2
OverhangOff
 70
    21
 71
     2
 72
     2
 73
     0
 90
        0
 40
-0.6
 41
-30.0
 62
     5
 63
     7
 74
     1
 91
        4
 64
     7
 65
   257
 75
     1
175
     1
 42
1.0
 92
        9
 66
     7
 43
1.0
 76
     1
 77
     6
 78
     2
 67
     7
 79
     5
170
     0
171
     0
290
     0
174
     0
 93
        1
 44
0.0
173
     0
291
     1
 45
0.0
1001
ACAD
1000
AcDbSavedByObjectVersion
1070
     0
  0
VISUALSTYLE
  5
F9
102
{ACAD_XDICTIONARY
360
6393
102
}
102
{ACAD_REACTORS
330
EF
102
}
330
EF
100
AcDbVisualStyle
  2
Realistic
 70
     8
 71
     2
 72
     2
 73
     0
 90
        2
 40
-0.6
 41
30.0
 62
     5
 63
     7
 74
     0
 91
        0
 64
     7
 65
   257
 75
     1
175
     1
 42
1.0
 92
        8
 66
   257
 43
1.0
 76
     1
 77
     6
 78
     2
 67
     7
 79
     3
170
     0
171
     0
290
     0
174
     0
 93
       13
 44
0.0
173
     0
291
     0
 45
0.0
1001
ACAD
1000
AcDbSavedByObjectVersion
1070
     0
  0
VISUALSTYLE
  5
1F3
102
{ACAD_XDICTIONARY
360
63B1
102
}
102
{ACAD_REACTORS
330
EF
102
}
330
EF
100
AcDbVisualStyle
  2
Shaded
 70
    27
 71
     2
 72
     2
 73
     1
 90
        2
 40
-0.6
 41
30.0
 62
     5
 63
     7
 74
     0
 91
        4
 64
     7
 65
   257
 75
     1
175
     1
 42
1.0
 92
        8
 66
   257
 43
1.0
 76
     1
 77
     6
 78
     2
 67
     8
 79
     3
170
     0
171
     0
290
     0
174
     0
 93
        5
 44
0.0
173
     0
291
     0
 45
0.0
1001
ACAD
1000
AcDbSavedByObjectVersion
1070
     0
  0
VISUALSTYLE
  5
1F2
102
{ACAD_XDICTIONARY
360
63AF
102
}
102
{ACAD_REACTORS
330
EF
102
}
330
EF
100
AcDbVisualStyle
  2
Shaded with edges
 70
    26
 71
     2
 72
     2
 73
     1
 90
        2
 40
-0.6
 41
30.0
 62
     5
 63
     7
 74
     1
 91
        2
 64
     7
 65
   257
 75
     2
175
     1
 42
1.0
 92
        8
 66
   257
 43
1.0
 76
     1
 77
     6
 78
     2
 67
     7
 79
     3
170
     0
171
     0
290
     0
174
     0
 93
        5
 44
0.0
173
     0
291
     0
 45
0.0
1001
ACAD
1000
AcDbSavedByObjectVersion
1070
     0
  0
VISUALSTYLE
  5
1EF
102
{ACAD_XDICTIONARY
360
63A9
102
}
102
{ACAD_REACTORS
330
EF
102
}
330
EF
100
AcDbVisualStyle
  2
Shades of Gray
 70
    23
 71
     2
 72
     2
 73
     3
 90
        0
 40
-0.6
 41
-30.0
 62
     5
 63
     7
 74
     2
 91
        2
 64
     7
 65
     7
 75
     1
175
     1
 42
40.0
 92
        8
 66
     7
 43
1.0
 76
     1
 77
     6
 78
     2
 67
     7
 79
     3
170
     0
171
     0
290
     0
174
     0
 93
        1
 44
0.0
173
     0
291
     0
 45
0.0
1001
ACAD
1000
AcDbSavedByObjectVersion
1070
     0
  0
VISUALSTYLE
  5
1F0
102
{ACAD_XDICTIONARY
360
63AB
102
}
102
{ACAD_REACTORS
330
EF
102
}
330
EF
100
AcDbVisualStyle
  2
Sketchy
 70
    24
 71
     1
 72
     2
 73
     2
 90
        0
 40
-0.6
 41
-30.0
 62
     5
 63
     7
 74
     2
 91
        2
 64
     7
 65
     7
 75
     1
175
     1
 42
40.0
 92
       11
 66
     7
 43
1.0
 76
     1
 77
     6
 78
     2
 67
     7
 79
     6
170
     0
171
     0
290
     0
174
     0
 93
        1
 44
0.0
173
     0
291
     0
 45
0.0
1001
ACAD
1000
AcDbSavedByObjectVersion
1070
     0
  0
VISUALSTYLE
  5
FC
102
{ACAD_XDICTIONARY
360
6399
102
}
102
{ACAD_REACTORS
330
EF
102
}
330
EF
100
AcDbVisualStyle
  2
Thicken
 70
    13
 71
     2
 72
     2
 73
     1
 90
        0
 40
-0.6
 41
-30.0
 62
     5
 63
     7
 74
     1
 91
        4
 64
     7
 65
   257
 75
     1
175
     1
 42
1.0
 92
       12
 66
     7
 43
1.0
 76
     1
 77
     6
 78
     2
 67
     7
 79
     5
170
     0
171
     0
290
     0
174
     0
 93
        1
 44
0.0
173
     0
291
     1
 45
0.0
1001
ACAD
1000
AcDbSavedByObjectVersion
1070
     0
  0
VISUALSTYLE
  5
F6
102
{ACAD_XDICTIONARY
360
638D
102
}
102
{ACAD_REACTORS
330
EF
102
}
330
EF
100
AcDbVisualStyle
  2
Wireframe
 70
     5
 71
     0
 72
     2
 73
     0
 90
        0
 40
-0.6
 41
-30.0
 62
     5
 63
     7
 74
     1
 91
        4
 64
     7
 65
   257
 75
     1
175
     1
 42
1.0
 92
        0
 66
   257
 43
1.0
 76
     1
 77
     6
 78
     2
 67
     7
 79
     3
170
     0
171
     0
290
     0
174
     0
 93
        1
 44
0.0
173
     0
291
     0
 45
0.0
1001
ACAD
1000
AcDbSavedByObjectVersion
1070
     0
  0
VISUALSTYLE
  5
1F1
102
{ACAD_XDICTIONARY
360
63AD
102
}
102
{ACAD_REACTORS
330
EF
102
}
330
EF
100
AcDbVisualStyle
  2
X-Ray
 70
    25
 71
     2
 72
     2
 73
     1
 90
        1
 40
0.5
 41
-30.0
 62
     5
 63
     7
 74
     1
 91
        0
 64
     7
 65
   257
 75
     1
175
     1
 42
1.0
 92
        8
 66
     7
 43
1.0
 76
     1
 77
     6
 78
     2
 67
     7
 79
     3
170
     0
171
     0
290
     0
174
     0
 93
       13
 44
0.0
173
     0
291
     0
 45
0.0
1001
ACAD
1000
AcDbSavedByObjectVersion
1070
     0
  0
DICTIONARYVAR
  5
146
102
{ACAD_REACTORS
330
5E
102
}
330
5E
100
DictionaryVariables
280
     0
  1
1:1
  0
DICTIONARYVAR
  5
259
102
{ACAD_REACTORS
330
5E
102
}
330
5E
100
DictionaryVariables
280
     0
  1
3.500000
  0
DICTIONARYVAR
  5
25A
102
{ACAD_REACTORS
330
5E
102
}
330
5E
100
DictionaryVariables
280
     0
  1
acadiso.lin
  0
DICTIONARYVAR
  5
145
102
{ACAD_REACTORS
330
5E
102
}
330
5E
100
DictionaryVariables
280
     0
  1
STANDARD
  0
DICTIONARYVAR
  5
84
102
{ACAD_REACTORS
330
5E
102
}
330
5E
100
DictionaryVariables
280
     0
  1
STANDARD
  0
DICTIONARYVAR
  5
227
102
{ACAD_REACTORS
330
5E
102
}
330
5E
100
DictionaryVariables
280
     0
  1
Metric50
  0
DICTIONARYVAR
  5
228
102
{ACAD_REACTORS
330
5E
102
}
330
5E
100
DictionaryVariables
280
     0
  1
Metric50
  0
DICTIONARYVAR
  5
5F
102
{ACAD_REACTORS
330
5E
102
}
330
5E
100
DictionaryVariables
280
     0
  1
2
  0
DICTIONARYVAR
  5
63
102
{ACAD_REACTORS
330
5E
102
}
330
5E
100
DictionaryVariables
280
     0
  1
1
  0
DICTIONARYVAR
  5
6322
102
{ACAD_REACTORS
330
5E
102
}
330
5E
100
DictionaryVariables
280
     0
  1
0
  0
DICTIONARYVAR
  5
1AE
102
{ACAD_REACTORS
330
5E
102
}
330
5E
100
DictionaryVariables
280
     0
  1
0
  0
DICTIONARYVAR
  5
1AF
102
{ACAD_REACTORS
330
5E
102
}
330
5E
100
DictionaryVariables
280
     0
  1
0
  0
DICTIONARYVAR
  5
6320
102
{ACAD_REACTORS
330
5E
102
}
330
5E
100
DictionaryVariables
280
     0
  1
2
  0
DICTIONARYVAR
  5
631F
102
{ACAD_REACTORS
330
5E
102
}
330
5E
100
DictionaryVariables
280
     0
  1
1
  0
DICTIONARYVAR
  5
6372
102
{ACAD_REACTORS
330
5E
102
}
330
5E
100
DictionaryVariables
280
     0
  1
80.000000
  0
DICTIONARYVAR
  5
6371
102
{ACAD_REACTORS
330
5E
102
}
330
5E
100
DictionaryVariables
280
     0
  1
5.000000
  0
DICTIONARYVAR
  5
6321
102
{ACAD_REACTORS
330
5E
102
}
330
5E
100
DictionaryVariables
280
     0
  1
127
  0
DICTIONARYVAR
  5
6373
102
{ACAD_REACTORS
330
5E
102
}
330
5E
100
DictionaryVariables
280
     0
  1
2
  0
DICTIONARY
  5
63B5
330
21C
100
AcDbDictionary
280
     1
281
     1
  3
ACAD_XREC_ROUNDTRIP
360
63B6
  0
DICTIONARY
  5
637A
330
D3
100
AcDbDictionary
280
     1
281
     1
  3
ACAD_XREC_ROUNDTRIP
360
637B
  0
DICTIONARY
  5
637C
330
D7
100
AcDbDictionary
280
     1
281
     1
  3
ACAD_XREC_ROUNDTRIP
360
637D
  0
DICTIONARY
  5
6377
330
22
100
AcDbDictionary
280
     1
281
     1
  3
ACAD_XREC_ROUNDTRIP
360
6378
  0
DICTIONARY
  5
1F9
330
ED
100
AcDbDictionary
280
     1
281
     1
  3
ACAD_XREC_ROUNDTRIP
360
637F
  3
FBXASSET
360
1FA
  0
DICTIONARY
  5
1F7
330
EC
100
AcDbDictionary
280
     1
281
     1
  3
ACAD_XREC_ROUNDTRIP
360
637E
  3
FBXASSET
360
1F8
  0
DICTIONARY
  5
173
330
EE
100
AcDbDictionary
280
     1
281
     1
  3
ACAD_XREC_ROUNDTRIP
360
6380
  3
BUMPTILE
360
175
  3
DIFFUSETILE
360
174
  3
FBXASSET
360
1FB
  3
OPACITYTILE
360
176
  3
REFLECTIONTILE
360
177
  0
DICTIONARY
  5
63A1
330
12E
100
AcDbDictionary
280
     1
281
     1
  3
ACAD_XREC_ROUNDTRIP
360
63A2
  0
DICTIONARY
  5
63B3
330
21A
100
AcDbDictionary
280
     1
281
     1
  3
ACAD_XREC_ROUNDTRIP
360
63B4
  0
DICTIONARY
  5
162
330
7F
100
AcDbDictionary
280
     1
281
     1
  3
ACAD_ROUNDTRIP_2008_TABLESTYLE_CELLSTYLEMAP
360
6374
  3
ACAD_XREC_ROUNDTRIP
360
6379
  0
DICTIONARY
  5
638B
330
F5
100
AcDbDictionary
280
     1
281
     1
  3
ACAD_XREC_ROUNDTRIP
360
638C
  0
DICTIONARY
  5
6389
330
F4
100
AcDbDictionary
280
     1
281
     1
  3
ACAD_XREC_ROUNDTRIP
360
638A
  0
DICTIONARY
  5
6397
330
FB
100
AcDbDictionary
280
     1
281
     1
  3
ACAD_XREC_ROUNDTRIP
360
6398
  0
DICTIONARY
  5
639F
330
FF
100
AcDbDictionary
280
     1
281
     1
  3
ACAD_XREC_ROUNDTRIP
360
63A0
  0
DICTIONARY
  5
6391
330
F8
100
AcDbDictionary
280
     1
281
     1
  3
ACAD_XREC_ROUNDTRIP
360
6392
  0
DICTIONARY
  5
6395
330
FA
100
AcDbDictionary
280
     1
281
     1
  3
ACAD_XREC_ROUNDTRIP
360
6396
  0
DICTIONARY
  5
63A7
330
1E6
100
AcDbDictionary
280
     1
281
     1
  3
ACAD_XREC_ROUNDTRIP
360
63A8
  0
DICTIONARY
  5
639D
330
FE
100
AcDbDictionary
280
     1
281
     1
  3
ACAD_XREC_ROUNDTRIP
360
639E
  0
DICTIONARY
  5
6381
330
F0
100
AcDbDictionary
280
     1
281
     1
  3
ACAD_XREC_ROUNDTRIP
360
6382
  0
DICTIONARY
  5
6383
330
F1
100
AcDbDictionary
280
     1
281
     1
  3
ACAD_XREC_ROUNDTRIP
360
6384
  0
DICTIONARY
  5
6385
330
F2
100
AcDbDictionary
280
     1
281
     1
  3
ACAD_XREC_ROUNDTRIP
360
6386
  0
DICTIONARY
  5
6387
330
F3
100
AcDbDictionary
280
     1
281
     1
  3
ACAD_XREC_ROUNDTRIP
360
6388
  0
DICTIONARY
  5
638F
330
F7
100
AcDbDictionary
280
     1
281
     1
  3
ACAD_XREC_ROUNDTRIP
360
6390
  0
DICTIONARY
  5
63A3
330
1E4
100
AcDbDictionary
280
     1
281
     1
  3
ACAD_XREC_ROUNDTRIP
360
63A4
  0
DICTIONARY
  5
639B
330
FD
100
AcDbDictionary
280
     1
281
     1
  3
ACAD_XREC_ROUNDTRIP
360
639C
  0
DICTIONARY
  5
63A5
330
1E5
100
AcDbDictionary
280
     1
281
     1
  3
ACAD_XREC_ROUNDTRIP
360
63A6
  0
DICTIONARY
  5
6393
330
F9
100
AcDbDictionary
280
     1
281
     1
  3
ACAD_XREC_ROUNDTRIP
360
6394
  0
DICTIONARY
  5
63B1
330
1F3
100
AcDbDictionary
280
     1
281
     1
  3
ACAD_XREC_ROUNDTRIP
360
63B2
  0
DICTIONARY
  5
63AF
330
1F2
100
AcDbDictionary
280
     1
281
     1
  3
ACAD_XREC_ROUNDTRIP
360
63B0
  0
DICTIONARY
  5
63A9
330
1EF
100
AcDbDictionary
280
     1
281
     1
  3
ACAD_XREC_ROUNDTRIP
360
63AA
  0
DICTIONARY
  5
63AB
330
1F0
100
AcDbDictionary
280
     1
281
     1
  3
ACAD_XREC_ROUNDTRIP
360
63AC
  0
DICTIONARY
  5
6399
330
FC
100
AcDbDictionary
280
     1
281
     1
  3
ACAD_XREC_ROUNDTRIP
360
639A
  0
DICTIONARY
  5
638D
330
F6
100
AcDbDictionary
280
     1
281
     1
  3
ACAD_XREC_ROUNDTRIP
360
638E
  0
DICTIONARY
  5
63AD
330
1F1
100
AcDbDictionary
280
     1
281
     1
  3
ACAD_XREC_ROUNDTRIP
360
63AE
  0
XRECORD
  5
63B6
102
{ACAD_REACTORS
330
63B5
102
}
330
63B5
100
AcDbXrecord
280
     1
102
DISPLAYNAME
  1
Metric50
102
FLAGS
 90
        0
  0
XRECORD
  5
637B
102
{ACAD_REACTORS
330
637A
102
}
330
637A
100
AcDbXrecord
280
     1
102
SHADEPLOT
 70
     0
102
SHADEPLOTRESLEVEL
 70
     2
102
SHADEPLOTCUSTOMDPI
 70
   300
  0
XRECORD
  5
637D
102
{ACAD_REACTORS
330
637C
102
}
330
637C
100
AcDbXrecord
280
     1
102
SHADEPLOT
 70
     0
102
SHADEPLOTRESLEVEL
 70
     2
102
SHADEPLOTCUSTOMDPI
 70
   300
  0
XRECORD
  5
6378
102
{ACAD_REACTORS
330
6377
102
}
330
6377
100
AcDbXrecord
280
     1
102
SHADEPLOT
 70
     0
102
SHADEPLOTRESLEVEL
 70
     2
102
SHADEPLOTCUSTOMDPI
 70
   300
  0
XRECORD
  5
637F
102
{ACAD_REACTORS
330
1F9
102
}
330
1F9
100
AcDbXrecord
280
     1
102
MATERIAL
148
0.0
149
0.0
149
0.0
 93
        0
 94
       63
282
     0
 72
     1
 77
     1
171
     1
175
     1
179
     1
273
     0
  0
XRECORD
  5
1FA
102
{ACAD_REACTORS
330
1F9
102
}
330
1F9
100
AcDbXrecord
280
     1
 70
     1
 90
429727718
  1
D62C5603-E3A1-4AEA-B7FB-FE5D8D0755AF
310
504B03040A0000080000CC70623B3DEE336E79000000790000001B0000006175746F6465736B2D64657369676E2D7061636B6167652E786D6C3C3F786D6C2076657273696F6E3D22312E302220656E636F64696E673D227574662D3822203F3E3C666F726D6174733E3C666F726D61743E687474703A2F2F736368656D612E
310
6175746F6465736B2E636F6D2F64657369676E2D7061636B6167652F323030393C2F666F726D61743E3C2F666F726D6174733E504B0304140006080800CC70623BD486FD9CA0000000F4000000130000005B436F6E74656E745F54797065735D2E786D6C7D8EC10E82300C865F65E91D8A1E8C310C0EEA1BF002731658846E
310
D98AC1B77784ABF1D8FE5FBFBF75BBCE937A534CCEB38643598122B6FEE978D0B0485F9C41B54DDD7D022595594E1A469170414C76A4D9A4D207E29CF43ECE46F218070CC6BECC4078ACAA135ACF422C856C0E68EA1BF5669944DDD7BCDE7B1F8E415D77AECB980613C2E4AC91FC167A2B244592486606FC29C8FD7F045B9A
310
EF7053A7E60B504B0304140006080800CC70623B853B8169EB0000007C01000008000000636F72652E786D6C8D90416EC3201045AF62CDB6C206821CC7C244919D9CA01740401C94182C03558F5F9C3852BBEB6A467FFE9B197D7EFC9E1EC5975982F5AE035262288C535E5B377690E21535501C055FBC8FBF6C503839990E
310
5619041F179FE64D52DE45E362569DD7661365082642A11EB9E920A89B99642953CC8E702F67A9EE7234257977194EC9EAE275C4EABCCF5EAD5940D4AC6F0E35A568B8F43562CD7046CD199FD07E60174276A7BE677B5EADB0E0D14EEFFB6A31321A0D82627C4084204C3F096B71DD52F6819B16635EADF63F509AF53FA164
310
5DDCD1EDDD17164090FCC8732078B56691CB33A85CD7DCC40F504B0304140006080800CC70623B55019EA25F0000007C00000007000000636E782E786D6C4DCB3B0E80201045D1AD90E915ED2CF8AC45050C11660C8261F98AB1B07AC9C97D42D718D865D3E909258CFD00CCE24AC6E326A164D74DC0B4128928FF32603847
310
2BA13128B1252AC747C6BAB984FC68F0B87FE8960A5C09FE86CFB69FBA01504B0304140006080800CC70623BDBABAAF470010000D40300000C0000006662782F636F72652E786D6CC553D16E823014FD95A6AF4B694182CC941A83FA05FB810A9511A125A5257EFE2E82712ECEB8A7F100CD39F7F69E734AF9FADC366850B6
310
AF8DCE7018308C942E4C59EB2AC3DE1D498AD15A706B8CFB56869196ADCAF00863C12B6B7C374385D14E6907A836A59A41D9F7CA615434B0C8705F7CAA5606D23BA8E84F41278B93AC54100640439DE0BDB320004D43C63716C7C399D30917DCFBBA9CD9BA8469F5B156168B24CED3F7248AC8769F27244EB73B92EED8862C
310
B7F13E0C179B3C8F979C8ECD82BBBABDAA2BAC924E9558448CBD9330242CFA08E3154B5651FCC6D215639C8EE5774DBE2B5F6CF2B5768B68963BB5F5588420E442FC700B1139D4CB01F450C1E918227C2E09DF070D8140C84E1E9AAB8F1340832A9CB13130A5F1376A908D57309505ECF2A0DF179C4E9D30F5B239B87E3823
310
7A79C6F31DE1A8A5AEC08474B03C7837EAE4938639B44E5932B833D2C6B6B279CDC613877FA26EE21F4A2A4C63EC7F29A2F301D1F9F7A0E37D145F504B0304140006080800CC70623B9C113CC27E0000009D0000000B0000006662782F636E782E786D6C4DCCDF0A83201C86E15B91DFB94BFB330DD428C8FB886521330DA7
310
6397BF1A1DECE883878F57749FCDA1B7892F1BBC047A23808C7F84D9FA55424E0BE6803A256208E9EF06C84F9B91703228B1C690F78B66B34CD9A5439DF5CF0BFBF65E35BCA1B8D6A5C6F540381E886698B5741C695F9503EBA150A2F8958E3DC3EA0B504B0304140006080800CC70623B7DF2F77C2A010000120200003100
310
00006662782F41393633353835312D344632462D344230382D423046372D3739314545314133324237412F636F72652E786D6C8D51DB8EC22014FC15C2939B0D2DB4B45643319AE817EC0F6041255A68B86CFCFC856D4D76DF7CE190393373060EDB3DC707F856CE6B6B7A480A0C81328395DA5C7B18C3057510EC3873D686
310
3F34088C18550F330C39BB3A1BA7051AAC09CA84841A2BD5020AEF55806078A44B0FFD7053A328440C89E1EFC52486BBB8AA8214A99D789CF9E05200300FC927E4FB4D5B375D43103D5527440FB843077C5AA3F5861C8F645F5787F59E95B390B318B55CE45AA638FAA2957BD7248B390B7A7CC51F9C124149C82B8C378810
310
84AB2F42B7B8DD56F413775B8C5999E9FF4471926F8AA236A1AE96B8B3CC434E5839373893369E1FAF30EA395917409EB7F26AF8801C171837A4A6AC9C89E9F9C9B1A58BA30FD6A5EF5DDDCF894B9AD9B6A59C957943A9FCAE2FD5BC4DFE03504B0304140006080800CC70623BAD7543B64E01000033030000300000006662
310
782F41393633353835312D344632462D344230382D423046372D3739314545314133324237412F636E782E786D6CD593CD6EC32010845F0571AD6CE3D48AD20813A9873E410FBD12D82434182C7EAAE6EDBB2424CD25871E7B41D6EC30B3FA84F9E67BB2E40B4234DE8DB46F1925E094D7C6ED479AD3AE5951B2113C789FEE
310
6C943839C1488B4C05DF079FE72A69D8C96C13AAD6B8631503449F83828872B949AC57D26200B826A308D316B4064D6E46FCDA41C05550DC9E483A00797BFD207EFB092A45DE9514C1BBD22178396BD39D891265658C238DEA00936C654E5E433CB65A26D9F6EDB5EBC14EBF49A45CB856E66048291F6939A9A81BB5C89177
310
38143CA680F4AA299D66A042CEB3354A2684DC9D8D178FE0D9B8B41CAAD720F880EE7EF93C0C18769E099ECC04D5A102C8049A8A05632F4DDF376CF1DE0F6BB65C2F8627B65A33C6BB62177CEBBDAD973006829F89F22E814B54F4BC2BE347F8AA8F681390B50FA73F804400B5F542E796F19FF974E7F78DB802FE05E20750
310
4B0304140006080800CC70623BE75B7789680500003C100000340000006662782F41393633353835312D344632462D344230382D423046372D3739314545314133324237412F6F626A656374732E786D6CAD575B8F9B3818FD2B887D06C22499CB8AA1CA655245D5B455A356FB305264C061D8018C6C3393D95FBFC7600890
310
A4CD5EF210B0B1BFEBF98E3F7B1FF6596ABC522E1296DF9BAE3D320D9A872C4AF2F8DE2CE5CEBA358D0FBEC719939D65A691938CDE9B6ADAF4BD98B3B2D05311DD91329583D9D5FC0F438434A7A611A644887B5384CF34233629258BA878B12322891DEFF6B66BD70BFB62634E8AE781D082709A4B588AF91C528CDA28B73F
310
1C998EEF39EABBEFA97FBD6A7C7E9553F9D3D79FE442923C3C523610337627CB87ABE99D359D4CC6D6E4FACAB5E6ABF9D2726FC6A3C5F56271377BB88362213924694B38DD99FE47C48627A1E7D49F5A8BB5E1A74C0A599ED3B0F21F1E56366B89112D681E218F0915D0D6F17AD41FBA2A369DCF6335D62ABBD39779D5DDD1
310
11D4D8DE3CBB96B2E04FB8202E41051754A1AA8E8F76B4C6DFE810B580B1547F4B84911149794252234D024EF8BBE963A95AE27B3D310A9D5C215C7960FAEE415ED75694C6AFB17BCACA5D99A60A9AA65F217B0BFC53292ACB92BF283FAD0D3621576592CB5BED907C2FA8E9DF794E35E97BEA31BED21FEB401ABB94C44839
310
DCACBF0E1C5DA8DA5B2F4DFFD32AD86F543D9E565E7056502E157C00AD2671CD534549AB752FCA9CDA00677A313F04E51B22FF19E57B300579E3C97EB29F682D92935CEC18CF901B7B54FD8C51F362B56FC72FE0B3C1EAE335EDCCBF5AEC39ADB17DC238973F804BA5E6F6BFE7AF1FB32E523BE9F3BD571418E3631DCA4D48
310
5250CF639223210A9446CA30052EDF057BD35F8329C1ECD84552BF0DC8D18BE7BCE23BFE6BD960AB4A7DE79923A103BEBD80F911CBAA2C60DB19B01CF164A5583B772EE6D3FFA56666CBCDA74DC97724A48F9A58967497E489C4D979006FD7A05E227A1EBDD0F737C623387A9C844D3709995625106D157315F8B8392CD4E0
310
A0B9A720C4BE9829CEF37EA1E13111214D53925356365ADA634861B52519DD27A00AEB808EAF0628E6F435519D446F45CF2C9CF5214F0A15B2F6D06B79DA3EE3CBF7F56780D2F4E7EF73A0F5E5B02A38D07DC852C6B7C1FBB6664213E0C39E3EBA7FF4E1AD23EA2829407C85E586727488B751B2DB9502BC7B228A3FD68B6E
310
A65A22397E690AA8D158D7E404EC8CDA235CC3B7D1898680131CEC2CDF2638C65196279577750F15884AEE19F94199155B92B13297978469D4F8D358DF0AEF7631E28DC8F0D9F437D5D39A83B2231A1D52D543813A824EF8D44BCFF2FA6A31BD1E8DAD87F1CCB526B3879935BF59CDADD5C37479BB1CDD4CA7B3556B516589
310
EF352754B706114D9C885EC9131DE6EFEB43D99AFE2391C2F958179413D7CFEF6B1B6DB1E7600F00DE6E5C67454A339A4BA2E0FBA85ED26F045D454F463DBFCE484C2F90F2E5E3666003662ED8F755951A7D1BECD5B30B550B2785C8E7320B7292A4838DDA71BBC863ED7613CAF659337A3354231D4FF4A182A54904C2898C
310
98B28C4AD0CE056CCF332A80986E571EE9DBC305BB5FEB7E509220A58D25CF042D712A806AC0AD0C657FDEF80D2D9CEAA2EE4D1C76F60BFE74219A06527D6F82DF6412526107381E55E353090704D085B52408A8913C4ED159D79BDA71BB4BC506F4831350EB6F975CD22D69BF7AC49B91A2C0A9DDA3D5CA36AD20FC478E37
310
E61844E2352865EBCB61A275A65283CAAA9DD27703B4102F5AF51EF5F573B75CBB5AD38BC845F7A49F82A0966A49C2E3EA5EA0ECD326CD965F1DB402C6FA8B51A4658C5C5E2EC9E214602E55810345408596591009A82E7E7FFACA19EEA299B14A0081A705CB3296EBC14CDF658DCD336EA6D1136881AAEB87B81AB9EE53D5
310
F5EB8BC8362082DA24122F98680A4E7930C01A0079749CEA14382A0783E5EBA5A10F8C098456A03D6A4AEB6BB881E2513747552A5DB22C7EDAF83BD5528081A365F7FF06504B0304140006080000CC70623B000000000000000000000000350000006662782F41393633353835312D344632462D344230382D423046372D37
310
39314545314133324237412F76657274696365732E62696E504B0304140006080800CC70623BF270F1330600000004000000360000006662782F41393633353835312D344632462D344230382D423046372D3739314545314133324237412F747269616E676C65732E62696E636660600000504B0304140006080000CC7062
310
3B000000000000000000000000370000006662782F41393633353835312D344632462D344230382D423046372D3739314545314133324237412F617474726962757465732E62696E504B0304140006080800CC70623B08DA0BD19000000041010000360000006662782F41393633353835312D344632462D344230382D4230
310
46372D3739314545314133324237412F6469726563746F72792E786D6C858F410AC3201045AF22B36F53E9A60B35CBEEBAE80D244E44489C6234F4F835464A48035D0DF398FF9F8AF63D0E6CC63039F212F8F9020C7D47C6792B21C5FE7403D62A1188E2E60C98D7234A5830286103A55745067B9D86B8A3CF9C7F90C11DE6
310
07FB144396D7B6A82D282E9A152AD114D5EF2CB866EEE831B8EEA07A7BB5A8D7D61A2BAAEB7FD5F70921FF497D00504B0304140006080800CC70623BEDD1DC58FD000000A00100003B0000006662782F41393633353835312D344632462D344230382D423046372D3739314545314133324237412F7265736F75726365732F
310
636F72652E786D6C8D504B6E833010BD0A9A6D65B00922041947112427E8052C33A156828DFCA97AFC9A40A576D7CDCCE87D344F8F9FBFE667F689CE6B6B3A6039850C8DB2A336530731DC4903D95970676DF82583CCC8193B5861107C72362E3BA4AC096842428D1D7107A5F7182053CF7474E0D507CE32973124857FE48B
310
540F3961CEF244279DE03EB81420DB9EAC1384436FA353E879B1B182C7A8C75DA3C7F453DF353A1075D537A7BA6464B8F535A99AE14A9A2BBD90E350DD183B5CFABE3AF262350B1EF4FC9351399401471025A527C218A1E53BAB5A5AB765F5469B96525EACF23FA6B88CFF34456DC2A1DCE36E360F82A5202F42F062ED2BAD
310
579969AFDD8A6F504B010214000A0000080000CC70623B3DEE336E79000000790000001B00000000000000000000000000000000006175746F6465736B2D64657369676E2D7061636B6167652E786D6C504B01021400140006080800CC70623BD486FD9CA0000000F40000001300000000000000000000000000B20000005B
310
436F6E74656E745F54797065735D2E786D6C504B01021400140006080800CC70623B853B8169EB0000007C010000080000000000000000000000000083010000636F72652E786D6C504B01021400140006080800CC70623B55019EA25F0000007C000000070000000000000000000000000094020000636E782E786D6C504B
310
01021400140006080800CC70623BDBABAAF470010000D40300000C00000000000000000000000000180300006662782F636F72652E786D6C504B01021400140006080800CC70623B9C113CC27E0000009D0000000B00000000000000000000000000B20400006662782F636E782E786D6C504B01021400140006080800CC70
310
623B7DF2F77C2A010000120200003100000000000000000000000000590500006662782F41393633353835312D344632462D344230382D423046372D3739314545314133324237412F636F72652E786D6C504B01021400140006080800CC70623BAD7543B64E010000330300003000000000000000000000000000D2060000
310
6662782F41393633353835312D344632462D344230382D423046372D3739314545314133324237412F636E782E786D6C504B01021400140006080800CC70623BE75B7789680500003C10000034000000000000000000000000006E0800006662782F41393633353835312D344632462D344230382D423046372D3739314545
310
314133324237412F6F626A656374732E786D6C504B01021400140006080000CC70623B0000000000000000000000003500000000000000000000000000280E00006662782F41393633353835312D344632462D344230382D423046372D3739314545314133324237412F76657274696365732E62696E504B01021400140006
310
080800CC70623BF270F133060000000400000036000000000000000000000000007B0E00006662782F41393633353835312D344632462D344230382D423046372D3739314545314133324237412F747269616E676C65732E62696E504B01021400140006080000CC70623B0000000000000000000000003700000000000000
310
000000000000D50E00006662782F41393633353835312D344632462D344230382D423046372D3739314545314133324237412F617474726962757465732E62696E504B01021400140006080800CC70623B08DA0BD1900000004101000036000000000000000000000000002A0F00006662782F41393633353835312D344632
310
462D344230382D423046372D3739314545314133324237412F6469726563746F72792E786D6C504B01021400140006080800CC70623BEDD1DC58FD000000A00100003B000000000000000000000000000E1000006662782F41393633353835312D344632462D344230382D423046372D3739314545314133324237412F7265
310
736F75726365732F636F72652E786D6C504B0506000000000E000E0080040000641100000000
  0
XRECORD
  5
637E
102
{ACAD_REACTORS
330
1F7
102
}
330
1F7
100
AcDbXrecord
280
     1
102
MATERIAL
148
0.0
149
0.0
149
0.0
 93
        0
 94
       63
282
     0
 72
     1
 77
     1
171
     1
175
     1
179
     1
273
     0
  0
XRECORD
  5
1F8
102
{ACAD_REACTORS
330
1F7
102
}
330
1F7
100
AcDbXrecord
280
     1
 70
     1
 90
429727718
  1
30362254-06B7-45E0-A893-8CFA70E3D6BC
310
504B03040A0000080000CC70623B3DEE336E79000000790000001B0000006175746F6465736B2D64657369676E2D7061636B6167652E786D6C3C3F786D6C2076657273696F6E3D22312E302220656E636F64696E673D227574662D3822203F3E3C666F726D6174733E3C666F726D61743E687474703A2F2F736368656D612E
310
6175746F6465736B2E636F6D2F64657369676E2D7061636B6167652F323030393C2F666F726D61743E3C2F666F726D6174733E504B0304140006080800CC70623BD486FD9CA0000000F4000000130000005B436F6E74656E745F54797065735D2E786D6C7D8EC10E82300C865F65E91D8A1E8C310C0EEA1BF002731658846E
310
D98AC1B77784ABF1D8FE5FBFBF75BBCE937A534CCEB38643598122B6FEE978D0B0485F9C41B54DDD7D022595594E1A469170414C76A4D9A4D207E29CF43ECE46F218070CC6BECC4078ACAA135ACF422C856C0E68EA1BF5669944DDD7BCDE7B1F8E415D77AECB980613C2E4AC91FC167A2B244592486606FC29C8FD7F045B9A
310
EF7053A7E60B504B0304140006080800CC70623B1EC5D7A3EB0000007C01000008000000636F72652E786D6C8D90416EC3201045AF82665B6103C6756C6122AB4D4ED00B204C5C94182C03558F5F9C3852BBEB6A467FFE9B197D71FC9E6FE8CBACC17AD7032D0820E3B41FAD9B7A48F1820F808E52ACDEC75F36404ECDA687
310
4D0629A6D5A76597B477D1B89855E747B38B2A041301E95B6E7A08FAD3CCAA50296647B8168BD2573599823EBB0CA76447F43862C7BCCF5EAC59410E4DDD9C7973C2755553CCCFA4C603E3040F1565ED3B1FDE4E432BCA0D9622DAF9795FAF464533826484B498524CD807E51D79ED187F21878E10516EF63F505AC67F42C9
310
BA58B1FDDD071640D2FCC87D2045B96591CB3DA85CB7DCE40F504B0304140006080800CC70623B55019EA25F0000007C00000007000000636E782E786D6C4DCB3B0E80201045D1AD90E915ED2CF8AC45050C11660C8261F98AB1B07AC9C97D42D718D865D3E909258CFD00CCE24AC6E326A164D74DC0B4128928FF32603847
310
2BA13128B1252AC747C6BAB984FC68F0B87FE8960A5C09FE86CFB69FBA01504B0304140006080800CC70623B8C9102E971010000D40300000C0000006662782F636F72652E786D6CC5535B6E833010BC8AE5DF0A6C08340F1947A84D4ED00B38C6A128602363A31CBFCB234A53A551FA553EC09AD9F5CE8C31DB9E9B1AF5CA
310
7695D1198E428A91D2D214952E33ECDD315861B4E5CC1AE3BE9561A445A3323CC098B3D21ADFCE9034DA29ED00D5A6503328BA4E398C640D8B0C77F253352214DE4145770A5B214FA2546114020D759C75CE8200340D19DE981F0F6746269C33EFAB6266AB02A655C74A59CCF365BADC27CB5D902ED22848F6340DF238A141
310
BE88E2F57B92BFEDF23523433367AE6A2EEAA455C2A902F398D2751045018D3FA264435F3771F242571B4A1919CA6F9A7C5B3CD9E42BED16F12C776AEB308F40C848FC700B1139D4891EF410CEC810227CC6846F8386402064270EF5C5C709A05E49676C024C61FC95EA45ED154CA5211D1FF4FB8291A913A68E9B83EBBB33
310
E2A7673CDE118E5AE8124C0807CB8377834E366998436B950D7A7746DAD846D4CFD978E0F04FD455FC5D49D2D4C6FE9722321F10997F0F32DC47FE05504B0304140006080800CC70623BFFEA85907E0000009D0000000B0000006662782F636E782E786D6C4DCCD10A83201886E15B91FFDC95D95A811AB6F23E625948A6C3
310
E9D8E5AF46073BFAE0E1E365ED67B3E8ADC3CB78C7815C7240DA3DFC64DCC221C519D7805AC182F7F1EF06C88D9BE6703008B6049F9E274D7A1E938DBB5AE3D6131B2589BA0D3D965551E0B2EA732C9B9A624AAEB41E3A557677029960D9AFB4EF11165F504B0304140006080800CC70623B4FEEA4082C0100001202000031
310
0000006662782F39464131463745442D413632322D343644302D413938332D3331353338454246344243312F636F72652E786D6C8D515B6EC32010BC0AE2AB55850DD871ED0813254D72825EC00192A2C460F1A872FC42ED48ED5F7E00CDCECCCEB26C731F6FE05B39AFADE921293004CA082BB5B9F43086336A21D870E6AC
310
0D7F68109861543DCC30E4ECE26C9C164858139409093556AA051CBC570102714B8F1E7AF1A5C6A11862480C7F2DA6415C878B2A4891CA89C7990F2E050073937C42DE1DB7E4F87ED8A36D4329AA9B3D46DBAEAD504556557BD81DEBDD0761E52CE42C462D17B996298E3E6BE59E35C962CE821E1FF18553435012728A7187
310
0841987E927A8D9B35ADDF70BBC6989599FE4F1427F9A4286A132ABAC49D651EF234CD5CE04CDA78BA3DC2A8FB645D00B9DF8B57E215725C60BCA2A463E54C4CE327C7A65E1C7DB02E7DEFCBF594B864C5CA6CDBD49C957943E9FA5D5FBAF336F90F504B0304140006080800CC70623BAD7543B64E01000033030000300000
310
006662782F39464131463745442D413632322D343644302D413938332D3331353338454246344243312F636E782E786D6CD593CD6EC32010845F0571AD6CE3D48AD20813A9873E410FBD12D82434182C7EAAE6EDBB2424CD25871E7B41D6EC30B3FA84F9E67BB2E40B4234DE8DB46F1925E094D7C6ED479AD3AE5951B2113C
310
789FEE6C943839C1488B4C05DF079FE72A69D8C96C13AAD6B8631503449F83828872B949AC57D26200B826A308D316B4064D6E46FCDA41C05550DC9E483A00797BFD207EFB092A45DE9514C1BBD22178396BD39D891265658C238DEA00936C654E5E433CB65A26D9F6EDB5EBC14EBF49A45CB856E66048291F6939A9A81BB5
310
C8917738143CA680F4AA299D66A042CEB3354A2684DC9D8D178FE0D9B8B41CAAD720F880EE7EF93C0C18769E099ECC04D5A102C8049A8A05632F4DDF376CF1DE0F6BB65C2F8627B65A33C6BB62177CEBBDAD973006829F89F22E814B54F4BC2BE347F8AA8F681390B50FA73F804400B5F542E796F19FF974E7F78DB802FE05
310
E207504B0304140006080800CC70623B16AB87BA640500003C100000340000006662782F39464131463745442D413632322D343644302D413938332D3331353338454246344243312F6F626A656374732E786D6CAD575B6FA33818FD2B887DE6924B3BED8A326A92B68A663B534DD4D13E548A0C38942D60649B369D5FBFC7
310
600890A493BDE42160637FD7F31D7FF63E6FB3D478A55C242CBF3247B66B1A340F5994E4F19559CA8D75611A9F7D8F33263BCB4C232719BD32D5B4E97B316765A1A722BA21652A07B3B7B33F0D11D29C9A46981221AE4C113ED38CD8A4942CA2E2C58E882476BCD9DA23BB5ED8171B73523C0F841684D35CC252CCE79062D4
310
468DFA43D7747CCF51DF7D4FFDEB5593E3AB9CCA9FBEFE241792E4E19EB28198C968BAB8199F5D5A67D3E9C49A9E8F47D6EC76B6B0469F26EEFC7C3EBFBCBEB98462213924694B38DD98FE1D62C393D073EA4FADC5DAF04326852CCF6958F90F0F2B9BB5C48816348F90C7840A68EB78EDF68723159BCEE7891A6B95DDE9D3
310
BCEAEEE8086A6C6F9E5D4B59F0175C10A7A0820BAA5055C7473B5AE3CFDD452D602CD5DF12616444529E90D448938013FE6EFA58AA96F85E4F8C42275708571E98FE6827AF6B2B4AE3D7D83D64E5A64C53054DD3AF90BD06FEA9149565C94FCA0F6B834DC85599E4F2423B24DF0B6AFA979E534DFA9E7A4CC6FA631D486393
310
921829879BF5D781A373557BCB85E97FB90DB62B558F8795179C15944B051F40AB495CF35451D26A4727654E6D8033BD98EF82F21D91FF8AF2DD9982BCF1643BDD4EB516C9492E368C67C88DED563FC36D5EACF66DFF057C3658BDBFA69DF9578B3DA735B64F18C7F20770A9D45CFCF7FCF563D6456A277DBEF78A02637CA2
310
43B90A490AEAB94F72244481D24819A6C0E59B606BFA4B3025981DBB48EAB701D97BF19C577CC77F2D1B6C55A9EF3C732474C0B727303F625995056C3B02963D9EAC146BE78EC5FCEC7FA999EBC5EACBAAE41B12D27B4D2C0BBA49F244E2ECDC81B76B502F113D8F5EE8FB1BE3111CDD4FC2AA9B844CAB1288B68AB90A7CDC
310
1C166AB0D3DC5310625FCC14E779BFD0709F8890A629C9292B1B2DED31A4B0DA928CEE135085754027E3018A397D4D5427D15BD1330B677DC8934285AC3DF45A9EB68FF8F2B8FC0A509AFEECFD0FF2DE25CC6047F7214B195F07EFEB9A094D800F7BFAE8FED187B78EA8A3A400F115961BCAD1215E47C966530AF0EE8128FE
310
58CEBB996A8964FFA529A046635D9353B0336A8F700DDF46271A024E70B0B37C9DE01847591E54DED53D54202AB947E4076556AC49C6CA5C9E1226B7F1A7B1BE15DEED62C41B91E1B3E9AFAAA735036547343A925075041DF0A9979E893B391F8FCFA6967B3EFB644DCF6E5CEBFAE272625DCC6FAF3FB93793C5F90CE1EF57
310
407342756B10D1C489E8953CD1617E5CEECAD6F4EF8914CE5D5D504E5C3F1F9736DA62CFC11E00BCDDB8CC8A9466349744C1F75EBDA4DF09BA8A9E8C7A7E9991989E20E5DBDD6A6003664ED8F7A04A8DBE0DF6EAD9B9AA858342E47399053949D2C146EDB85DE4B176BB0965FBAC19BD19AA918E27FA50C1D22402E144464C
310
59462568E704B6E71915404CB72B8FF4EDE184DDAF753F284990D2C6926782963815403548A70C657FDEF80D2D9CEAA2AE4C1C76F60BFE74219A06527D6582DF6412526107381E55E353090704D085B52408D0933C4ED159D79BDA71BB4BC506F4831350EB6F979CD22D69BF7AC49B91A2C0A9DDA3D5CA36AD20FC478E37E6
310
1844E2352865EBCB6EA275A652E3836BE04EFB400BF1A2556F515F1FBB35B2AB35BD889C744FFA1004B5544B121E57F70215746DD2F5E2C1412B602CBF19455AC6C8E5E9922C4E01E65215385004546899059180EAFCF7A707CE7017CD8CDB0410789AB32C63B91E5CEBBBACB17AC6CD347A022D5075FD106377347AAABA7E
310
7D11590744509B44E205134DC1290F06580320F78E537D3D73540E06CB970B431F185308AD40BBD794D6D77003C5A36E8EAA54BA64597CD8F83BD552A080A365F7FF06504B0304140006080000CC70623B000000000000000000000000350000006662782F39464131463745442D413632322D343644302D413938332D3331
310
353338454246344243312F76657274696365732E62696E504B0304140006080800CC70623BF270F1330600000004000000360000006662782F39464131463745442D413632322D343644302D413938332D3331353338454246344243312F747269616E676C65732E62696E636660600000504B0304140006080000CC70623B
310
000000000000000000000000370000006662782F39464131463745442D413632322D343644302D413938332D3331353338454246344243312F617474726962757465732E62696E504B0304140006080800CC70623B08DA0BD19000000041010000360000006662782F39464131463745442D413632322D343644302D413938
310
332D3331353338454246344243312F6469726563746F72792E786D6C858F410AC3201045AF22B36F53E9A60B35CBEEBAE80D244E44489C6234F4F835464A48035D0DF398FF9F8AF63D0E6CC63039F212F8F9020C7D47C6792B21C5FE7403D62A1188E2E60C98D7234A5830286103A55745067B9D86B8A3CF9C7F90C11DE607
310
FB144396D7B6A82D282E9A152AD114D5EF2CB866EEE831B8EEA07A7BB5A8D7D61A2BAAEB7FD5F70921FF497D00504B0304140006080800CC70623B0D6EF93BFE000000A00100003B0000006662782F39464131463745442D413632322D343644302D413938332D3331353338454246344243312F7265736F75726365732F63
310
6F72652E786D6C8D50596E833010BD0A9ADFCA60B334011947A8694ED00B586642AC041B79A97AFC9A40A5F6AF3F33A3B7689E1E3F7DCD8FEC139DD7D6F4C0720A191A65476DA61E62B892236427C19DB5E1970C322367EC618541F0C9D9B8EC90B226A009093576C41D94DE63804C3DD2D18357379C652E63480A7FCF17A9
310
EE72C29CE5894E3AC17D702940B63D59270887DE46A7D0F36263058F518FBB468FE9A7BE6A7420864373B8D4873369AA8691FA421B3294352543C5CAF65C0F6FEF43CB8BD52C78D0F34F46E550061C419494B6843142CB0F5677F4B52BEB177AEC28E5C52AFF638ACBF84F53D42654E51E77B379102C05791282176B5F693D
310
CB4C7BED567C03504B010214000A0000080000CC70623B3DEE336E79000000790000001B00000000000000000000000000000000006175746F6465736B2D64657369676E2D7061636B6167652E786D6C504B01021400140006080800CC70623BD486FD9CA0000000F40000001300000000000000000000000000B20000005B
310
436F6E74656E745F54797065735D2E786D6C504B01021400140006080800CC70623B1EC5D7A3EB0000007C010000080000000000000000000000000083010000636F72652E786D6C504B01021400140006080800CC70623B55019EA25F0000007C000000070000000000000000000000000094020000636E782E786D6C504B
310
01021400140006080800CC70623B8C9102E971010000D40300000C00000000000000000000000000180300006662782F636F72652E786D6C504B01021400140006080800CC70623BFFEA85907E0000009D0000000B00000000000000000000000000B30400006662782F636E782E786D6C504B01021400140006080800CC70
310
623B4FEEA4082C0100001202000031000000000000000000000000005A0500006662782F39464131463745442D413632322D343644302D413938332D3331353338454246344243312F636F72652E786D6C504B01021400140006080800CC70623BAD7543B64E010000330300003000000000000000000000000000D5060000
310
6662782F39464131463745442D413632322D343644302D413938332D3331353338454246344243312F636E782E786D6C504B01021400140006080800CC70623B16AB87BA640500003C1000003400000000000000000000000000710800006662782F39464131463745442D413632322D343644302D413938332D3331353338
310
454246344243312F6F626A656374732E786D6C504B01021400140006080000CC70623B0000000000000000000000003500000000000000000000000000270E00006662782F39464131463745442D413632322D343644302D413938332D3331353338454246344243312F76657274696365732E62696E504B01021400140006
310
080800CC70623BF270F133060000000400000036000000000000000000000000007A0E00006662782F39464131463745442D413632322D343644302D413938332D3331353338454246344243312F747269616E676C65732E62696E504B01021400140006080000CC70623B0000000000000000000000003700000000000000
310
000000000000D40E00006662782F39464131463745442D413632322D343644302D413938332D3331353338454246344243312F617474726962757465732E62696E504B01021400140006080800CC70623B08DA0BD190000000410100003600000000000000000000000000290F00006662782F39464131463745442D413632
310
322D343644302D413938332D3331353338454246344243312F6469726563746F72792E786D6C504B01021400140006080800CC70623B0D6EF93BFE000000A00100003B000000000000000000000000000D1000006662782F39464131463745442D413632322D343644302D413938332D3331353338454246344243312F7265
310
736F75726365732F636F72652E786D6C504B0506000000000E000E0080040000641100000000
  0
XRECORD
  5
6380
102
{ACAD_REACTORS
330
173
102
}
330
173
100
AcDbXrecord
280
     1
102
MATERIAL
148
0.0
149
0.0
149
0.0
 93
        0
 94
       63
282
     0
 72
     1
 77
     1
171
     1
175
     1
179
     1
273
     0
  0
XRECORD
  5
175
102
{ACAD_REACTORS
330
173
102
}
330
173
100
AcDbXrecord
280
     1
270
     1
271
     1
  0
XRECORD
  5
174
102
{ACAD_REACTORS
330
173
102
}
330
173
100
AcDbXrecord
280
     1
270
     1
271
     1
  0
XRECORD
  5
1FB
102
{ACAD_REACTORS
330
173
102
}
330
173
100
AcDbXrecord
280
     1
 70
     0
 90
1673772943
  1
ECE7A1D2-D628-4531-984C-D00F80459256
310
504B03040A0000080000CC70623B3DEE336E79000000790000001B0000006175746F6465736B2D64657369676E2D7061636B6167652E786D6C3C3F786D6C2076657273696F6E3D22312E302220656E636F64696E673D227574662D3822203F3E3C666F726D6174733E3C666F726D61743E687474703A2F2F736368656D612E
310
6175746F6465736B2E636F6D2F64657369676E2D7061636B6167652F323030393C2F666F726D61743E3C2F666F726D6174733E504B0304140006080800CC70623BD486FD9CA0000000F4000000130000005B436F6E74656E745F54797065735D2E786D6C7D8EC10E82300C865F65E91D8A1E8C310C0EEA1BF002731658846E
310
D98AC1B77784ABF1D8FE5FBFBF75BBCE937A534CCEB38643598122B6FEE978D0B0485F9C41B54DDD7D022595594E1A469170414C76A4D9A4D207E29CF43ECE46F218070CC6BECC4078ACAA135ACF422C856C0E68EA1BF5669944DDD7BCDE7B1F8E415D77AECB980613C2E4AC91FC167A2B244592486606FC29C8FD7F045B9A
310
EF7053A7E60B504B0304140006080800CC70623BD9DDAED0EC0000007C01000008000000636F72652E786D6C8D90416EC3201045AF82665B61836D9CD8C2444DD39CA01740405C94182C03558F5F9C3852BBEB6A467FFE9B197D7EF89E6EE8CB2CC17A37002D0820E394D7D68D03A478C17B4007C117EFE32F1B20272733C0
310
2A83E0E3E2D3BC49CABB685CCCAAF3DA6CA20CC14440EA969B0182FA34932C648AD911AEC52CD5558EA6A0CF2EC329598D1E47ACCEFBECC59A050463A7EA5833865FEBDD0E37353BE3EE8DBDE3F6786A48D375FBF6CC78B9C282473B3DEFABC5C86834888A900E538A49F5419B9EB47DD5BC907D4F082F57FB1F28CDFA9F50
310
B22ED6D5F6EE030B20687EE43E10BC5CB3C8E51E54AE6B6EE207504B0304140006080800CC70623B55019EA25F0000007C00000007000000636E782E786D6C4DCB3B0E80201045D1AD90E915ED2CF8AC45050C11660C8261F98AB1B07AC9C97D42D718D865D3E909258CFD00CCE24AC6E326A164D74DC0B4128928FF326038
310
472BA13128B1252AC747C6BAB984FC68F0B87FE8960A5C09FE86CFB69FBA01504B0304140006080800CC70623BA24EB22D72010000D40300000C0000006662782F636F72652E786D6CC5535B6E833010BC8AE5DF0A6C5E49888CA3A6694ED00B38E05014B091B1518EDFE511A5A9D228FD2A1F60CDEC7A67C6986DCE4D8D7A
310
69BA4AAB0C073EC548AA5C17952A33ECECD15B61B4E1CC686DBF9561A44423333CC098B3D268D7CE50AE9595CA02AA74216750749DB418E5352C32DCE59FB211BE70162ABA93DF8AFC244AE9073ED050C759670D0840D390E18DF9F1706664C23973AE2A66B62A605A75ACA4C13C4976E1364A12EF355A2EBD384AF65EFA96
310
BC7B8BED2EA6719AAE16FB8491A199335B351775B991C2CA02F390D2D40B028F861F41BCA68B7518BFD0D59A524686F29B26D7164F36B94AD9289CE54E6D1DE6010819891F6E21228B3AD1831EC219194284CF98F06DD01008846CC5A1BEF83801D4CBDC6A1303536877A57A513B0953A94FC707FDBE6064EA84A9E3E6E0FA
310
EE8CF0E9198F7784A316AA0413C2C2F2E0ECA0934D1AE6D05A69BCDE9E91D2A611F573361E38FC1375157F5752AE6B6DFE4B11990F88CCBF0719EE23FF02504B0304140006080800CC70623B408A7D3B7C0000009D0000000B0000006662782F636E782E786D6C4DCCD10A83201886E15B91FFDC552A92A0064DBC8F581632
310
D3703A76F9ABD1C18E3E78F878E5F0D9027ABBFCF2292AE86E2D20171F69F6715550CB827B40839639A5F2770314A7CD293819B45C73AAFB45B35BA61ACAA1C1C7E7855C58C15BC331339661262CC762340413D68D77DA5B42298546CBE6573AF60CEB2F504B0304140006080800CC70623B449FB9BD290100001202000031
310
0000006662782F36394639363044362D344446342D343946362D394244322D3234314243333846323333332F636F72652E786D6C8D515B6EC32010BC0AE22B55850D98B871848994463E412FE002495162B07854397EA176A4F62F3F2C9A9D991D587EB84F37F0AD7D30CEF6905418026DA553C65E7A98E219ED203808EE9D
310
8B7F6810D871D23D2C3014FCE25D9A57483A1BB58D19B54EE9151C43D0110279CB971E06F9A5A7B11A53CC8C70ADE6515EC78BAE4895DB992778883E0700CB907242D17643D7E2538BD869608875438BBAE38922CAC8F1BDD90DB4691A5E2F42C153326A951B95E398B3D1FE599322163C9AE9115F7A3D46ADA0A018778810
310
84E907617BDCEE297BC5BB3DC6BC2EF47FA234AB2745C9D8D8D035EE220B50105E2F0DC1954B9FB747187D9F9D8FA0CCDB042D5FA0C015C65B42DF78BD10F3F3B363CB56C7109DCFDFBBB97E662ED92EB62D13BC2E1BCAE5777DB9966D8A1F504B0304140006080800CC70623BAD7543B64E01000033030000300000006662
310
782F36394639363044362D344446342D343946362D394244322D3234314243333846323333332F636E782E786D6CD593CD6EC32010845F0571AD6CE3D48AD20813A9873E410FBD12D82434182C7EAAE6EDBB2424CD25871E7B41D6EC30B3FA84F9E67BB2E40B4234DE8DB46F1925E094D7C6ED479AD3AE5951B2113C789FEE
310
6C943839C1488B4C05DF079FE72A69D8C96C13AAD6B8631503449F83828872B949AC57D26200B826A308D316B4064D6E46FCDA41C05550DC9E483A00797BFD207EFB092A45DE9514C1BBD22178396BD39D891265658C238DEA00936C654E5E433CB65A26D9F6EDB5EBC14EBF49A45CB856E66048291F6939A9A81BB5C89177
310
38143CA680F4AA299D66A042CEB3354A2684DC9D8D178FE0D9B8B41CAAD720F880EE7EF93C0C18769E099ECC04D5A102C8049A8A05632F4DDF376CF1DE0F6BB65C2F8627B65A33C6BB62177CEBBDAD973006829F89F22E814B54F4BC2BE347F8AA8F681390B50FA73F804400B5F542E796F19FF974E7F78DB802FE05E20750
310
4B0304140006080800CC70623B8D05915C650500003B100000340000006662782F36394639363044362D344446342D343946362D394244322D3234314243333846323333332F6F626A656374732E786D6CAD575B6FA33814FE2B887D06429276DA1565D4266D158D3A339A6846FB502932E050B66023DB74D2FDF5FB190C01
310
9276B2973C046C8ECFF53B17071F77456EBD502133CEAE6CDF9DD81665314F32965ED995DA3A17B6F5310C04E7AA47665B8C14F4CAD6DB7618A48257A5D94AE89654B91AEDDEDDFC61C998326A5B714EA4BCB265FC440BE2924AF184CA6737218AB8E976E7FA6E4338649B0A523E8D98964450A6A029F619B8588D52FE7039
310
B1BD30F0F4F730D0FF866AF6369557DB33949F31A9088B0F848DD8CCFCF9F2767A76E99CCDE733677E3EF59D9BBB9BA5E37F984D16E78BC5E5F5ED25044B25C0C96822E8D60EEFE11B91C581D77CEA34368A1F5329E68CD1B8B61F16D63A1B8E092D294B10C78C4A48EB593D192E7DED9BDEE7995E1B91FDEDD3ACEA9FE831
310
6A756F9F7D4D79F4274C90A7A04248AA51D5F8C718DAE06FB2F75AC4796EBE65D22A88A22223B995679120E2D50E41AA49C260C046A35368846B0BECD0DFF3EBEB8AD4F835768F69B9ADF25C43D30E6B646F807FAA64AD59F61715C7A54127C4AACA98BA3006A9D792DAE165E0D59B61A01FB3A9F9D838D2DAE62445C86166
310
F37564E842E7DE6A69879FEEA2DD5AE7E371E1A5E025154AC307D06A03D73EB5978C58FFA4C8E9033066E0F3BD53BEC1F39F91BE7B55103791EDE6BBB991A2046172CB4581D8B893FA674DDA17A77B3B7C413D1B511FD2743BFF8A38F03A658705E3ADF8015C3A3417FF3D7E439FF591DA0B5F18BC20C1B8981957AE6392A3
310
F43C640C01D1A0B4728E2DD4F26DB4B3C3152A252A3B4E913CEC1C72F012782FF88EFF8637AA552DBEF76408E8A8DE9E50F9E1CB3A2DA0DB1B6039A893B56063DC5B3E3FFB5F72E67AB9FEB4AEC496C4F4C1149625DD662C53E89D7BF0F6151A046260D1337DFDC94502430F83B0EE07A130A224BCAD7DAE1D9FB6CD422FF6
310
920702629C4BB9AE79C12F243C6432A6794E18E5552BA56B431AAB5D91317302B2B071E86C3A42B1A02F999E24061403B5D0EB639195DA655DD3EBEAB4FB862DDF579F014AD0E73C22F99E28DA57FB98E75C6CA2D74D53086D600F4786E0FE3144B771A8A7B900F03594DB8A633CBC49B2EDB69228BB479CF863B5E807AAAB
310
23872F6DFEB4129B949CA33823F58830E86D65621E10047D9DB34D862E8EAC3C2ABC2F7B2C40D67CDFE01F5545B92105AF983AC54D93D69E56FB8E797F88913F898A9FEC705D3F9D1B54EC8426FB500D40A03BD0119B06E1B95DDC7EB8F6975367793EBD70E66733DFB9BC982F9CE564727731999F5D4ECFCE3B8D6A4DC2A0
310
6D50FD148437D110834A64C6CDDF57FBACB5C307A2A477DFE4939736CFEF2B175371E0E10CF0DD1D5C15654E0BCA14D1E87DD02FF93782A162C0A3D95F1524A52770F972BF1EE9809D13CE7DD599467F8ECE9ADD85CE85A34CD45355448C64F9E8A031DC2D596ACC6E5DD93D9B82DE2EF5CAF81363A8E47996A0DE24564A79
310
4115AACE09C55E14540231FDA13C319787134EBF34E3A022514E5B4D9E0826E25C02D5805B15ABE1BEF51B26383D445DD9E875EE33FE4C22DA16427D65A3BCA92CA6D28DD01DF5DC53330704308475351050232CCD31583787BA75774AFB06E5070DD0C8EF484E19968C5D83BA5B90B244D31E54D55A372320FE4786B7EA58
310
44E135AA5467CB7EA333A61683CC6A8C3257034C10CF46F40EF9F5BE59BE5BD30C3C72D235E95D10345C1D45445A5F0BB47E46A5EBE5570F9380B5FA629579952296A773720405982B9DE04011506178964401AA8BDF1FBF0A8EAB6861DD6580C0E38217056766716DAEB2D6FA0917D3E4116581EADB879C4E7CFFB11EFACD
310
3D641311495D92C8676CB409A72D18610D803CE8A626049E8EC1887CB5B44CC39883690DDA8399B4B9855B481E7D71D4A9D22F96E5BB73BF5793020C02137BF837504B0304140006080000CC70623B000000000000000000000000350000006662782F36394639363044362D344446342D343946362D394244322D32343142
310
43333846323333332F76657274696365732E62696E504B0304140006080800CC70623BF270F1330600000004000000360000006662782F36394639363044362D344446342D343946362D394244322D3234314243333846323333332F747269616E676C65732E62696E636660600000504B0304140006080000CC70623B0000
310
00000000000000000000370000006662782F36394639363044362D344446342D343946362D394244322D3234314243333846323333332F617474726962757465732E62696E504B0304140006080800CC70623B08DA0BD19000000041010000360000006662782F36394639363044362D344446342D343946362D394244322D
310
3234314243333846323333332F6469726563746F72792E786D6C858F410AC3201045AF22B36F53E9A60B35CBEEBAE80D244E44489C6234F4F835464A48035D0DF398FF9F8AF63D0E6CC63039F212F8F9020C7D47C6792B21C5FE7403D62A1188E2E60C98D7234A5830286103A55745067B9D86B8A3CF9C7F90C11DE607FB14
310
4396D7B6A82D282E9A152AD114D5EF2CB866EEE831B8EEA07A7BB5A8D7D61A2BAAEB7FD5F70921FF497D00504B0304140006080800CC70623BCA768048FE000000A00100003B0000006662782F36394639363044362D344446342D343946362D394244322D3234314243333846323333332F7265736F75726365732F636F72
310
652E786D6C8D50596E833010BD0A9ADFCA60D600328E9AA639412F609909B1126CE4A5EAF16B0295DABFFECC8CDEA2797AECF8353F924FB44E193D409E5248504B332A3D0D10FC95B4901C39B3C6F85F3248B49871801506CE266BC2B243D2688FDA47549B11775038871E12F988C7004EDE7016A9083E2ADC3D5D84BC8B09
310
D33C8D74D471E6BC8D0192EDC93A815B742658898E651BCB59086ADC356A8C3FD555A1055ED7E7E254D615792D0F075295F585746FF53B694EE78A565DD736979A65AB9933AFE69F8CD2A2F038022F28ED489E135A7CE4554F9BBEA85E68DB53CAB255FEC71496F19FA6A0B42F8B3DEE6673C0F318E4497096AD7DC5F52C33
310
EEB55BFE0D504B010214000A0000080000CC70623B3DEE336E79000000790000001B00000000000000000000000000000000006175746F6465736B2D64657369676E2D7061636B6167652E786D6C504B01021400140006080800CC70623BD486FD9CA0000000F40000001300000000000000000000000000B20000005B436F
310
6E74656E745F54797065735D2E786D6C504B01021400140006080800CC70623BD9DDAED0EC0000007C010000080000000000000000000000000083010000636F72652E786D6C504B01021400140006080800CC70623B55019EA25F0000007C000000070000000000000000000000000095020000636E782E786D6C504B0102
310
1400140006080800CC70623BA24EB22D72010000D40300000C00000000000000000000000000190300006662782F636F72652E786D6C504B01021400140006080800CC70623B408A7D3B7C0000009D0000000B00000000000000000000000000B50400006662782F636E782E786D6C504B01021400140006080800CC70623B
310
449FB9BD290100001202000031000000000000000000000000005A0500006662782F36394639363044362D344446342D343946362D394244322D3234314243333846323333332F636F72652E786D6C504B01021400140006080800CC70623BAD7543B64E010000330300003000000000000000000000000000D20600006662
310
782F36394639363044362D344446342D343946362D394244322D3234314243333846323333332F636E782E786D6C504B01021400140006080800CC70623B8D05915C650500003B10000034000000000000000000000000006E0800006662782F36394639363044362D344446342D343946362D394244322D32343142433338
310
46323333332F6F626A656374732E786D6C504B01021400140006080000CC70623B0000000000000000000000003500000000000000000000000000250E00006662782F36394639363044362D344446342D343946362D394244322D3234314243333846323333332F76657274696365732E62696E504B010214001400060808
310
00CC70623BF270F13306000000040000003600000000000000000000000000780E00006662782F36394639363044362D344446342D343946362D394244322D3234314243333846323333332F747269616E676C65732E62696E504B01021400140006080000CC70623B00000000000000000000000037000000000000000000
310
00000000D20E00006662782F36394639363044362D344446342D343946362D394244322D3234314243333846323333332F617474726962757465732E62696E504B01021400140006080800CC70623B08DA0BD190000000410100003600000000000000000000000000270F00006662782F36394639363044362D344446342D
310
343946362D394244322D3234314243333846323333332F6469726563746F72792E786D6C504B01021400140006080800CC70623BCA768048FE000000A00100003B000000000000000000000000000B1000006662782F36394639363044362D344446342D343946362D394244322D3234314243333846323333332F7265736F
310
75726365732F636F72652E786D6C504B0506000000000E000E0080040000621100000000
  0
XRECORD
  5
176
102
{ACAD_REACTORS
330
173
102
}
330
173
100
AcDbXrecord
280
     1
270
     1
271
     1
  0
XRECORD
  5
177
102
{ACAD_REACTORS
330
173
102
}
330
173
100
AcDbXrecord
280
     1
270
     1
271
     1
  0
XRECORD
  5
63A2
102
{ACAD_REACTORS
330
63A1
102
}
330
63A1
100
AcDbXrecord
280
     1
102
ACAD_ROUNDTRIP_2012_MLEADER_STYLE
298
     1
  0
XRECORD
  5
63B4
102
{ACAD_REACTORS
330
63B3
102
}
330
63B3
100
AcDbXrecord
280
     1
102
DISPLAYNAME
  1
Metric50
102
FLAGS
 90
        0
  0
CELLSTYLEMAP
  5
6374
102
{ACAD_REACTORS
330
162
102
}
330
162
100
AcDbCellStyleMap
 90
        3
300
CELLSTYLE
  1
TABLEFORMAT_BEGIN
 90
        5
170
     1
 91
        0
 92
    32768
 62
   257
 93
        1
300
CONTENTFORMAT
  1
CONTENTFORMAT_BEGIN
 90
        0
 91
        0
 92
      512
 93
        0
300

 40
0.0
140
1.0
 94
        5
 62
     0
340
11
144
6.0
309
CONTENTFORMAT_END
171
     1
301
MARGIN
  1
CELLMARGIN_BEGIN
 40
1.5
 40
1.5
 40
1.5
 40
1.5
 40
4.5
 40
4.5
309
CELLMARGIN_END
 94
        6
 95
        1
302
GRIDFORMAT
  1
GRIDFORMAT_BEGIN
 90
        0
 91
        1
 62
     0
 92
       -2
340
14
 93
        0
 40
1.125
309
GRIDFORMAT_END
 95
        2
302
GRIDFORMAT
  1
GRIDFORMAT_BEGIN
 90
        0
 91
        1
 62
     0
 92
       -2
340
14
 93
        0
 40
1.125
309
GRIDFORMAT_END
 95
        4
302
GRIDFORMAT
  1
GRIDFORMAT_BEGIN
 90
        0
 91
        1
 62
     0
 92
       -2
340
14
 93
        0
 40
1.125
309
GRIDFORMAT_END
 95
        8
302
GRIDFORMAT
  1
GRIDFORMAT_BEGIN
 90
        0
 91
        1
 62
     0
 92
       -2
340
14
 93
        0
 40
1.125
309
GRIDFORMAT_END
 95
       16
302
GRIDFORMAT
  1
GRIDFORMAT_BEGIN
 90
        0
 91
        1
 62
     0
 92
       -2
340
14
 93
        0
 40
1.125
309
GRIDFORMAT_END
 95
       32
302
GRIDFORMAT
  1
GRIDFORMAT_BEGIN
 90
        0
 91
        1
 62
     0
 92
       -2
340
14
 93
        0
 40
1.125
309
GRIDFORMAT_END
309
TABLEFORMAT_END
  1
CELLSTYLE_BEGIN
 90
        1
 91
        1
300
_TITLE
309
CELLSTYLE_END
300
CELLSTYLE
  1
TABLEFORMAT_BEGIN
 90
        5
170
     1
 91
        0
 92
        0
 62
   257
 93
        1
300
CONTENTFORMAT
  1
CONTENTFORMAT_BEGIN
 90
        0
 91
        0
 92
      512
 93
        0
300

 40
0.0
140
1.0
 94
        5
 62
     0
340
11
144
4.5
309
CONTENTFORMAT_END
171
     1
301
MARGIN
  1
CELLMARGIN_BEGIN
 40
1.5
 40
1.5
 40
1.5
 40
1.5
 40
4.5
 40
4.5
309
CELLMARGIN_END
 94
        6
 95
        1
302
GRIDFORMAT
  1
GRIDFORMAT_BEGIN
 90
        0
 91
        1
 62
     0
 92
       -2
340
14
 93
        0
 40
1.125
309
GRIDFORMAT_END
 95
        2
302
GRIDFORMAT
  1
GRIDFORMAT_BEGIN
 90
        0
 91
        1
 62
     0
 92
       -2
340
14
 93
        0
 40
1.125
309
GRIDFORMAT_END
 95
        4
302
GRIDFORMAT
  1
GRIDFORMAT_BEGIN
 90
        0
 91
        1
 62
     0
 92
       -2
340
14
 93
        0
 40
1.125
309
GRIDFORMAT_END
 95
        8
302
GRIDFORMAT
  1
GRIDFORMAT_BEGIN
 90
        0
 91
        1
 62
     0
 92
       -2
340
14
 93
        0
 40
1.125
309
GRIDFORMAT_END
 95
       16
302
GRIDFORMAT
  1
GRIDFORMAT_BEGIN
 90
        0
 91
        1
 62
     0
 92
       -2
340
14
 93
        0
 40
1.125
309
GRIDFORMAT_END
 95
       32
302
GRIDFORMAT
  1
GRIDFORMAT_BEGIN
 90
        0
 91
        1
 62
     0
 92
       -2
340
14
 93
        0
 40
1.125
309
GRIDFORMAT_END
309
TABLEFORMAT_END
  1
CELLSTYLE_BEGIN
 90
        2
 91
        1
300
_HEADER
309
CELLSTYLE_END
300
CELLSTYLE
  1
TABLEFORMAT_BEGIN
 90
        5
170
     1
 91
        0
 92
        0
 62
   257
 93
        1
300
CONTENTFORMAT
  1
CONTENTFORMAT_BEGIN
 90
        0
 91
        0
 92
      512
 93
        0
300

 40
0.0
140
1.0
 94
        2
 62
     0
340
11
144
4.5
309
CONTENTFORMAT_END
171
     1
301
MARGIN
  1
CELLMARGIN_BEGIN
 40
1.5
 40
1.5
 40
1.5
 40
1.5
 40
4.5
 40
4.5
309
CELLMARGIN_END
 94
        6
 95
        1
302
GRIDFORMAT
  1
GRIDFORMAT_BEGIN
 90
        0
 91
        1
 62
     0
 92
       -2
340
14
 93
        0
 40
1.125
309
GRIDFORMAT_END
 95
        2
302
GRIDFORMAT
  1
GRIDFORMAT_BEGIN
 90
        0
 91
        1
 62
     0
 92
       -2
340
14
 93
        0
 40
1.125
309
GRIDFORMAT_END
 95
        4
302
GRIDFORMAT
  1
GRIDFORMAT_BEGIN
 90
        0
 91
        1
 62
     0
 92
       -2
340
14
 93
        0
 40
1.125
309
GRIDFORMAT_END
 95
        8
302
GRIDFORMAT
  1
GRIDFORMAT_BEGIN
 90
        0
 91
        1
 62
     0
 92
       -2
340
14
 93
        0
 40
1.125
309
GRIDFORMAT_END
 95
       16
302
GRIDFORMAT
  1
GRIDFORMAT_BEGIN
 90
        0
 91
        1
 62
     0
 92
       -2
340
14
 93
        0
 40
1.125
309
GRIDFORMAT_END
 95
       32
302
GRIDFORMAT
  1
GRIDFORMAT_BEGIN
 90
        0
 91
        1
 62
     0
 92
       -2
340
14
 93
        0
 40
1.125
309
GRIDFORMAT_END
309
TABLEFORMAT_END
  1
CELLSTYLE_BEGIN
 90
        3
 91
        2
300
_DATA
309
CELLSTYLE_END
  0
XRECORD
  5
6379
102
{ACAD_REACTORS
330
162
102
}
330
162
100
AcDbXrecord
280
     1
102
ACAD_ROUNDTRIP_PRE2007_TABLESTYLE
 90
      512
 91
        0
  1

 92
      512
 93
        0
  2

 94
      512
 95
        0
  3

  0
XRECORD
  5
638C
102
{ACAD_REACTORS
330
638B
102
}
330
638B
100
AcDbXrecord
280
     1
102
RTVSPost2010Prop28
280
     1
102
RTVSPost2010PropOp28
 70
     1
102
RTVSPost2010Prop29
280
     1
102
RTVSPost2010PropOp29
 70
     1
102
RTVSPost2010Prop30
280
     0
102
RTVSPost2010PropOp30
 70
     1
102
RTVSPost2010Prop31
280
     0
102
RTVSPost2010PropOp31
 70
     1
102
RTVSPost2010Prop32
280
     0
102
RTVSPost2010PropOp32
 70
     1
102
RTVSPost2010Prop33
280
     0
102
RTVSPost2010PropOp33
 70
     1
102
RTVSPost2010Prop34
280
     0
102
RTVSPost2010PropOp34
 70
     1
102
RTVSPost2010Prop35
280
     0
102
RTVSPost2010PropOp35
 70
     1
102
RTVSPost2010Prop36
280
     0
102
RTVSPost2010PropOp36
 70
     1
102
RTVSPost2010Prop37
 90
       50
102
RTVSPost2010PropOp37
 70
     1
102
RTVSPost2010Prop38
140
0.0
102
RTVSPost2010PropOp38
 70
     1
102
RTVSPost2010Prop39
140
1.0
102
RTVSPost2010PropOp39
 70
     1
102
RTVSPost2010Prop40
 90
        0
102
RTVSPost2010PropOp40
 70
     1
102
RTVSPost2010Prop41ColorIndex
 90
       18
102
RTVSPost2010Prop41ColorRGB
 90
        0
102
RTVSPost2010PropOp41
 70
     1
102
RTVSPost2010Prop42
 90
       50
102
RTVSPost2010PropOp42
 70
     1
102
RTVSPost2010Prop43
 90
        3
102
RTVSPost2010PropOp43
 70
     1
102
RTVSPost2010Prop44ColorIndex
 90
        5
102
RTVSPost2010Prop44ColorRGB
 90
      255
102
RTVSPost2010PropOp44
 70
     1
102
RTVSPost2010Prop45
280
     0
102
RTVSPost2010PropOp45
 70
     1
102
RTVSPost2010Prop46
 90
       50
102
RTVSPost2010PropOp46
 70
     1
102
RTVSPost2010Prop47
 90
       50
102
RTVSPost2010PropOp47
 70
     1
102
RTVSPost2010Prop48
 90
       50
102
RTVSPost2010PropOp48
 70
     1
102
RTVSPost2010Prop49
280
     0
102
RTVSPost2010PropOp49
 70
     1
102
RTVSPost2010Prop50
 90
       50
102
RTVSPost2010PropOp50
 70
     1
102
RTVSPost2010Prop51ColorIndex
 90
      256
102
RTVSPost2010Prop51ColorRGB
 90
-16777216
102
RTVSPost2010PropOp51
 70
     0
102
RTVSPost2010Prop52
140
1.0
102
RTVSPost2010PropOp52
 70
     0
102
RTVSPost2010Prop53
 90
        2
102
RTVSPost2010PropOp53
 70
     1
102
RTVSPost2010Prop54
  1
strokes_ogs.tif
102
RTVSPost2010PropOp54
 70
     1
102
RTVSPost2010Prop55
280
     0
102
RTVSPost2010PropOp55
 70
     1
102
RTVSPost2010Prop56
140
1.0
102
RTVSPost2010PropOp56
 70
     1
102
RTVSPost2010Prop57
140
1.0
102
RTVSPost2010PropOp57
 70
     1
102
RTVSPropertyOp0
 70
     1
102
RTVSPropertyOp1
 70
     1
102
RTVSPropertyOp2
 70
     1
102
RTVSPropertyOp3
 70
     1
102
RTVSPropertyOp4
 70
     1
102
RTVSPropertyOp5
 70
     1
102
RTVSPropertyOp6
 70
     1
102
RTVSPropertyOp7
 70
     1
102
RTVSPropertyOp8
 70
     1
102
RTVSPropertyOp9
 70
     1
102
RTVSPropertyOp10
 70
     1
102
RTVSPropertyOp11
 70
     1
102
RTVSPropertyOp12
 70
     1
102
RTVSPropertyOp13
 70
     1
102
RTVSPropertyOp14
 70
     1
102
RTVSPropertyOp15
 70
     1
102
RTVSPropertyOp16
 70
     1
102
RTVSPropertyOp17
 70
     1
102
RTVSPropertyOp18
 70
     1
102
RTVSPropertyOp19
 70
     1
102
RTVSPropertyOp20
 70
     1
102
RTVSPropertyOp21
 70
     1
102
RTVSPropertyOp22
 70
     1
102
RTVSPropertyOp23
 70
     1
102
RTVSPropertyOp24
 70
     1
102
RTVSPropertyOp25
 70
     1
102
RTVSPropertyOp26
 70
     1
102
RTVSPropertyOp27
 70
     1
102
RTVSPropertyOp28
 70
     1
102
RTVSPropertyOp29
 70
     1
102
RTVSPropertyOp30
 70
     1
102
RTVSPropertyOp31
 70
     1
102
RTVSPropertyOp32
 70
     1
102
RTVSPropertyOp33
 70
     1
102
RTVSPropertyOp34
 70
     1
102
RTVSPropertyOp35
 70
     1
102
RTVSPropertyOp36
 70
     1
102
RTVSPropertyOp37
 70
     1
102
RTVSPropertyOp38
 70
     1
102
RTVSPropertyOp39
 70
     1
102
RTVSPropertyOp40
 70
     1
102
RTVSPropertyOp41
 70
     1
102
RTVSPropertyOp42
 70
     1
102
RTVSPropertyOp43
 70
     1
102
RTVSPropertyOp44
 70
     1
102
RTVSPropertyOp45
 70
     1
102
RTVSPropertyOp46
 70
     1
102
RTVSPropertyOp47
 70
     1
102
RTVSPropertyOp48
 70
     1
102
RTVSPropertyOp49
 70
     1
102
RTVSPropertyOp50
 70
     1
102
RTVSPropertyOp51
 70
     0
102
RTVSPropertyOp52
 70
     0
102
RTVSPropertyOp53
 70
     1
102
RTVSPropertyOp54
 70
     1
102
RTVSPropertyOp55
 70
     1
102
RTVSPropertyOp56
 70
     1
102
RTVSPropertyOp57
 70
     1
102
RTVSPropertyOp58
 70
     1
102
RTVSPropertyOp59
 70
     1
102
RTVSPropertyOp60
 70
     1
102
RTVSPropertyOp61
 70
     1
102
RTVSPropertyOp62
 70
     1
  0
XRECORD
  5
638A
102
{ACAD_REACTORS
330
6389
102
}
330
6389
100
AcDbXrecord
280
     1
102
RTVSPost2010Prop28
280
     0
102
RTVSPost2010PropOp28
 70
     1
102
RTVSPost2010Prop29
280
     1
102
RTVSPost2010PropOp29
 70
     1
102
RTVSPost2010Prop30
280
     1
102
RTVSPost2010PropOp30
 70
     1
102
RTVSPost2010Prop31
280
     0
102
RTVSPost2010PropOp31
 70
     1
102
RTVSPost2010Prop32
280
     0
102
RTVSPost2010PropOp32
 70
     1
102
RTVSPost2010Prop33
280
     0
102
RTVSPost2010PropOp33
 70
     1
102
RTVSPost2010Prop34
280
     0
102
RTVSPost2010PropOp34
 70
     1
102
RTVSPost2010Prop35
280
     0
102
RTVSPost2010PropOp35
 70
     1
102
RTVSPost2010Prop36
280
     0
102
RTVSPost2010PropOp36
 70
     1
102
RTVSPost2010Prop37
 90
       50
102
RTVSPost2010PropOp37
 70
     1
102
RTVSPost2010Prop38
140
0.0
102
RTVSPost2010PropOp38
 70
     1
102
RTVSPost2010Prop39
140
1.0
102
RTVSPost2010PropOp39
 70
     1
102
RTVSPost2010Prop40
 90
        0
102
RTVSPost2010PropOp40
 70
     1
102
RTVSPost2010Prop41ColorIndex
 90
       18
102
RTVSPost2010Prop41ColorRGB
 90
        0
102
RTVSPost2010PropOp41
 70
     1
102
RTVSPost2010Prop42
 90
       50
102
RTVSPost2010PropOp42
 70
     1
102
RTVSPost2010Prop43
 90
        3
102
RTVSPost2010PropOp43
 70
     1
102
RTVSPost2010Prop44ColorIndex
 90
        5
102
RTVSPost2010Prop44ColorRGB
 90
      255
102
RTVSPost2010PropOp44
 70
     1
102
RTVSPost2010Prop45
280
     0
102
RTVSPost2010PropOp45
 70
     1
102
RTVSPost2010Prop46
 90
       50
102
RTVSPost2010PropOp46
 70
     1
102
RTVSPost2010Prop47
 90
       50
102
RTVSPost2010PropOp47
 70
     1
102
RTVSPost2010Prop48
 90
       50
102
RTVSPost2010PropOp48
 70
     1
102
RTVSPost2010Prop49
280
     0
102
RTVSPost2010PropOp49
 70
     1
102
RTVSPost2010Prop50
 90
       50
102
RTVSPost2010PropOp50
 70
     1
102
RTVSPost2010Prop51ColorIndex
 90
      256
102
RTVSPost2010Prop51ColorRGB
 90
-16777216
102
RTVSPost2010PropOp51
 70
     0
102
RTVSPost2010Prop52
140
1.0
102
RTVSPost2010PropOp52
 70
     0
102
RTVSPost2010Prop53
 90
        2
102
RTVSPost2010PropOp53
 70
     1
102
RTVSPost2010Prop54
  1
strokes_ogs.tif
102
RTVSPost2010PropOp54
 70
     1
102
RTVSPost2010Prop55
280
     0
102
RTVSPost2010PropOp55
 70
     1
102
RTVSPost2010Prop56
140
1.0
102
RTVSPost2010PropOp56
 70
     1
102
RTVSPost2010Prop57
140
1.0
102
RTVSPost2010PropOp57
 70
     1
102
RTVSPropertyOp0
 70
     1
102
RTVSPropertyOp1
 70
     1
102
RTVSPropertyOp2
 70
     1
102
RTVSPropertyOp3
 70
     1
102
RTVSPropertyOp4
 70
     1
102
RTVSPropertyOp5
 70
     1
102
RTVSPropertyOp6
 70
     1
102
RTVSPropertyOp7
 70
     1
102
RTVSPropertyOp8
 70
     1
102
RTVSPropertyOp9
 70
     1
102
RTVSPropertyOp10
 70
     1
102
RTVSPropertyOp11
 70
     1
102
RTVSPropertyOp12
 70
     1
102
RTVSPropertyOp13
 70
     1
102
RTVSPropertyOp14
 70
     1
102
RTVSPropertyOp15
 70
     1
102
RTVSPropertyOp16
 70
     1
102
RTVSPropertyOp17
 70
     1
102
RTVSPropertyOp18
 70
     1
102
RTVSPropertyOp19
 70
     1
102
RTVSPropertyOp20
 70
     1
102
RTVSPropertyOp21
 70
     1
102
RTVSPropertyOp22
 70
     1
102
RTVSPropertyOp23
 70
     1
102
RTVSPropertyOp24
 70
     1
102
RTVSPropertyOp25
 70
     1
102
RTVSPropertyOp26
 70
     1
102
RTVSPropertyOp27
 70
     1
102
RTVSPropertyOp28
 70
     1
102
RTVSPropertyOp29
 70
     1
102
RTVSPropertyOp30
 70
     1
102
RTVSPropertyOp31
 70
     1
102
RTVSPropertyOp32
 70
     1
102
RTVSPropertyOp33
 70
     1
102
RTVSPropertyOp34
 70
     1
102
RTVSPropertyOp35
 70
     1
102
RTVSPropertyOp36
 70
     1
102
RTVSPropertyOp37
 70
     1
102
RTVSPropertyOp38
 70
     1
102
RTVSPropertyOp39
 70
     1
102
RTVSPropertyOp40
 70
     1
102
RTVSPropertyOp41
 70
     1
102
RTVSPropertyOp42
 70
     1
102
RTVSPropertyOp43
 70
     1
102
RTVSPropertyOp44
 70
     1
102
RTVSPropertyOp45
 70
     1
102
RTVSPropertyOp46
 70
     1
102
RTVSPropertyOp47
 70
     1
102
RTVSPropertyOp48
 70
     1
102
RTVSPropertyOp49
 70
     1
102
RTVSPropertyOp50
 70
     1
102
RTVSPropertyOp51
 70
     0
102
RTVSPropertyOp52
 70
     0
102
RTVSPropertyOp53
 70
     1
102
RTVSPropertyOp54
 70
     1
102
RTVSPropertyOp55
 70
     1
102
RTVSPropertyOp56
 70
     1
102
RTVSPropertyOp57
 70
     1
102
RTVSPropertyOp58
 70
     1
102
RTVSPropertyOp59
 70
     1
102
RTVSPropertyOp60
 70
     1
102
RTVSPropertyOp61
 70
     1
102
RTVSPropertyOp62
 70
     1
  0
XRECORD
  5
6398
102
{ACAD_REACTORS
330
6397
102
}
330
6397
100
AcDbXrecord
280
     1
102
RTVSPost2010Prop28
280
     0
102
RTVSPost2010PropOp28
 70
     1
102
RTVSPost2010Prop29
280
     1
102
RTVSPost2010PropOp29
 70
     1
102
RTVSPost2010Prop30
280
     1
102
RTVSPost2010PropOp30
 70
     1
102
RTVSPost2010Prop31
280
     0
102
RTVSPost2010PropOp31
 70
     1
102
RTVSPost2010Prop32
280
     0
102
RTVSPost2010PropOp32
 70
     1
102
RTVSPost2010Prop33
280
     0
102
RTVSPost2010PropOp33
 70
     1
102
RTVSPost2010Prop34
280
     0
102
RTVSPost2010PropOp34
 70
     1
102
RTVSPost2010Prop35
280
     0
102
RTVSPost2010PropOp35
 70
     1
102
RTVSPost2010Prop36
280
     0
102
RTVSPost2010PropOp36
 70
     1
102
RTVSPost2010Prop37
 90
       50
102
RTVSPost2010PropOp37
 70
     1
102
RTVSPost2010Prop38
140
0.0
102
RTVSPost2010PropOp38
 70
     1
102
RTVSPost2010Prop39
140
1.0
102
RTVSPost2010PropOp39
 70
     1
102
RTVSPost2010Prop40
 90
        0
102
RTVSPost2010PropOp40
 70
     1
102
RTVSPost2010Prop41ColorIndex
 90
       18
102
RTVSPost2010Prop41ColorRGB
 90
        0
102
RTVSPost2010PropOp41
 70
     1
102
RTVSPost2010Prop42
 90
       50
102
RTVSPost2010PropOp42
 70
     1
102
RTVSPost2010Prop43
 90
        3
102
RTVSPost2010PropOp43
 70
     1
102
RTVSPost2010Prop44ColorIndex
 90
        5
102
RTVSPost2010Prop44ColorRGB
 90
      255
102
RTVSPost2010PropOp44
 70
     1
102
RTVSPost2010Prop45
280
     0
102
RTVSPost2010PropOp45
 70
     1
102
RTVSPost2010Prop46
 90
       50
102
RTVSPost2010PropOp46
 70
     1
102
RTVSPost2010Prop47
 90
       50
102
RTVSPost2010PropOp47
 70
     1
102
RTVSPost2010Prop48
 90
       50
102
RTVSPost2010PropOp48
 70
     1
102
RTVSPost2010Prop49
280
     0
102
RTVSPost2010PropOp49
 70
     1
102
RTVSPost2010Prop50
 90
       50
102
RTVSPost2010PropOp50
 70
     1
102
RTVSPost2010Prop51ColorIndex
 90
      256
102
RTVSPost2010Prop51ColorRGB
 90
-16777216
102
RTVSPost2010PropOp51
 70
     0
102
RTVSPost2010Prop52
140
1.0
102
RTVSPost2010PropOp52
 70
     0
102
RTVSPost2010Prop53
 90
        2
102
RTVSPost2010PropOp53
 70
     1
102
RTVSPost2010Prop54
  1
strokes_ogs.tif
102
RTVSPost2010PropOp54
 70
     1
102
RTVSPost2010Prop55
280
     0
102
RTVSPost2010PropOp55
 70
     1
102
RTVSPost2010Prop56
140
1.0
102
RTVSPost2010PropOp56
 70
     1
102
RTVSPost2010Prop57
140
1.0
102
RTVSPost2010PropOp57
 70
     1
102
RTVSPropertyOp0
 70
     1
102
RTVSPropertyOp1
 70
     1
102
RTVSPropertyOp2
 70
     1
102
RTVSPropertyOp3
 70
     1
102
RTVSPropertyOp4
 70
     1
102
RTVSPropertyOp5
 70
     1
102
RTVSPropertyOp6
 70
     1
102
RTVSPropertyOp7
 70
     1
102
RTVSPropertyOp8
 70
     1
102
RTVSPropertyOp9
 70
     1
102
RTVSPropertyOp10
 70
     1
102
RTVSPropertyOp11
 70
     1
102
RTVSPropertyOp12
 70
     1
102
RTVSPropertyOp13
 70
     1
102
RTVSPropertyOp14
 70
     1
102
RTVSPropertyOp15
 70
     1
102
RTVSPropertyOp16
 70
     1
102
RTVSPropertyOp17
 70
     1
102
RTVSPropertyOp18
 70
     1
102
RTVSPropertyOp19
 70
     1
102
RTVSPropertyOp20
 70
     1
102
RTVSPropertyOp21
 70
     1
102
RTVSPropertyOp22
 70
     1
102
RTVSPropertyOp23
 70
     1
102
RTVSPropertyOp24
 70
     1
102
RTVSPropertyOp25
 70
     1
102
RTVSPropertyOp26
 70
     1
102
RTVSPropertyOp27
 70
     1
102
RTVSPropertyOp28
 70
     1
102
RTVSPropertyOp29
 70
     1
102
RTVSPropertyOp30
 70
     1
102
RTVSPropertyOp31
 70
     1
102
RTVSPropertyOp32
 70
     1
102
RTVSPropertyOp33
 70
     1
102
RTVSPropertyOp34
 70
     1
102
RTVSPropertyOp35
 70
     1
102
RTVSPropertyOp36
 70
     1
102
RTVSPropertyOp37
 70
     1
102
RTVSPropertyOp38
 70
     1
102
RTVSPropertyOp39
 70
     1
102
RTVSPropertyOp40
 70
     1
102
RTVSPropertyOp41
 70
     1
102
RTVSPropertyOp42
 70
     1
102
RTVSPropertyOp43
 70
     1
102
RTVSPropertyOp44
 70
     1
102
RTVSPropertyOp45
 70
     1
102
RTVSPropertyOp46
 70
     1
102
RTVSPropertyOp47
 70
     1
102
RTVSPropertyOp48
 70
     1
102
RTVSPropertyOp49
 70
     1
102
RTVSPropertyOp50
 70
     1
102
RTVSPropertyOp51
 70
     0
102
RTVSPropertyOp52
 70
     0
102
RTVSPropertyOp53
 70
     1
102
RTVSPropertyOp54
 70
     1
102
RTVSPropertyOp55
 70
     1
102
RTVSPropertyOp56
 70
     1
102
RTVSPropertyOp57
 70
     1
102
RTVSPropertyOp58
 70
     1
102
RTVSPropertyOp59
 70
     1
102
RTVSPropertyOp60
 70
     1
102
RTVSPropertyOp61
 70
     1
102
RTVSPropertyOp62
 70
     1
  0
XRECORD
  5
63A0
102
{ACAD_REACTORS
330
639F
102
}
330
639F
100
AcDbXrecord
280
     1
102
RTVSPost2010Prop28
280
     0
102
RTVSPost2010PropOp28
 70
     1
102
RTVSPost2010Prop29
280
     1
102
RTVSPost2010PropOp29
 70
     1
102
RTVSPost2010Prop30
280
     1
102
RTVSPost2010PropOp30
 70
     1
102
RTVSPost2010Prop31
280
     0
102
RTVSPost2010PropOp31
 70
     1
102
RTVSPost2010Prop32
280
     0
102
RTVSPost2010PropOp32
 70
     1
102
RTVSPost2010Prop33
280
     0
102
RTVSPost2010PropOp33
 70
     1
102
RTVSPost2010Prop34
280
     0
102
RTVSPost2010PropOp34
 70
     1
102
RTVSPost2010Prop35
280
     0
102
RTVSPost2010PropOp35
 70
     1
102
RTVSPost2010Prop36
280
     0
102
RTVSPost2010PropOp36
 70
     1
102
RTVSPost2010Prop37
 90
       50
102
RTVSPost2010PropOp37
 70
     1
102
RTVSPost2010Prop38
140
0.0
102
RTVSPost2010PropOp38
 70
     1
102
RTVSPost2010Prop39
140
1.0
102
RTVSPost2010PropOp39
 70
     1
102
RTVSPost2010Prop40
 90
        0
102
RTVSPost2010PropOp40
 70
     1
102
RTVSPost2010Prop41ColorIndex
 90
       18
102
RTVSPost2010Prop41ColorRGB
 90
        0
102
RTVSPost2010PropOp41
 70
     1
102
RTVSPost2010Prop42
 90
       50
102
RTVSPost2010PropOp42
 70
     1
102
RTVSPost2010Prop43
 90
        3
102
RTVSPost2010PropOp43
 70
     1
102
RTVSPost2010Prop44ColorIndex
 90
        5
102
RTVSPost2010Prop44ColorRGB
 90
      255
102
RTVSPost2010PropOp44
 70
     1
102
RTVSPost2010Prop45
280
     0
102
RTVSPost2010PropOp45
 70
     1
102
RTVSPost2010Prop46
 90
       50
102
RTVSPost2010PropOp46
 70
     1
102
RTVSPost2010Prop47
 90
       50
102
RTVSPost2010PropOp47
 70
     1
102
RTVSPost2010Prop48
 90
       50
102
RTVSPost2010PropOp48
 70
     1
102
RTVSPost2010Prop49
280
     0
102
RTVSPost2010PropOp49
 70
     1
102
RTVSPost2010Prop50
 90
       50
102
RTVSPost2010PropOp50
 70
     1
102
RTVSPost2010Prop51ColorIndex
 90
      256
102
RTVSPost2010Prop51ColorRGB
 90
-16777216
102
RTVSPost2010PropOp51
 70
     0
102
RTVSPost2010Prop52
140
1.0
102
RTVSPost2010PropOp52
 70
     0
102
RTVSPost2010Prop53
 90
        2
102
RTVSPost2010PropOp53
 70
     1
102
RTVSPost2010Prop54
  1
strokes_ogs.tif
102
RTVSPost2010PropOp54
 70
     1
102
RTVSPost2010Prop55
280
     0
102
RTVSPost2010PropOp55
 70
     1
102
RTVSPost2010Prop56
140
1.0
102
RTVSPost2010PropOp56
 70
     1
102
RTVSPost2010Prop57
140
1.0
102
RTVSPost2010PropOp57
 70
     1
102
RTVSPropertyOp0
 70
     1
102
RTVSPropertyOp1
 70
     1
102
RTVSPropertyOp2
 70
     1
102
RTVSPropertyOp3
 70
     1
102
RTVSPropertyOp4
 70
     1
102
RTVSPropertyOp5
 70
     1
102
RTVSPropertyOp6
 70
     1
102
RTVSPropertyOp7
 70
     1
102
RTVSPropertyOp8
 70
     1
102
RTVSPropertyOp9
 70
     1
102
RTVSPropertyOp10
 70
     1
102
RTVSPropertyOp11
 70
     1
102
RTVSPropertyOp12
 70
     1
102
RTVSPropertyOp13
 70
     1
102
RTVSPropertyOp14
 70
     1
102
RTVSPropertyOp15
 70
     1
102
RTVSPropertyOp16
 70
     1
102
RTVSPropertyOp17
 70
     1
102
RTVSPropertyOp18
 70
     1
102
RTVSPropertyOp19
 70
     1
102
RTVSPropertyOp20
 70
     1
102
RTVSPropertyOp21
 70
     1
102
RTVSPropertyOp22
 70
     1
102
RTVSPropertyOp23
 70
     1
102
RTVSPropertyOp24
 70
     1
102
RTVSPropertyOp25
 70
     1
102
RTVSPropertyOp26
 70
     1
102
RTVSPropertyOp27
 70
     1
102
RTVSPropertyOp28
 70
     1
102
RTVSPropertyOp29
 70
     1
102
RTVSPropertyOp30
 70
     1
102
RTVSPropertyOp31
 70
     1
102
RTVSPropertyOp32
 70
     1
102
RTVSPropertyOp33
 70
     1
102
RTVSPropertyOp34
 70
     1
102
RTVSPropertyOp35
 70
     1
102
RTVSPropertyOp36
 70
     1
102
RTVSPropertyOp37
 70
     1
102
RTVSPropertyOp38
 70
     1
102
RTVSPropertyOp39
 70
     1
102
RTVSPropertyOp40
 70
     1
102
RTVSPropertyOp41
 70
     1
102
RTVSPropertyOp42
 70
     1
102
RTVSPropertyOp43
 70
     1
102
RTVSPropertyOp44
 70
     1
102
RTVSPropertyOp45
 70
     1
102
RTVSPropertyOp46
 70
     1
102
RTVSPropertyOp47
 70
     1
102
RTVSPropertyOp48
 70
     1
102
RTVSPropertyOp49
 70
     1
102
RTVSPropertyOp50
 70
     1
102
RTVSPropertyOp51
 70
     0
102
RTVSPropertyOp52
 70
     0
102
RTVSPropertyOp53
 70
     1
102
RTVSPropertyOp54
 70
     1
102
RTVSPropertyOp55
 70
     1
102
RTVSPropertyOp56
 70
     1
102
RTVSPropertyOp57
 70
     1
102
RTVSPropertyOp58
 70
     1
102
RTVSPropertyOp59
 70
     1
102
RTVSPropertyOp60
 70
     1
102
RTVSPropertyOp61
 70
     1
102
RTVSPropertyOp62
 70
     1
  0
XRECORD
  5
6392
102
{ACAD_REACTORS
330
6391
102
}
330
6391
100
AcDbXrecord
280
     1
102
RTVSPost2010Prop28
280
     0
102
RTVSPost2010PropOp28
 70
     1
102
RTVSPost2010Prop29
280
     1
102
RTVSPost2010PropOp29
 70
     1
102
RTVSPost2010Prop30
280
     1
102
RTVSPost2010PropOp30
 70
     1
102
RTVSPost2010Prop31
280
     0
102
RTVSPost2010PropOp31
 70
     1
102
RTVSPost2010Prop32
280
     0
102
RTVSPost2010PropOp32
 70
     1
102
RTVSPost2010Prop33
280
     0
102
RTVSPost2010PropOp33
 70
     1
102
RTVSPost2010Prop34
280
     0
102
RTVSPost2010PropOp34
 70
     1
102
RTVSPost2010Prop35
280
     0
102
RTVSPost2010PropOp35
 70
     1
102
RTVSPost2010Prop36
280
     0
102
RTVSPost2010PropOp36
 70
     1
102
RTVSPost2010Prop37
 90
       50
102
RTVSPost2010PropOp37
 70
     1
102
RTVSPost2010Prop38
140
0.0
102
RTVSPost2010PropOp38
 70
     1
102
RTVSPost2010Prop39
140
1.0
102
RTVSPost2010PropOp39
 70
     1
102
RTVSPost2010Prop40
 90
        0
102
RTVSPost2010PropOp40
 70
     1
102
RTVSPost2010Prop41ColorIndex
 90
       18
102
RTVSPost2010Prop41ColorRGB
 90
        0
102
RTVSPost2010PropOp41
 70
     1
102
RTVSPost2010Prop42
 90
       50
102
RTVSPost2010PropOp42
 70
     1
102
RTVSPost2010Prop43
 90
        3
102
RTVSPost2010PropOp43
 70
     1
102
RTVSPost2010Prop44ColorIndex
 90
        5
102
RTVSPost2010Prop44ColorRGB
 90
      255
102
RTVSPost2010PropOp44
 70
     1
102
RTVSPost2010Prop45
280
     0
102
RTVSPost2010PropOp45
 70
     1
102
RTVSPost2010Prop46
 90
       50
102
RTVSPost2010PropOp46
 70
     1
102
RTVSPost2010Prop47
 90
       50
102
RTVSPost2010PropOp47
 70
     1
102
RTVSPost2010Prop48
 90
       50
102
RTVSPost2010PropOp48
 70
     1
102
RTVSPost2010Prop49
280
     0
102
RTVSPost2010PropOp49
 70
     1
102
RTVSPost2010Prop50
 90
       50
102
RTVSPost2010PropOp50
 70
     1
102
RTVSPost2010Prop51ColorIndex
 90
      256
102
RTVSPost2010Prop51ColorRGB
 90
-16777216
102
RTVSPost2010PropOp51
 70
     0
102
RTVSPost2010Prop52
140
1.0
102
RTVSPost2010PropOp52
 70
     0
102
RTVSPost2010Prop53
 90
        2
102
RTVSPost2010PropOp53
 70
     1
102
RTVSPost2010Prop54
  1
strokes_ogs.tif
102
RTVSPost2010PropOp54
 70
     1
102
RTVSPost2010Prop55
280
     0
102
RTVSPost2010PropOp55
 70
     1
102
RTVSPost2010Prop56
140
1.0
102
RTVSPost2010PropOp56
 70
     1
102
RTVSPost2010Prop57
140
1.0
102
RTVSPost2010PropOp57
 70
     1
102
RTVSPropertyOp0
 70
     1
102
RTVSPropertyOp1
 70
     1
102
RTVSPropertyOp2
 70
     1
102
RTVSPropertyOp3
 70
     1
102
RTVSPropertyOp4
 70
     1
102
RTVSPropertyOp5
 70
     1
102
RTVSPropertyOp6
 70
     1
102
RTVSPropertyOp7
 70
     1
102
RTVSPropertyOp8
 70
     1
102
RTVSPropertyOp9
 70
     1
102
RTVSPropertyOp10
 70
     1
102
RTVSPropertyOp11
 70
     1
102
RTVSPropertyOp12
 70
     1
102
RTVSPropertyOp13
 70
     1
102
RTVSPropertyOp14
 70
     1
102
RTVSPropertyOp15
 70
     1
102
RTVSPropertyOp16
 70
     1
102
RTVSPropertyOp17
 70
     1
102
RTVSPropertyOp18
 70
     1
102
RTVSPropertyOp19
 70
     1
102
RTVSPropertyOp20
 70
     1
102
RTVSPropertyOp21
 70
     1
102
RTVSPropertyOp22
 70
     1
102
RTVSPropertyOp23
 70
     1
102
RTVSPropertyOp24
 70
     1
102
RTVSPropertyOp25
 70
     1
102
RTVSPropertyOp26
 70
     1
102
RTVSPropertyOp27
 70
     1
102
RTVSPropertyOp28
 70
     1
102
RTVSPropertyOp29
 70
     1
102
RTVSPropertyOp30
 70
     1
102
RTVSPropertyOp31
 70
     1
102
RTVSPropertyOp32
 70
     1
102
RTVSPropertyOp33
 70
     1
102
RTVSPropertyOp34
 70
     1
102
RTVSPropertyOp35
 70
     1
102
RTVSPropertyOp36
 70
     1
102
RTVSPropertyOp37
 70
     1
102
RTVSPropertyOp38
 70
     1
102
RTVSPropertyOp39
 70
     1
102
RTVSPropertyOp40
 70
     1
102
RTVSPropertyOp41
 70
     1
102
RTVSPropertyOp42
 70
     1
102
RTVSPropertyOp43
 70
     1
102
RTVSPropertyOp44
 70
     1
102
RTVSPropertyOp45
 70
     1
102
RTVSPropertyOp46
 70
     1
102
RTVSPropertyOp47
 70
     1
102
RTVSPropertyOp48
 70
     1
102
RTVSPropertyOp49
 70
     1
102
RTVSPropertyOp50
 70
     1
102
RTVSPropertyOp51
 70
     0
102
RTVSPropertyOp52
 70
     0
102
RTVSPropertyOp53
 70
     1
102
RTVSPropertyOp54
 70
     1
102
RTVSPropertyOp55
 70
     1
102
RTVSPropertyOp56
 70
     1
102
RTVSPropertyOp57
 70
     1
102
RTVSPropertyOp58
 70
     1
102
RTVSPropertyOp59
 70
     1
102
RTVSPropertyOp60
 70
     1
102
RTVSPropertyOp61
 70
     1
102
RTVSPropertyOp62
 70
     1
  0
XRECORD
  5
6396
102
{ACAD_REACTORS
330
6395
102
}
330
6395
100
AcDbXrecord
280
     1
102
RTVSPost2010Prop28
280
     0
102
RTVSPost2010PropOp28
 70
     1
102
RTVSPost2010Prop29
280
     1
102
RTVSPost2010PropOp29
 70
     1
102
RTVSPost2010Prop30
280
     1
102
RTVSPost2010PropOp30
 70
     1
102
RTVSPost2010Prop31
280
     0
102
RTVSPost2010PropOp31
 70
     1
102
RTVSPost2010Prop32
280
     0
102
RTVSPost2010PropOp32
 70
     1
102
RTVSPost2010Prop33
280
     0
102
RTVSPost2010PropOp33
 70
     1
102
RTVSPost2010Prop34
280
     0
102
RTVSPost2010PropOp34
 70
     1
102
RTVSPost2010Prop35
280
     0
102
RTVSPost2010PropOp35
 70
     1
102
RTVSPost2010Prop36
280
     0
102
RTVSPost2010PropOp36
 70
     1
102
RTVSPost2010Prop37
 90
       50
102
RTVSPost2010PropOp37
 70
     1
102
RTVSPost2010Prop38
140
0.0
102
RTVSPost2010PropOp38
 70
     1
102
RTVSPost2010Prop39
140
1.0
102
RTVSPost2010PropOp39
 70
     1
102
RTVSPost2010Prop40
 90
        0
102
RTVSPost2010PropOp40
 70
     1
102
RTVSPost2010Prop41ColorIndex
 90
       18
102
RTVSPost2010Prop41ColorRGB
 90
        0
102
RTVSPost2010PropOp41
 70
     1
102
RTVSPost2010Prop42
 90
       50
102
RTVSPost2010PropOp42
 70
     1
102
RTVSPost2010Prop43
 90
        3
102
RTVSPost2010PropOp43
 70
     1
102
RTVSPost2010Prop44ColorIndex
 90
        5
102
RTVSPost2010Prop44ColorRGB
 90
      255
102
RTVSPost2010PropOp44
 70
     1
102
RTVSPost2010Prop45
280
     0
102
RTVSPost2010PropOp45
 70
     1
102
RTVSPost2010Prop46
 90
       50
102
RTVSPost2010PropOp46
 70
     1
102
RTVSPost2010Prop47
 90
       50
102
RTVSPost2010PropOp47
 70
     1
102
RTVSPost2010Prop48
 90
       50
102
RTVSPost2010PropOp48
 70
     1
102
RTVSPost2010Prop49
280
     0
102
RTVSPost2010PropOp49
 70
     1
102
RTVSPost2010Prop50
 90
       50
102
RTVSPost2010PropOp50
 70
     1
102
RTVSPost2010Prop51ColorIndex
 90
      256
102
RTVSPost2010Prop51ColorRGB
 90
-16777216
102
RTVSPost2010PropOp51
 70
     0
102
RTVSPost2010Prop52
140
1.0
102
RTVSPost2010PropOp52
 70
     0
102
RTVSPost2010Prop53
 90
        2
102
RTVSPost2010PropOp53
 70
     1
102
RTVSPost2010Prop54
  1
strokes_ogs.tif
102
RTVSPost2010PropOp54
 70
     1
102
RTVSPost2010Prop55
280
     0
102
RTVSPost2010PropOp55
 70
     1
102
RTVSPost2010Prop56
140
1.0
102
RTVSPost2010PropOp56
 70
     1
102
RTVSPost2010Prop57
140
1.0
102
RTVSPost2010PropOp57
 70
     1
102
RTVSPropertyOp0
 70
     1
102
RTVSPropertyOp1
 70
     1
102
RTVSPropertyOp2
 70
     1
102
RTVSPropertyOp3
 70
     1
102
RTVSPropertyOp4
 70
     1
102
RTVSPropertyOp5
 70
     1
102
RTVSPropertyOp6
 70
     1
102
RTVSPropertyOp7
 70
     1
102
RTVSPropertyOp8
 70
     1
102
RTVSPropertyOp9
 70
     1
102
RTVSPropertyOp10
 70
     1
102
RTVSPropertyOp11
 70
     1
102
RTVSPropertyOp12
 70
     1
102
RTVSPropertyOp13
 70
     1
102
RTVSPropertyOp14
 70
     1
102
RTVSPropertyOp15
 70
     1
102
RTVSPropertyOp16
 70
     1
102
RTVSPropertyOp17
 70
     1
102
RTVSPropertyOp18
 70
     1
102
RTVSPropertyOp19
 70
     1
102
RTVSPropertyOp20
 70
     1
102
RTVSPropertyOp21
 70
     1
102
RTVSPropertyOp22
 70
     1
102
RTVSPropertyOp23
 70
     1
102
RTVSPropertyOp24
 70
     1
102
RTVSPropertyOp25
 70
     1
102
RTVSPropertyOp26
 70
     1
102
RTVSPropertyOp27
 70
     1
102
RTVSPropertyOp28
 70
     1
102
RTVSPropertyOp29
 70
     1
102
RTVSPropertyOp30
 70
     1
102
RTVSPropertyOp31
 70
     1
102
RTVSPropertyOp32
 70
     1
102
RTVSPropertyOp33
 70
     1
102
RTVSPropertyOp34
 70
     1
102
RTVSPropertyOp35
 70
     1
102
RTVSPropertyOp36
 70
     1
102
RTVSPropertyOp37
 70
     1
102
RTVSPropertyOp38
 70
     1
102
RTVSPropertyOp39
 70
     1
102
RTVSPropertyOp40
 70
     1
102
RTVSPropertyOp41
 70
     1
102
RTVSPropertyOp42
 70
     1
102
RTVSPropertyOp43
 70
     1
102
RTVSPropertyOp44
 70
     1
102
RTVSPropertyOp45
 70
     1
102
RTVSPropertyOp46
 70
     1
102
RTVSPropertyOp47
 70
     1
102
RTVSPropertyOp48
 70
     1
102
RTVSPropertyOp49
 70
     1
102
RTVSPropertyOp50
 70
     1
102
RTVSPropertyOp51
 70
     0
102
RTVSPropertyOp52
 70
     0
102
RTVSPropertyOp53
 70
     1
102
RTVSPropertyOp54
 70
     1
102
RTVSPropertyOp55
 70
     1
102
RTVSPropertyOp56
 70
     1
102
RTVSPropertyOp57
 70
     1
102
RTVSPropertyOp58
 70
     1
102
RTVSPropertyOp59
 70
     1
102
RTVSPropertyOp60
 70
     1
102
RTVSPropertyOp61
 70
     1
102
RTVSPropertyOp62
 70
     1
  0
XRECORD
  5
63A8
102
{ACAD_REACTORS
330
63A7
102
}
330
63A7
100
AcDbXrecord
280
     1
102
RTVSPost2010Prop28
280
     0
102
RTVSPost2010PropOp28
 70
     1
102
RTVSPost2010Prop29
280
     1
102
RTVSPost2010PropOp29
 70
     1
102
RTVSPost2010Prop30
280
     1
102
RTVSPost2010PropOp30
 70
     1
102
RTVSPost2010Prop31
280
     0
102
RTVSPost2010PropOp31
 70
     1
102
RTVSPost2010Prop32
280
     0
102
RTVSPost2010PropOp32
 70
     1
102
RTVSPost2010Prop33
280
     0
102
RTVSPost2010PropOp33
 70
     1
102
RTVSPost2010Prop34
280
     0
102
RTVSPost2010PropOp34
 70
     1
102
RTVSPost2010Prop35
280
     0
102
RTVSPost2010PropOp35
 70
     1
102
RTVSPost2010Prop36
280
     0
102
RTVSPost2010PropOp36
 70
     1
102
RTVSPost2010Prop37
 90
       50
102
RTVSPost2010PropOp37
 70
     1
102
RTVSPost2010Prop38
140
0.0
102
RTVSPost2010PropOp38
 70
     1
102
RTVSPost2010Prop39
140
1.0
102
RTVSPost2010PropOp39
 70
     1
102
RTVSPost2010Prop40
 90
        0
102
RTVSPost2010PropOp40
 70
     1
102
RTVSPost2010Prop41ColorIndex
 90
       18
102
RTVSPost2010Prop41ColorRGB
 90
        0
102
RTVSPost2010PropOp41
 70
     1
102
RTVSPost2010Prop42
 90
       50
102
RTVSPost2010PropOp42
 70
     1
102
RTVSPost2010Prop43
 90
        3
102
RTVSPost2010PropOp43
 70
     1
102
RTVSPost2010Prop44ColorIndex
 90
        5
102
RTVSPost2010Prop44ColorRGB
 90
      255
102
RTVSPost2010PropOp44
 70
     1
102
RTVSPost2010Prop45
280
     0
102
RTVSPost2010PropOp45
 70
     1
102
RTVSPost2010Prop46
 90
       50
102
RTVSPost2010PropOp46
 70
     1
102
RTVSPost2010Prop47
 90
       50
102
RTVSPost2010PropOp47
 70
     1
102
RTVSPost2010Prop48
 90
       50
102
RTVSPost2010PropOp48
 70
     1
102
RTVSPost2010Prop49
280
     0
102
RTVSPost2010PropOp49
 70
     1
102
RTVSPost2010Prop50
 90
       50
102
RTVSPost2010PropOp50
 70
     1
102
RTVSPost2010Prop51ColorIndex
 90
      256
102
RTVSPost2010Prop51ColorRGB
 90
-16777216
102
RTVSPost2010PropOp51
 70
     0
102
RTVSPost2010Prop52
140
1.0
102
RTVSPost2010PropOp52
 70
     0
102
RTVSPost2010Prop53
 90
        2
102
RTVSPost2010PropOp53
 70
     1
102
RTVSPost2010Prop54
  1
strokes_ogs.tif
102
RTVSPost2010PropOp54
 70
     1
102
RTVSPost2010Prop55
280
     0
102
RTVSPost2010PropOp55
 70
     1
102
RTVSPost2010Prop56
140
1.0
102
RTVSPost2010PropOp56
 70
     1
102
RTVSPost2010Prop57
140
1.0
102
RTVSPost2010PropOp57
 70
     1
102
RTVSPropertyOp0
 70
     0
102
RTVSPropertyOp1
 70
     0
102
RTVSPropertyOp2
 70
     0
102
RTVSPropertyOp3
 70
     0
102
RTVSPropertyOp4
 70
     0
102
RTVSPropertyOp5
 70
     0
102
RTVSPropertyOp6
 70
     0
102
RTVSPropertyOp7
 70
     0
102
RTVSPropertyOp8
 70
     0
102
RTVSPropertyOp9
 70
     0
102
RTVSPropertyOp10
 70
     0
102
RTVSPropertyOp11
 70
     0
102
RTVSPropertyOp12
 70
     0
102
RTVSPropertyOp13
 70
     0
102
RTVSPropertyOp14
 70
     2
102
RTVSPropertyOp15
 70
     0
102
RTVSPropertyOp16
 70
     0
102
RTVSPropertyOp17
 70
     0
102
RTVSPropertyOp18
 70
     0
102
RTVSPropertyOp19
 70
     0
102
RTVSPropertyOp20
 70
     0
102
RTVSPropertyOp21
 70
     0
102
RTVSPropertyOp22
 70
     0
102
RTVSPropertyOp23
 70
     0
102
RTVSPropertyOp24
 70
     0
102
RTVSPropertyOp25
 70
     0
102
RTVSPropertyOp26
 70
     0
102
RTVSPropertyOp27
 70
     0
102
RTVSPropertyOp28
 70
     1
102
RTVSPropertyOp29
 70
     1
102
RTVSPropertyOp30
 70
     1
102
RTVSPropertyOp31
 70
     1
102
RTVSPropertyOp32
 70
     1
102
RTVSPropertyOp33
 70
     1
102
RTVSPropertyOp34
 70
     1
102
RTVSPropertyOp35
 70
     1
102
RTVSPropertyOp36
 70
     1
102
RTVSPropertyOp37
 70
     1
102
RTVSPropertyOp38
 70
     1
102
RTVSPropertyOp39
 70
     1
102
RTVSPropertyOp40
 70
     1
102
RTVSPropertyOp41
 70
     1
102
RTVSPropertyOp42
 70
     1
102
RTVSPropertyOp43
 70
     1
102
RTVSPropertyOp44
 70
     1
102
RTVSPropertyOp45
 70
     1
102
RTVSPropertyOp46
 70
     1
102
RTVSPropertyOp47
 70
     1
102
RTVSPropertyOp48
 70
     1
102
RTVSPropertyOp49
 70
     1
102
RTVSPropertyOp50
 70
     1
102
RTVSPropertyOp51
 70
     0
102
RTVSPropertyOp52
 70
     0
102
RTVSPropertyOp53
 70
     1
102
RTVSPropertyOp54
 70
     1
102
RTVSPropertyOp55
 70
     1
102
RTVSPropertyOp56
 70
     1
102
RTVSPropertyOp57
 70
     1
102
RTVSPropertyOp58
 70
     1
102
RTVSPropertyOp59
 70
     1
102
RTVSPropertyOp60
 70
     1
102
RTVSPropertyOp61
 70
     1
102
RTVSPropertyOp62
 70
     1
  0
XRECORD
  5
639E
102
{ACAD_REACTORS
330
639D
102
}
330
639D
100
AcDbXrecord
280
     1
102
RTVSPost2010Prop28
280
     0
102
RTVSPost2010PropOp28
 70
     1
102
RTVSPost2010Prop29
280
     1
102
RTVSPost2010PropOp29
 70
     1
102
RTVSPost2010Prop30
280
     1
102
RTVSPost2010PropOp30
 70
     1
102
RTVSPost2010Prop31
280
     0
102
RTVSPost2010PropOp31
 70
     1
102
RTVSPost2010Prop32
280
     0
102
RTVSPost2010PropOp32
 70
     1
102
RTVSPost2010Prop33
280
     0
102
RTVSPost2010PropOp33
 70
     1
102
RTVSPost2010Prop34
280
     0
102
RTVSPost2010PropOp34
 70
     1
102
RTVSPost2010Prop35
280
     0
102
RTVSPost2010PropOp35
 70
     1
102
RTVSPost2010Prop36
280
     0
102
RTVSPost2010PropOp36
 70
     1
102
RTVSPost2010Prop37
 90
       50
102
RTVSPost2010PropOp37
 70
     1
102
RTVSPost2010Prop38
140
0.0
102
RTVSPost2010PropOp38
 70
     1
102
RTVSPost2010Prop39
140
1.0
102
RTVSPost2010PropOp39
 70
     1
102
RTVSPost2010Prop40
 90
        0
102
RTVSPost2010PropOp40
 70
     1
102
RTVSPost2010Prop41ColorIndex
 90
       18
102
RTVSPost2010Prop41ColorRGB
 90
        0
102
RTVSPost2010PropOp41
 70
     1
102
RTVSPost2010Prop42
 90
       50
102
RTVSPost2010PropOp42
 70
     1
102
RTVSPost2010Prop43
 90
        3
102
RTVSPost2010PropOp43
 70
     1
102
RTVSPost2010Prop44ColorIndex
 90
        5
102
RTVSPost2010Prop44ColorRGB
 90
      255
102
RTVSPost2010PropOp44
 70
     1
102
RTVSPost2010Prop45
280
     0
102
RTVSPost2010PropOp45
 70
     1
102
RTVSPost2010Prop46
 90
       50
102
RTVSPost2010PropOp46
 70
     1
102
RTVSPost2010Prop47
 90
       50
102
RTVSPost2010PropOp47
 70
     1
102
RTVSPost2010Prop48
 90
       50
102
RTVSPost2010PropOp48
 70
     1
102
RTVSPost2010Prop49
280
     0
102
RTVSPost2010PropOp49
 70
     1
102
RTVSPost2010Prop50
 90
       50
102
RTVSPost2010PropOp50
 70
     1
102
RTVSPost2010Prop51ColorIndex
 90
      256
102
RTVSPost2010Prop51ColorRGB
 90
-16777216
102
RTVSPost2010PropOp51
 70
     0
102
RTVSPost2010Prop52
140
1.0
102
RTVSPost2010PropOp52
 70
     0
102
RTVSPost2010Prop53
 90
        2
102
RTVSPost2010PropOp53
 70
     1
102
RTVSPost2010Prop54
  1
strokes_ogs.tif
102
RTVSPost2010PropOp54
 70
     1
102
RTVSPost2010Prop55
280
     0
102
RTVSPost2010PropOp55
 70
     1
102
RTVSPost2010Prop56
140
1.0
102
RTVSPost2010PropOp56
 70
     1
102
RTVSPost2010Prop57
140
1.0
102
RTVSPost2010PropOp57
 70
     1
102
RTVSPropertyOp0
 70
     1
102
RTVSPropertyOp1
 70
     1
102
RTVSPropertyOp2
 70
     1
102
RTVSPropertyOp3
 70
     1
102
RTVSPropertyOp4
 70
     1
102
RTVSPropertyOp5
 70
     1
102
RTVSPropertyOp6
 70
     1
102
RTVSPropertyOp7
 70
     1
102
RTVSPropertyOp8
 70
     1
102
RTVSPropertyOp9
 70
     1
102
RTVSPropertyOp10
 70
     1
102
RTVSPropertyOp11
 70
     1
102
RTVSPropertyOp12
 70
     1
102
RTVSPropertyOp13
 70
     1
102
RTVSPropertyOp14
 70
     1
102
RTVSPropertyOp15
 70
     1
102
RTVSPropertyOp16
 70
     1
102
RTVSPropertyOp17
 70
     1
102
RTVSPropertyOp18
 70
     1
102
RTVSPropertyOp19
 70
     1
102
RTVSPropertyOp20
 70
     1
102
RTVSPropertyOp21
 70
     1
102
RTVSPropertyOp22
 70
     1
102
RTVSPropertyOp23
 70
     1
102
RTVSPropertyOp24
 70
     1
102
RTVSPropertyOp25
 70
     1
102
RTVSPropertyOp26
 70
     1
102
RTVSPropertyOp27
 70
     1
102
RTVSPropertyOp28
 70
     1
102
RTVSPropertyOp29
 70
     1
102
RTVSPropertyOp30
 70
     1
102
RTVSPropertyOp31
 70
     1
102
RTVSPropertyOp32
 70
     1
102
RTVSPropertyOp33
 70
     1
102
RTVSPropertyOp34
 70
     1
102
RTVSPropertyOp35
 70
     1
102
RTVSPropertyOp36
 70
     1
102
RTVSPropertyOp37
 70
     1
102
RTVSPropertyOp38
 70
     1
102
RTVSPropertyOp39
 70
     1
102
RTVSPropertyOp40
 70
     1
102
RTVSPropertyOp41
 70
     1
102
RTVSPropertyOp42
 70
     1
102
RTVSPropertyOp43
 70
     1
102
RTVSPropertyOp44
 70
     1
102
RTVSPropertyOp45
 70
     1
102
RTVSPropertyOp46
 70
     1
102
RTVSPropertyOp47
 70
     1
102
RTVSPropertyOp48
 70
     1
102
RTVSPropertyOp49
 70
     1
102
RTVSPropertyOp50
 70
     1
102
RTVSPropertyOp51
 70
     0
102
RTVSPropertyOp52
 70
     0
102
RTVSPropertyOp53
 70
     1
102
RTVSPropertyOp54
 70
     1
102
RTVSPropertyOp55
 70
     1
102
RTVSPropertyOp56
 70
     1
102
RTVSPropertyOp57
 70
     1
102
RTVSPropertyOp58
 70
     1
102
RTVSPropertyOp59
 70
     1
102
RTVSPropertyOp60
 70
     1
102
RTVSPropertyOp61
 70
     1
102
RTVSPropertyOp62
 70
     1
  0
XRECORD
  5
6382
102
{ACAD_REACTORS
330
6381
102
}
330
6381
100
AcDbXrecord
280
     1
102
RTVSPost2010Prop28
280
     0
102
RTVSPost2010PropOp28
 70
     1
102
RTVSPost2010Prop29
280
     1
102
RTVSPost2010PropOp29
 70
     1
102
RTVSPost2010Prop30
280
     1
102
RTVSPost2010PropOp30
 70
     1
102
RTVSPost2010Prop31
280
     0
102
RTVSPost2010PropOp31
 70
     1
102
RTVSPost2010Prop32
280
     0
102
RTVSPost2010PropOp32
 70
     1
102
RTVSPost2010Prop33
280
     0
102
RTVSPost2010PropOp33
 70
     1
102
RTVSPost2010Prop34
280
     0
102
RTVSPost2010PropOp34
 70
     1
102
RTVSPost2010Prop35
280
     0
102
RTVSPost2010PropOp35
 70
     1
102
RTVSPost2010Prop36
280
     0
102
RTVSPost2010PropOp36
 70
     1
102
RTVSPost2010Prop37
 90
       50
102
RTVSPost2010PropOp37
 70
     1
102
RTVSPost2010Prop38
140
0.0
102
RTVSPost2010PropOp38
 70
     1
102
RTVSPost2010Prop39
140
1.0
102
RTVSPost2010PropOp39
 70
     1
102
RTVSPost2010Prop40
 90
        0
102
RTVSPost2010PropOp40
 70
     1
102
RTVSPost2010Prop41ColorIndex
 90
       18
102
RTVSPost2010Prop41ColorRGB
 90
        0
102
RTVSPost2010PropOp41
 70
     1
102
RTVSPost2010Prop42
 90
       50
102
RTVSPost2010PropOp42
 70
     1
102
RTVSPost2010Prop43
 90
        3
102
RTVSPost2010PropOp43
 70
     1
102
RTVSPost2010Prop44ColorIndex
 90
        5
102
RTVSPost2010Prop44ColorRGB
 90
      255
102
RTVSPost2010PropOp44
 70
     1
102
RTVSPost2010Prop45
280
     0
102
RTVSPost2010PropOp45
 70
     1
102
RTVSPost2010Prop46
 90
       50
102
RTVSPost2010PropOp46
 70
     1
102
RTVSPost2010Prop47
 90
       50
102
RTVSPost2010PropOp47
 70
     1
102
RTVSPost2010Prop48
 90
       50
102
RTVSPost2010PropOp48
 70
     1
102
RTVSPost2010Prop49
280
     0
102
RTVSPost2010PropOp49
 70
     1
102
RTVSPost2010Prop50
 90
       50
102
RTVSPost2010PropOp50
 70
     1
102
RTVSPost2010Prop51ColorIndex
 90
      256
102
RTVSPost2010Prop51ColorRGB
 90
-16777216
102
RTVSPost2010PropOp51
 70
     0
102
RTVSPost2010Prop52
140
1.0
102
RTVSPost2010PropOp52
 70
     0
102
RTVSPost2010Prop53
 90
        2
102
RTVSPost2010PropOp53
 70
     1
102
RTVSPost2010Prop54
  1
strokes_ogs.tif
102
RTVSPost2010PropOp54
 70
     1
102
RTVSPost2010Prop55
280
     0
102
RTVSPost2010PropOp55
 70
     1
102
RTVSPost2010Prop56
140
1.0
102
RTVSPost2010PropOp56
 70
     1
102
RTVSPost2010Prop57
140
1.0
102
RTVSPost2010PropOp57
 70
     1
102
RTVSPropertyOp0
 70
     1
102
RTVSPropertyOp1
 70
     1
102
RTVSPropertyOp2
 70
     1
102
RTVSPropertyOp3
 70
     1
102
RTVSPropertyOp4
 70
     1
102
RTVSPropertyOp5
 70
     1
102
RTVSPropertyOp6
 70
     1
102
RTVSPropertyOp7
 70
     1
102
RTVSPropertyOp8
 70
     1
102
RTVSPropertyOp9
 70
     1
102
RTVSPropertyOp10
 70
     1
102
RTVSPropertyOp11
 70
     1
102
RTVSPropertyOp12
 70
     1
102
RTVSPropertyOp13
 70
     1
102
RTVSPropertyOp14
 70
     1
102
RTVSPropertyOp15
 70
     1
102
RTVSPropertyOp16
 70
     1
102
RTVSPropertyOp17
 70
     1
102
RTVSPropertyOp18
 70
     1
102
RTVSPropertyOp19
 70
     1
102
RTVSPropertyOp20
 70
     1
102
RTVSPropertyOp21
 70
     1
102
RTVSPropertyOp22
 70
     1
102
RTVSPropertyOp23
 70
     1
102
RTVSPropertyOp24
 70
     1
102
RTVSPropertyOp25
 70
     1
102
RTVSPropertyOp26
 70
     1
102
RTVSPropertyOp27
 70
     1
102
RTVSPropertyOp28
 70
     1
102
RTVSPropertyOp29
 70
     1
102
RTVSPropertyOp30
 70
     1
102
RTVSPropertyOp31
 70
     1
102
RTVSPropertyOp32
 70
     1
102
RTVSPropertyOp33
 70
     1
102
RTVSPropertyOp34
 70
     1
102
RTVSPropertyOp35
 70
     1
102
RTVSPropertyOp36
 70
     1
102
RTVSPropertyOp37
 70
     1
102
RTVSPropertyOp38
 70
     1
102
RTVSPropertyOp39
 70
     1
102
RTVSPropertyOp40
 70
     1
102
RTVSPropertyOp41
 70
     1
102
RTVSPropertyOp42
 70
     1
102
RTVSPropertyOp43
 70
     1
102
RTVSPropertyOp44
 70
     1
102
RTVSPropertyOp45
 70
     1
102
RTVSPropertyOp46
 70
     1
102
RTVSPropertyOp47
 70
     1
102
RTVSPropertyOp48
 70
     1
102
RTVSPropertyOp49
 70
     1
102
RTVSPropertyOp50
 70
     1
102
RTVSPropertyOp51
 70
     0
102
RTVSPropertyOp52
 70
     0
102
RTVSPropertyOp53
 70
     1
102
RTVSPropertyOp54
 70
     1
102
RTVSPropertyOp55
 70
     1
102
RTVSPropertyOp56
 70
     1
102
RTVSPropertyOp57
 70
     1
102
RTVSPropertyOp58
 70
     1
102
RTVSPropertyOp59
 70
     1
102
RTVSPropertyOp60
 70
     1
102
RTVSPropertyOp61
 70
     1
102
RTVSPropertyOp62
 70
     1
  0
XRECORD
  5
6384
102
{ACAD_REACTORS
330
6383
102
}
330
6383
100
AcDbXrecord
280
     1
102
RTVSPost2010Prop28
280
     0
102
RTVSPost2010PropOp28
 70
     1
102
RTVSPost2010Prop29
280
     1
102
RTVSPost2010PropOp29
 70
     1
102
RTVSPost2010Prop30
280
     1
102
RTVSPost2010PropOp30
 70
     1
102
RTVSPost2010Prop31
280
     0
102
RTVSPost2010PropOp31
 70
     1
102
RTVSPost2010Prop32
280
     0
102
RTVSPost2010PropOp32
 70
     1
102
RTVSPost2010Prop33
280
     0
102
RTVSPost2010PropOp33
 70
     1
102
RTVSPost2010Prop34
280
     0
102
RTVSPost2010PropOp34
 70
     1
102
RTVSPost2010Prop35
280
     0
102
RTVSPost2010PropOp35
 70
     1
102
RTVSPost2010Prop36
280
     0
102
RTVSPost2010PropOp36
 70
     1
102
RTVSPost2010Prop37
 90
       50
102
RTVSPost2010PropOp37
 70
     1
102
RTVSPost2010Prop38
140
0.0
102
RTVSPost2010PropOp38
 70
     1
102
RTVSPost2010Prop39
140
1.0
102
RTVSPost2010PropOp39
 70
     1
102
RTVSPost2010Prop40
 90
        0
102
RTVSPost2010PropOp40
 70
     1
102
RTVSPost2010Prop41ColorIndex
 90
       18
102
RTVSPost2010Prop41ColorRGB
 90
        0
102
RTVSPost2010PropOp41
 70
     1
102
RTVSPost2010Prop42
 90
       50
102
RTVSPost2010PropOp42
 70
     1
102
RTVSPost2010Prop43
 90
        3
102
RTVSPost2010PropOp43
 70
     1
102
RTVSPost2010Prop44ColorIndex
 90
        5
102
RTVSPost2010Prop44ColorRGB
 90
      255
102
RTVSPost2010PropOp44
 70
     1
102
RTVSPost2010Prop45
280
     0
102
RTVSPost2010PropOp45
 70
     1
102
RTVSPost2010Prop46
 90
       50
102
RTVSPost2010PropOp46
 70
     1
102
RTVSPost2010Prop47
 90
       50
102
RTVSPost2010PropOp47
 70
     1
102
RTVSPost2010Prop48
 90
       50
102
RTVSPost2010PropOp48
 70
     1
102
RTVSPost2010Prop49
280
     0
102
RTVSPost2010PropOp49
 70
     1
102
RTVSPost2010Prop50
 90
       50
102
RTVSPost2010PropOp50
 70
     1
102
RTVSPost2010Prop51ColorIndex
 90
      256
102
RTVSPost2010Prop51ColorRGB
 90
-16777216
102
RTVSPost2010PropOp51
 70
     0
102
RTVSPost2010Prop52
140
1.0
102
RTVSPost2010PropOp52
 70
     0
102
RTVSPost2010Prop53
 90
        2
102
RTVSPost2010PropOp53
 70
     1
102
RTVSPost2010Prop54
  1
strokes_ogs.tif
102
RTVSPost2010PropOp54
 70
     1
102
RTVSPost2010Prop55
280
     0
102
RTVSPost2010PropOp55
 70
     1
102
RTVSPost2010Prop56
140
1.0
102
RTVSPost2010PropOp56
 70
     1
102
RTVSPost2010Prop57
140
1.0
102
RTVSPost2010PropOp57
 70
     1
102
RTVSPropertyOp0
 70
     1
102
RTVSPropertyOp1
 70
     1
102
RTVSPropertyOp2
 70
     1
102
RTVSPropertyOp3
 70
     1
102
RTVSPropertyOp4
 70
     1
102
RTVSPropertyOp5
 70
     1
102
RTVSPropertyOp6
 70
     1
102
RTVSPropertyOp7
 70
     1
102
RTVSPropertyOp8
 70
     1
102
RTVSPropertyOp9
 70
     1
102
RTVSPropertyOp10
 70
     1
102
RTVSPropertyOp11
 70
     1
102
RTVSPropertyOp12
 70
     1
102
RTVSPropertyOp13
 70
     1
102
RTVSPropertyOp14
 70
     1
102
RTVSPropertyOp15
 70
     1
102
RTVSPropertyOp16
 70
     1
102
RTVSPropertyOp17
 70
     1
102
RTVSPropertyOp18
 70
     1
102
RTVSPropertyOp19
 70
     1
102
RTVSPropertyOp20
 70
     1
102
RTVSPropertyOp21
 70
     1
102
RTVSPropertyOp22
 70
     1
102
RTVSPropertyOp23
 70
     1
102
RTVSPropertyOp24
 70
     1
102
RTVSPropertyOp25
 70
     1
102
RTVSPropertyOp26
 70
     1
102
RTVSPropertyOp27
 70
     1
102
RTVSPropertyOp28
 70
     1
102
RTVSPropertyOp29
 70
     1
102
RTVSPropertyOp30
 70
     1
102
RTVSPropertyOp31
 70
     1
102
RTVSPropertyOp32
 70
     1
102
RTVSPropertyOp33
 70
     1
102
RTVSPropertyOp34
 70
     1
102
RTVSPropertyOp35
 70
     1
102
RTVSPropertyOp36
 70
     1
102
RTVSPropertyOp37
 70
     1
102
RTVSPropertyOp38
 70
     1
102
RTVSPropertyOp39
 70
     1
102
RTVSPropertyOp40
 70
     1
102
RTVSPropertyOp41
 70
     1
102
RTVSPropertyOp42
 70
     1
102
RTVSPropertyOp43
 70
     1
102
RTVSPropertyOp44
 70
     1
102
RTVSPropertyOp45
 70
     1
102
RTVSPropertyOp46
 70
     1
102
RTVSPropertyOp47
 70
     1
102
RTVSPropertyOp48
 70
     1
102
RTVSPropertyOp49
 70
     1
102
RTVSPropertyOp50
 70
     1
102
RTVSPropertyOp51
 70
     0
102
RTVSPropertyOp52
 70
     0
102
RTVSPropertyOp53
 70
     1
102
RTVSPropertyOp54
 70
     1
102
RTVSPropertyOp55
 70
     1
102
RTVSPropertyOp56
 70
     1
102
RTVSPropertyOp57
 70
     1
102
RTVSPropertyOp58
 70
     1
102
RTVSPropertyOp59
 70
     1
102
RTVSPropertyOp60
 70
     1
102
RTVSPropertyOp61
 70
     1
102
RTVSPropertyOp62
 70
     1
  0
XRECORD
  5
6386
102
{ACAD_REACTORS
330
6385
102
}
330
6385
100
AcDbXrecord
280
     1
102
RTVSPost2010Prop28
280
     0
102
RTVSPost2010PropOp28
 70
     1
102
RTVSPost2010Prop29
280
     1
102
RTVSPost2010PropOp29
 70
     1
102
RTVSPost2010Prop30
280
     1
102
RTVSPost2010PropOp30
 70
     1
102
RTVSPost2010Prop31
280
     0
102
RTVSPost2010PropOp31
 70
     1
102
RTVSPost2010Prop32
280
     0
102
RTVSPost2010PropOp32
 70
     1
102
RTVSPost2010Prop33
280
     0
102
RTVSPost2010PropOp33
 70
     1
102
RTVSPost2010Prop34
280
     0
102
RTVSPost2010PropOp34
 70
     1
102
RTVSPost2010Prop35
280
     0
102
RTVSPost2010PropOp35
 70
     1
102
RTVSPost2010Prop36
280
     0
102
RTVSPost2010PropOp36
 70
     1
102
RTVSPost2010Prop37
 90
       50
102
RTVSPost2010PropOp37
 70
     1
102
RTVSPost2010Prop38
140
0.0
102
RTVSPost2010PropOp38
 70
     1
102
RTVSPost2010Prop39
140
1.0
102
RTVSPost2010PropOp39
 70
     1
102
RTVSPost2010Prop40
 90
        0
102
RTVSPost2010PropOp40
 70
     1
102
RTVSPost2010Prop41ColorIndex
 90
       18
102
RTVSPost2010Prop41ColorRGB
 90
        0
102
RTVSPost2010PropOp41
 70
     1
102
RTVSPost2010Prop42
 90
       50
102
RTVSPost2010PropOp42
 70
     1
102
RTVSPost2010Prop43
 90
        3
102
RTVSPost2010PropOp43
 70
     1
102
RTVSPost2010Prop44ColorIndex
 90
        5
102
RTVSPost2010Prop44ColorRGB
 90
      255
102
RTVSPost2010PropOp44
 70
     1
102
RTVSPost2010Prop45
280
     0
102
RTVSPost2010PropOp45
 70
     1
102
RTVSPost2010Prop46
 90
       50
102
RTVSPost2010PropOp46
 70
     1
102
RTVSPost2010Prop47
 90
       50
102
RTVSPost2010PropOp47
 70
     1
102
RTVSPost2010Prop48
 90
       50
102
RTVSPost2010PropOp48
 70
     1
102
RTVSPost2010Prop49
280
     0
102
RTVSPost2010PropOp49
 70
     1
102
RTVSPost2010Prop50
 90
       50
102
RTVSPost2010PropOp50
 70
     1
102
RTVSPost2010Prop51ColorIndex
 90
      256
102
RTVSPost2010Prop51ColorRGB
 90
-16777216
102
RTVSPost2010PropOp51
 70
     0
102
RTVSPost2010Prop52
140
1.0
102
RTVSPost2010PropOp52
 70
     0
102
RTVSPost2010Prop53
 90
        2
102
RTVSPost2010PropOp53
 70
     1
102
RTVSPost2010Prop54
  1
strokes_ogs.tif
102
RTVSPost2010PropOp54
 70
     1
102
RTVSPost2010Prop55
280
     0
102
RTVSPost2010PropOp55
 70
     1
102
RTVSPost2010Prop56
140
1.0
102
RTVSPost2010PropOp56
 70
     1
102
RTVSPost2010Prop57
140
1.0
102
RTVSPost2010PropOp57
 70
     1
102
RTVSPropertyOp0
 70
     1
102
RTVSPropertyOp1
 70
     1
102
RTVSPropertyOp2
 70
     1
102
RTVSPropertyOp3
 70
     1
102
RTVSPropertyOp4
 70
     1
102
RTVSPropertyOp5
 70
     1
102
RTVSPropertyOp6
 70
     1
102
RTVSPropertyOp7
 70
     1
102
RTVSPropertyOp8
 70
     1
102
RTVSPropertyOp9
 70
     1
102
RTVSPropertyOp10
 70
     1
102
RTVSPropertyOp11
 70
     1
102
RTVSPropertyOp12
 70
     1
102
RTVSPropertyOp13
 70
     1
102
RTVSPropertyOp14
 70
     1
102
RTVSPropertyOp15
 70
     1
102
RTVSPropertyOp16
 70
     1
102
RTVSPropertyOp17
 70
     1
102
RTVSPropertyOp18
 70
     1
102
RTVSPropertyOp19
 70
     1
102
RTVSPropertyOp20
 70
     1
102
RTVSPropertyOp21
 70
     1
102
RTVSPropertyOp22
 70
     1
102
RTVSPropertyOp23
 70
     1
102
RTVSPropertyOp24
 70
     1
102
RTVSPropertyOp25
 70
     1
102
RTVSPropertyOp26
 70
     1
102
RTVSPropertyOp27
 70
     1
102
RTVSPropertyOp28
 70
     1
102
RTVSPropertyOp29
 70
     1
102
RTVSPropertyOp30
 70
     1
102
RTVSPropertyOp31
 70
     1
102
RTVSPropertyOp32
 70
     1
102
RTVSPropertyOp33
 70
     1
102
RTVSPropertyOp34
 70
     1
102
RTVSPropertyOp35
 70
     1
102
RTVSPropertyOp36
 70
     1
102
RTVSPropertyOp37
 70
     1
102
RTVSPropertyOp38
 70
     1
102
RTVSPropertyOp39
 70
     1
102
RTVSPropertyOp40
 70
     1
102
RTVSPropertyOp41
 70
     1
102
RTVSPropertyOp42
 70
     1
102
RTVSPropertyOp43
 70
     1
102
RTVSPropertyOp44
 70
     1
102
RTVSPropertyOp45
 70
     1
102
RTVSPropertyOp46
 70
     1
102
RTVSPropertyOp47
 70
     1
102
RTVSPropertyOp48
 70
     1
102
RTVSPropertyOp49
 70
     1
102
RTVSPropertyOp50
 70
     1
102
RTVSPropertyOp51
 70
     0
102
RTVSPropertyOp52
 70
     0
102
RTVSPropertyOp53
 70
     1
102
RTVSPropertyOp54
 70
     1
102
RTVSPropertyOp55
 70
     1
102
RTVSPropertyOp56
 70
     1
102
RTVSPropertyOp57
 70
     1
102
RTVSPropertyOp58
 70
     1
102
RTVSPropertyOp59
 70
     1
102
RTVSPropertyOp60
 70
     1
102
RTVSPropertyOp61
 70
     1
102
RTVSPropertyOp62
 70
     1
  0
XRECORD
  5
6388
102
{ACAD_REACTORS
330
6387
102
}
330
6387
100
AcDbXrecord
280
     1
102
RTVSPost2010Prop28
280
     0
102
RTVSPost2010PropOp28
 70
     1
102
RTVSPost2010Prop29
280
     1
102
RTVSPost2010PropOp29
 70
     1
102
RTVSPost2010Prop30
280
     1
102
RTVSPost2010PropOp30
 70
     1
102
RTVSPost2010Prop31
280
     0
102
RTVSPost2010PropOp31
 70
     1
102
RTVSPost2010Prop32
280
     0
102
RTVSPost2010PropOp32
 70
     1
102
RTVSPost2010Prop33
280
     0
102
RTVSPost2010PropOp33
 70
     1
102
RTVSPost2010Prop34
280
     0
102
RTVSPost2010PropOp34
 70
     1
102
RTVSPost2010Prop35
280
     0
102
RTVSPost2010PropOp35
 70
     1
102
RTVSPost2010Prop36
280
     0
102
RTVSPost2010PropOp36
 70
     1
102
RTVSPost2010Prop37
 90
       50
102
RTVSPost2010PropOp37
 70
     1
102
RTVSPost2010Prop38
140
0.0
102
RTVSPost2010PropOp38
 70
     1
102
RTVSPost2010Prop39
140
1.0
102
RTVSPost2010PropOp39
 70
     1
102
RTVSPost2010Prop40
 90
        0
102
RTVSPost2010PropOp40
 70
     1
102
RTVSPost2010Prop41ColorIndex
 90
       18
102
RTVSPost2010Prop41ColorRGB
 90
        0
102
RTVSPost2010PropOp41
 70
     1
102
RTVSPost2010Prop42
 90
       50
102
RTVSPost2010PropOp42
 70
     1
102
RTVSPost2010Prop43
 90
        3
102
RTVSPost2010PropOp43
 70
     1
102
RTVSPost2010Prop44ColorIndex
 90
        5
102
RTVSPost2010Prop44ColorRGB
 90
      255
102
RTVSPost2010PropOp44
 70
     1
102
RTVSPost2010Prop45
280
     0
102
RTVSPost2010PropOp45
 70
     1
102
RTVSPost2010Prop46
 90
       50
102
RTVSPost2010PropOp46
 70
     1
102
RTVSPost2010Prop47
 90
       50
102
RTVSPost2010PropOp47
 70
     1
102
RTVSPost2010Prop48
 90
       50
102
RTVSPost2010PropOp48
 70
     1
102
RTVSPost2010Prop49
280
     0
102
RTVSPost2010PropOp49
 70
     1
102
RTVSPost2010Prop50
 90
       50
102
RTVSPost2010PropOp50
 70
     1
102
RTVSPost2010Prop51ColorIndex
 90
      256
102
RTVSPost2010Prop51ColorRGB
 90
-16777216
102
RTVSPost2010PropOp51
 70
     0
102
RTVSPost2010Prop52
140
1.0
102
RTVSPost2010PropOp52
 70
     0
102
RTVSPost2010Prop53
 90
        2
102
RTVSPost2010PropOp53
 70
     1
102
RTVSPost2010Prop54
  1
strokes_ogs.tif
102
RTVSPost2010PropOp54
 70
     1
102
RTVSPost2010Prop55
280
     0
102
RTVSPost2010PropOp55
 70
     1
102
RTVSPost2010Prop56
140
1.0
102
RTVSPost2010PropOp56
 70
     1
102
RTVSPost2010Prop57
140
1.0
102
RTVSPost2010PropOp57
 70
     1
102
RTVSPropertyOp0
 70
     1
102
RTVSPropertyOp1
 70
     1
102
RTVSPropertyOp2
 70
     1
102
RTVSPropertyOp3
 70
     1
102
RTVSPropertyOp4
 70
     1
102
RTVSPropertyOp5
 70
     1
102
RTVSPropertyOp6
 70
     1
102
RTVSPropertyOp7
 70
     1
102
RTVSPropertyOp8
 70
     1
102
RTVSPropertyOp9
 70
     1
102
RTVSPropertyOp10
 70
     1
102
RTVSPropertyOp11
 70
     1
102
RTVSPropertyOp12
 70
     1
102
RTVSPropertyOp13
 70
     1
102
RTVSPropertyOp14
 70
     1
102
RTVSPropertyOp15
 70
     1
102
RTVSPropertyOp16
 70
     1
102
RTVSPropertyOp17
 70
     1
102
RTVSPropertyOp18
 70
     1
102
RTVSPropertyOp19
 70
     1
102
RTVSPropertyOp20
 70
     1
102
RTVSPropertyOp21
 70
     1
102
RTVSPropertyOp22
 70
     1
102
RTVSPropertyOp23
 70
     1
102
RTVSPropertyOp24
 70
     1
102
RTVSPropertyOp25
 70
     1
102
RTVSPropertyOp26
 70
     1
102
RTVSPropertyOp27
 70
     1
102
RTVSPropertyOp28
 70
     1
102
RTVSPropertyOp29
 70
     1
102
RTVSPropertyOp30
 70
     1
102
RTVSPropertyOp31
 70
     1
102
RTVSPropertyOp32
 70
     1
102
RTVSPropertyOp33
 70
     1
102
RTVSPropertyOp34
 70
     1
102
RTVSPropertyOp35
 70
     1
102
RTVSPropertyOp36
 70
     1
102
RTVSPropertyOp37
 70
     1
102
RTVSPropertyOp38
 70
     1
102
RTVSPropertyOp39
 70
     1
102
RTVSPropertyOp40
 70
     1
102
RTVSPropertyOp41
 70
     1
102
RTVSPropertyOp42
 70
     1
102
RTVSPropertyOp43
 70
     1
102
RTVSPropertyOp44
 70
     1
102
RTVSPropertyOp45
 70
     1
102
RTVSPropertyOp46
 70
     1
102
RTVSPropertyOp47
 70
     1
102
RTVSPropertyOp48
 70
     1
102
RTVSPropertyOp49
 70
     1
102
RTVSPropertyOp50
 70
     1
102
RTVSPropertyOp51
 70
     0
102
RTVSPropertyOp52
 70
     0
102
RTVSPropertyOp53
 70
     1
102
RTVSPropertyOp54
 70
     1
102
RTVSPropertyOp55
 70
     1
102
RTVSPropertyOp56
 70
     1
102
RTVSPropertyOp57
 70
     1
102
RTVSPropertyOp58
 70
     1
102
RTVSPropertyOp59
 70
     1
102
RTVSPropertyOp60
 70
     1
102
RTVSPropertyOp61
 70
     1
102
RTVSPropertyOp62
 70
     1
  0
XRECORD
  5
6390
102
{ACAD_REACTORS
330
638F
102
}
330
638F
100
AcDbXrecord
280
     1
102
RTVSPost2010Prop28
280
     0
102
RTVSPost2010PropOp28
 70
     1
102
RTVSPost2010Prop29
280
     1
102
RTVSPost2010PropOp29
 70
     1
102
RTVSPost2010Prop30
280
     1
102
RTVSPost2010PropOp30
 70
     1
102
RTVSPost2010Prop31
280
     0
102
RTVSPost2010PropOp31
 70
     1
102
RTVSPost2010Prop32
280
     0
102
RTVSPost2010PropOp32
 70
     1
102
RTVSPost2010Prop33
280
     0
102
RTVSPost2010PropOp33
 70
     1
102
RTVSPost2010Prop34
280
     0
102
RTVSPost2010PropOp34
 70
     1
102
RTVSPost2010Prop35
280
     0
102
RTVSPost2010PropOp35
 70
     1
102
RTVSPost2010Prop36
280
     0
102
RTVSPost2010PropOp36
 70
     1
102
RTVSPost2010Prop37
 90
       50
102
RTVSPost2010PropOp37
 70
     1
102
RTVSPost2010Prop38
140
0.0
102
RTVSPost2010PropOp38
 70
     1
102
RTVSPost2010Prop39
140
1.0
102
RTVSPost2010PropOp39
 70
     1
102
RTVSPost2010Prop40
 90
        0
102
RTVSPost2010PropOp40
 70
     1
102
RTVSPost2010Prop41ColorIndex
 90
       18
102
RTVSPost2010Prop41ColorRGB
 90
        0
102
RTVSPost2010PropOp41
 70
     1
102
RTVSPost2010Prop42
 90
       50
102
RTVSPost2010PropOp42
 70
     1
102
RTVSPost2010Prop43
 90
        3
102
RTVSPost2010PropOp43
 70
     1
102
RTVSPost2010Prop44ColorIndex
 90
        5
102
RTVSPost2010Prop44ColorRGB
 90
      255
102
RTVSPost2010PropOp44
 70
     1
102
RTVSPost2010Prop45
280
     0
102
RTVSPost2010PropOp45
 70
     1
102
RTVSPost2010Prop46
 90
       50
102
RTVSPost2010PropOp46
 70
     1
102
RTVSPost2010Prop47
 90
       50
102
RTVSPost2010PropOp47
 70
     1
102
RTVSPost2010Prop48
 90
       50
102
RTVSPost2010PropOp48
 70
     1
102
RTVSPost2010Prop49
280
     0
102
RTVSPost2010PropOp49
 70
     1
102
RTVSPost2010Prop50
 90
       50
102
RTVSPost2010PropOp50
 70
     1
102
RTVSPost2010Prop51ColorIndex
 90
      256
102
RTVSPost2010Prop51ColorRGB
 90
-16777216
102
RTVSPost2010PropOp51
 70
     0
102
RTVSPost2010Prop52
140
1.0
102
RTVSPost2010PropOp52
 70
     0
102
RTVSPost2010Prop53
 90
        2
102
RTVSPost2010PropOp53
 70
     1
102
RTVSPost2010Prop54
  1
strokes_ogs.tif
102
RTVSPost2010PropOp54
 70
     1
102
RTVSPost2010Prop55
280
     0
102
RTVSPost2010PropOp55
 70
     1
102
RTVSPost2010Prop56
140
1.0
102
RTVSPost2010PropOp56
 70
     1
102
RTVSPost2010Prop57
140
1.0
102
RTVSPost2010PropOp57
 70
     1
102
RTVSPropertyOp0
 70
     1
102
RTVSPropertyOp1
 70
     1
102
RTVSPropertyOp2
 70
     1
102
RTVSPropertyOp3
 70
     1
102
RTVSPropertyOp4
 70
     1
102
RTVSPropertyOp5
 70
     1
102
RTVSPropertyOp6
 70
     1
102
RTVSPropertyOp7
 70
     1
102
RTVSPropertyOp8
 70
     1
102
RTVSPropertyOp9
 70
     1
102
RTVSPropertyOp10
 70
     1
102
RTVSPropertyOp11
 70
     1
102
RTVSPropertyOp12
 70
     1
102
RTVSPropertyOp13
 70
     1
102
RTVSPropertyOp14
 70
     1
102
RTVSPropertyOp15
 70
     1
102
RTVSPropertyOp16
 70
     1
102
RTVSPropertyOp17
 70
     1
102
RTVSPropertyOp18
 70
     1
102
RTVSPropertyOp19
 70
     1
102
RTVSPropertyOp20
 70
     1
102
RTVSPropertyOp21
 70
     1
102
RTVSPropertyOp22
 70
     1
102
RTVSPropertyOp23
 70
     1
102
RTVSPropertyOp24
 70
     1
102
RTVSPropertyOp25
 70
     1
102
RTVSPropertyOp26
 70
     1
102
RTVSPropertyOp27
 70
     1
102
RTVSPropertyOp28
 70
     1
102
RTVSPropertyOp29
 70
     1
102
RTVSPropertyOp30
 70
     1
102
RTVSPropertyOp31
 70
     1
102
RTVSPropertyOp32
 70
     1
102
RTVSPropertyOp33
 70
     1
102
RTVSPropertyOp34
 70
     1
102
RTVSPropertyOp35
 70
     1
102
RTVSPropertyOp36
 70
     1
102
RTVSPropertyOp37
 70
     1
102
RTVSPropertyOp38
 70
     1
102
RTVSPropertyOp39
 70
     1
102
RTVSPropertyOp40
 70
     1
102
RTVSPropertyOp41
 70
     1
102
RTVSPropertyOp42
 70
     1
102
RTVSPropertyOp43
 70
     1
102
RTVSPropertyOp44
 70
     1
102
RTVSPropertyOp45
 70
     1
102
RTVSPropertyOp46
 70
     1
102
RTVSPropertyOp47
 70
     1
102
RTVSPropertyOp48
 70
     1
102
RTVSPropertyOp49
 70
     1
102
RTVSPropertyOp50
 70
     1
102
RTVSPropertyOp51
 70
     0
102
RTVSPropertyOp52
 70
     0
102
RTVSPropertyOp53
 70
     1
102
RTVSPropertyOp54
 70
     1
102
RTVSPropertyOp55
 70
     1
102
RTVSPropertyOp56
 70
     1
102
RTVSPropertyOp57
 70
     1
102
RTVSPropertyOp58
 70
     1
102
RTVSPropertyOp59
 70
     1
102
RTVSPropertyOp60
 70
     1
102
RTVSPropertyOp61
 70
     1
102
RTVSPropertyOp62
 70
     1
  0
XRECORD
  5
63A4
102
{ACAD_REACTORS
330
63A3
102
}
330
63A3
100
AcDbXrecord
280
     1
102
RTVSPost2010Prop28
280
     0
102
RTVSPost2010PropOp28
 70
     1
102
RTVSPost2010Prop29
280
     1
102
RTVSPost2010PropOp29
 70
     1
102
RTVSPost2010Prop30
280
     1
102
RTVSPost2010PropOp30
 70
     1
102
RTVSPost2010Prop31
280
     0
102
RTVSPost2010PropOp31
 70
     1
102
RTVSPost2010Prop32
280
     0
102
RTVSPost2010PropOp32
 70
     1
102
RTVSPost2010Prop33
280
     0
102
RTVSPost2010PropOp33
 70
     1
102
RTVSPost2010Prop34
280
     0
102
RTVSPost2010PropOp34
 70
     1
102
RTVSPost2010Prop35
280
     0
102
RTVSPost2010PropOp35
 70
     1
102
RTVSPost2010Prop36
280
     0
102
RTVSPost2010PropOp36
 70
     1
102
RTVSPost2010Prop37
 90
       50
102
RTVSPost2010PropOp37
 70
     1
102
RTVSPost2010Prop38
140
0.0
102
RTVSPost2010PropOp38
 70
     1
102
RTVSPost2010Prop39
140
1.0
102
RTVSPost2010PropOp39
 70
     1
102
RTVSPost2010Prop40
 90
        0
102
RTVSPost2010PropOp40
 70
     1
102
RTVSPost2010Prop41ColorIndex
 90
       18
102
RTVSPost2010Prop41ColorRGB
 90
        0
102
RTVSPost2010PropOp41
 70
     1
102
RTVSPost2010Prop42
 90
       50
102
RTVSPost2010PropOp42
 70
     1
102
RTVSPost2010Prop43
 90
        3
102
RTVSPost2010PropOp43
 70
     1
102
RTVSPost2010Prop44ColorIndex
 90
        5
102
RTVSPost2010Prop44ColorRGB
 90
      255
102
RTVSPost2010PropOp44
 70
     1
102
RTVSPost2010Prop45
280
     0
102
RTVSPost2010PropOp45
 70
     1
102
RTVSPost2010Prop46
 90
       50
102
RTVSPost2010PropOp46
 70
     1
102
RTVSPost2010Prop47
 90
       50
102
RTVSPost2010PropOp47
 70
     1
102
RTVSPost2010Prop48
 90
       50
102
RTVSPost2010PropOp48
 70
     1
102
RTVSPost2010Prop49
280
     0
102
RTVSPost2010PropOp49
 70
     1
102
RTVSPost2010Prop50
 90
       50
102
RTVSPost2010PropOp50
 70
     1
102
RTVSPost2010Prop51ColorIndex
 90
      256
102
RTVSPost2010Prop51ColorRGB
 90
-16777216
102
RTVSPost2010PropOp51
 70
     0
102
RTVSPost2010Prop52
140
1.0
102
RTVSPost2010PropOp52
 70
     0
102
RTVSPost2010Prop53
 90
        2
102
RTVSPost2010PropOp53
 70
     1
102
RTVSPost2010Prop54
  1
strokes_ogs.tif
102
RTVSPost2010PropOp54
 70
     1
102
RTVSPost2010Prop55
280
     0
102
RTVSPost2010PropOp55
 70
     1
102
RTVSPost2010Prop56
140
1.0
102
RTVSPost2010PropOp56
 70
     1
102
RTVSPost2010Prop57
140
1.0
102
RTVSPost2010PropOp57
 70
     1
102
RTVSPropertyOp0
 70
     0
102
RTVSPropertyOp1
 70
     0
102
RTVSPropertyOp2
 70
     0
102
RTVSPropertyOp3
 70
     0
102
RTVSPropertyOp4
 70
     0
102
RTVSPropertyOp5
 70
     0
102
RTVSPropertyOp6
 70
     0
102
RTVSPropertyOp7
 70
     0
102
RTVSPropertyOp8
 70
     0
102
RTVSPropertyOp9
 70
     0
102
RTVSPropertyOp10
 70
     0
102
RTVSPropertyOp11
 70
     0
102
RTVSPropertyOp12
 70
     0
102
RTVSPropertyOp13
 70
     0
102
RTVSPropertyOp14
 70
     2
102
RTVSPropertyOp15
 70
     0
102
RTVSPropertyOp16
 70
     0
102
RTVSPropertyOp17
 70
     0
102
RTVSPropertyOp18
 70
     0
102
RTVSPropertyOp19
 70
     0
102
RTVSPropertyOp20
 70
     0
102
RTVSPropertyOp21
 70
     0
102
RTVSPropertyOp22
 70
     0
102
RTVSPropertyOp23
 70
     0
102
RTVSPropertyOp24
 70
     0
102
RTVSPropertyOp25
 70
     0
102
RTVSPropertyOp26
 70
     0
102
RTVSPropertyOp27
 70
     0
102
RTVSPropertyOp28
 70
     1
102
RTVSPropertyOp29
 70
     1
102
RTVSPropertyOp30
 70
     1
102
RTVSPropertyOp31
 70
     1
102
RTVSPropertyOp32
 70
     1
102
RTVSPropertyOp33
 70
     1
102
RTVSPropertyOp34
 70
     1
102
RTVSPropertyOp35
 70
     1
102
RTVSPropertyOp36
 70
     1
102
RTVSPropertyOp37
 70
     1
102
RTVSPropertyOp38
 70
     1
102
RTVSPropertyOp39
 70
     1
102
RTVSPropertyOp40
 70
     1
102
RTVSPropertyOp41
 70
     1
102
RTVSPropertyOp42
 70
     1
102
RTVSPropertyOp43
 70
     1
102
RTVSPropertyOp44
 70
     1
102
RTVSPropertyOp45
 70
     1
102
RTVSPropertyOp46
 70
     1
102
RTVSPropertyOp47
 70
     1
102
RTVSPropertyOp48
 70
     1
102
RTVSPropertyOp49
 70
     1
102
RTVSPropertyOp50
 70
     1
102
RTVSPropertyOp51
 70
     0
102
RTVSPropertyOp52
 70
     0
102
RTVSPropertyOp53
 70
     1
102
RTVSPropertyOp54
 70
     1
102
RTVSPropertyOp55
 70
     1
102
RTVSPropertyOp56
 70
     1
102
RTVSPropertyOp57
 70
     1
102
RTVSPropertyOp58
 70
     1
102
RTVSPropertyOp59
 70
     1
102
RTVSPropertyOp60
 70
     1
102
RTVSPropertyOp61
 70
     1
102
RTVSPropertyOp62
 70
     1
  0
XRECORD
  5
639C
102
{ACAD_REACTORS
330
639B
102
}
330
639B
100
AcDbXrecord
280
     1
102
RTVSPost2010Prop28
280
     0
102
RTVSPost2010PropOp28
 70
     1
102
RTVSPost2010Prop29
280
     1
102
RTVSPost2010PropOp29
 70
     1
102
RTVSPost2010Prop30
280
     1
102
RTVSPost2010PropOp30
 70
     1
102
RTVSPost2010Prop31
280
     0
102
RTVSPost2010PropOp31
 70
     1
102
RTVSPost2010Prop32
280
     0
102
RTVSPost2010PropOp32
 70
     1
102
RTVSPost2010Prop33
280
     0
102
RTVSPost2010PropOp33
 70
     1
102
RTVSPost2010Prop34
280
     0
102
RTVSPost2010PropOp34
 70
     1
102
RTVSPost2010Prop35
280
     0
102
RTVSPost2010PropOp35
 70
     1
102
RTVSPost2010Prop36
280
     0
102
RTVSPost2010PropOp36
 70
     1
102
RTVSPost2010Prop37
 90
       50
102
RTVSPost2010PropOp37
 70
     1
102
RTVSPost2010Prop38
140
0.0
102
RTVSPost2010PropOp38
 70
     1
102
RTVSPost2010Prop39
140
1.0
102
RTVSPost2010PropOp39
 70
     1
102
RTVSPost2010Prop40
 90
        0
102
RTVSPost2010PropOp40
 70
     1
102
RTVSPost2010Prop41ColorIndex
 90
       18
102
RTVSPost2010Prop41ColorRGB
 90
        0
102
RTVSPost2010PropOp41
 70
     1
102
RTVSPost2010Prop42
 90
       50
102
RTVSPost2010PropOp42
 70
     1
102
RTVSPost2010Prop43
 90
        3
102
RTVSPost2010PropOp43
 70
     1
102
RTVSPost2010Prop44ColorIndex
 90
        5
102
RTVSPost2010Prop44ColorRGB
 90
      255
102
RTVSPost2010PropOp44
 70
     1
102
RTVSPost2010Prop45
280
     0
102
RTVSPost2010PropOp45
 70
     1
102
RTVSPost2010Prop46
 90
       50
102
RTVSPost2010PropOp46
 70
     1
102
RTVSPost2010Prop47
 90
       50
102
RTVSPost2010PropOp47
 70
     1
102
RTVSPost2010Prop48
 90
       50
102
RTVSPost2010PropOp48
 70
     1
102
RTVSPost2010Prop49
280
     0
102
RTVSPost2010PropOp49
 70
     1
102
RTVSPost2010Prop50
 90
       50
102
RTVSPost2010PropOp50
 70
     1
102
RTVSPost2010Prop51ColorIndex
 90
      256
102
RTVSPost2010Prop51ColorRGB
 90
-16777216
102
RTVSPost2010PropOp51
 70
     0
102
RTVSPost2010Prop52
140
1.0
102
RTVSPost2010PropOp52
 70
     0
102
RTVSPost2010Prop53
 90
        2
102
RTVSPost2010PropOp53
 70
     1
102
RTVSPost2010Prop54
  1
strokes_ogs.tif
102
RTVSPost2010PropOp54
 70
     1
102
RTVSPost2010Prop55
280
     0
102
RTVSPost2010PropOp55
 70
     1
102
RTVSPost2010Prop56
140
1.0
102
RTVSPost2010PropOp56
 70
     1
102
RTVSPost2010Prop57
140
1.0
102
RTVSPost2010PropOp57
 70
     1
102
RTVSPropertyOp0
 70
     1
102
RTVSPropertyOp1
 70
     1
102
RTVSPropertyOp2
 70
     1
102
RTVSPropertyOp3
 70
     1
102
RTVSPropertyOp4
 70
     1
102
RTVSPropertyOp5
 70
     1
102
RTVSPropertyOp6
 70
     1
102
RTVSPropertyOp7
 70
     1
102
RTVSPropertyOp8
 70
     1
102
RTVSPropertyOp9
 70
     1
102
RTVSPropertyOp10
 70
     1
102
RTVSPropertyOp11
 70
     1
102
RTVSPropertyOp12
 70
     1
102
RTVSPropertyOp13
 70
     1
102
RTVSPropertyOp14
 70
     1
102
RTVSPropertyOp15
 70
     1
102
RTVSPropertyOp16
 70
     1
102
RTVSPropertyOp17
 70
     1
102
RTVSPropertyOp18
 70
     1
102
RTVSPropertyOp19
 70
     1
102
RTVSPropertyOp20
 70
     1
102
RTVSPropertyOp21
 70
     1
102
RTVSPropertyOp22
 70
     1
102
RTVSPropertyOp23
 70
     1
102
RTVSPropertyOp24
 70
     1
102
RTVSPropertyOp25
 70
     1
102
RTVSPropertyOp26
 70
     1
102
RTVSPropertyOp27
 70
     1
102
RTVSPropertyOp28
 70
     1
102
RTVSPropertyOp29
 70
     1
102
RTVSPropertyOp30
 70
     1
102
RTVSPropertyOp31
 70
     1
102
RTVSPropertyOp32
 70
     1
102
RTVSPropertyOp33
 70
     1
102
RTVSPropertyOp34
 70
     1
102
RTVSPropertyOp35
 70
     1
102
RTVSPropertyOp36
 70
     1
102
RTVSPropertyOp37
 70
     1
102
RTVSPropertyOp38
 70
     1
102
RTVSPropertyOp39
 70
     1
102
RTVSPropertyOp40
 70
     1
102
RTVSPropertyOp41
 70
     1
102
RTVSPropertyOp42
 70
     1
102
RTVSPropertyOp43
 70
     1
102
RTVSPropertyOp44
 70
     1
102
RTVSPropertyOp45
 70
     1
102
RTVSPropertyOp46
 70
     1
102
RTVSPropertyOp47
 70
     1
102
RTVSPropertyOp48
 70
     1
102
RTVSPropertyOp49
 70
     1
102
RTVSPropertyOp50
 70
     1
102
RTVSPropertyOp51
 70
     0
102
RTVSPropertyOp52
 70
     0
102
RTVSPropertyOp53
 70
     1
102
RTVSPropertyOp54
 70
     1
102
RTVSPropertyOp55
 70
     1
102
RTVSPropertyOp56
 70
     1
102
RTVSPropertyOp57
 70
     1
102
RTVSPropertyOp58
 70
     1
102
RTVSPropertyOp59
 70
     1
102
RTVSPropertyOp60
 70
     1
102
RTVSPropertyOp61
 70
     1
102
RTVSPropertyOp62
 70
     1
  0
XRECORD
  5
63A6
102
{ACAD_REACTORS
330
63A5
102
}
330
63A5
100
AcDbXrecord
280
     1
102
RTVSPost2010Prop28
280
     0
102
RTVSPost2010PropOp28
 70
     1
102
RTVSPost2010Prop29
280
     1
102
RTVSPost2010PropOp29
 70
     1
102
RTVSPost2010Prop30
280
     1
102
RTVSPost2010PropOp30
 70
     1
102
RTVSPost2010Prop31
280
     0
102
RTVSPost2010PropOp31
 70
     1
102
RTVSPost2010Prop32
280
     0
102
RTVSPost2010PropOp32
 70
     1
102
RTVSPost2010Prop33
280
     0
102
RTVSPost2010PropOp33
 70
     1
102
RTVSPost2010Prop34
280
     0
102
RTVSPost2010PropOp34
 70
     1
102
RTVSPost2010Prop35
280
     0
102
RTVSPost2010PropOp35
 70
     1
102
RTVSPost2010Prop36
280
     0
102
RTVSPost2010PropOp36
 70
     1
102
RTVSPost2010Prop37
 90
       50
102
RTVSPost2010PropOp37
 70
     1
102
RTVSPost2010Prop38
140
0.0
102
RTVSPost2010PropOp38
 70
     1
102
RTVSPost2010Prop39
140
1.0
102
RTVSPost2010PropOp39
 70
     1
102
RTVSPost2010Prop40
 90
        0
102
RTVSPost2010PropOp40
 70
     1
102
RTVSPost2010Prop41ColorIndex
 90
       18
102
RTVSPost2010Prop41ColorRGB
 90
        0
102
RTVSPost2010PropOp41
 70
     1
102
RTVSPost2010Prop42
 90
       50
102
RTVSPost2010PropOp42
 70
     1
102
RTVSPost2010Prop43
 90
        3
102
RTVSPost2010PropOp43
 70
     1
102
RTVSPost2010Prop44ColorIndex
 90
        5
102
RTVSPost2010Prop44ColorRGB
 90
      255
102
RTVSPost2010PropOp44
 70
     1
102
RTVSPost2010Prop45
280
     0
102
RTVSPost2010PropOp45
 70
     1
102
RTVSPost2010Prop46
 90
       50
102
RTVSPost2010PropOp46
 70
     1
102
RTVSPost2010Prop47
 90
       50
102
RTVSPost2010PropOp47
 70
     1
102
RTVSPost2010Prop48
 90
       50
102
RTVSPost2010PropOp48
 70
     1
102
RTVSPost2010Prop49
280
     0
102
RTVSPost2010PropOp49
 70
     1
102
RTVSPost2010Prop50
 90
       50
102
RTVSPost2010PropOp50
 70
     1
102
RTVSPost2010Prop51ColorIndex
 90
      256
102
RTVSPost2010Prop51ColorRGB
 90
-16777216
102
RTVSPost2010PropOp51
 70
     0
102
RTVSPost2010Prop52
140
1.0
102
RTVSPost2010PropOp52
 70
     0
102
RTVSPost2010Prop53
 90
        2
102
RTVSPost2010PropOp53
 70
     1
102
RTVSPost2010Prop54
  1
strokes_ogs.tif
102
RTVSPost2010PropOp54
 70
     1
102
RTVSPost2010Prop55
280
     0
102
RTVSPost2010PropOp55
 70
     1
102
RTVSPost2010Prop56
140
1.0
102
RTVSPost2010PropOp56
 70
     1
102
RTVSPost2010Prop57
140
1.0
102
RTVSPost2010PropOp57
 70
     1
102
RTVSPropertyOp0
 70
     0
102
RTVSPropertyOp1
 70
     0
102
RTVSPropertyOp2
 70
     0
102
RTVSPropertyOp3
 70
     0
102
RTVSPropertyOp4
 70
     0
102
RTVSPropertyOp5
 70
     0
102
RTVSPropertyOp6
 70
     0
102
RTVSPropertyOp7
 70
     0
102
RTVSPropertyOp8
 70
     0
102
RTVSPropertyOp9
 70
     0
102
RTVSPropertyOp10
 70
     0
102
RTVSPropertyOp11
 70
     0
102
RTVSPropertyOp12
 70
     0
102
RTVSPropertyOp13
 70
     0
102
RTVSPropertyOp14
 70
     2
102
RTVSPropertyOp15
 70
     0
102
RTVSPropertyOp16
 70
     0
102
RTVSPropertyOp17
 70
     0
102
RTVSPropertyOp18
 70
     0
102
RTVSPropertyOp19
 70
     0
102
RTVSPropertyOp20
 70
     0
102
RTVSPropertyOp21
 70
     0
102
RTVSPropertyOp22
 70
     0
102
RTVSPropertyOp23
 70
     0
102
RTVSPropertyOp24
 70
     0
102
RTVSPropertyOp25
 70
     0
102
RTVSPropertyOp26
 70
     0
102
RTVSPropertyOp27
 70
     0
102
RTVSPropertyOp28
 70
     1
102
RTVSPropertyOp29
 70
     1
102
RTVSPropertyOp30
 70
     1
102
RTVSPropertyOp31
 70
     1
102
RTVSPropertyOp32
 70
     1
102
RTVSPropertyOp33
 70
     1
102
RTVSPropertyOp34
 70
     1
102
RTVSPropertyOp35
 70
     1
102
RTVSPropertyOp36
 70
     1
102
RTVSPropertyOp37
 70
     1
102
RTVSPropertyOp38
 70
     1
102
RTVSPropertyOp39
 70
     1
102
RTVSPropertyOp40
 70
     1
102
RTVSPropertyOp41
 70
     1
102
RTVSPropertyOp42
 70
     1
102
RTVSPropertyOp43
 70
     1
102
RTVSPropertyOp44
 70
     1
102
RTVSPropertyOp45
 70
     1
102
RTVSPropertyOp46
 70
     1
102
RTVSPropertyOp47
 70
     1
102
RTVSPropertyOp48
 70
     1
102
RTVSPropertyOp49
 70
     1
102
RTVSPropertyOp50
 70
     1
102
RTVSPropertyOp51
 70
     0
102
RTVSPropertyOp52
 70
     0
102
RTVSPropertyOp53
 70
     1
102
RTVSPropertyOp54
 70
     1
102
RTVSPropertyOp55
 70
     1
102
RTVSPropertyOp56
 70
     1
102
RTVSPropertyOp57
 70
     1
102
RTVSPropertyOp58
 70
     1
102
RTVSPropertyOp59
 70
     1
102
RTVSPropertyOp60
 70
     1
102
RTVSPropertyOp61
 70
     1
102
RTVSPropertyOp62
 70
     1
  0
XRECORD
  5
6394
102
{ACAD_REACTORS
330
6393
102
}
330
6393
100
AcDbXrecord
280
     1
102
RTVSPost2010Prop28
280
     0
102
RTVSPost2010PropOp28
 70
     1
102
RTVSPost2010Prop29
280
     1
102
RTVSPost2010PropOp29
 70
     1
102
RTVSPost2010Prop30
280
     1
102
RTVSPost2010PropOp30
 70
     1
102
RTVSPost2010Prop31
280
     0
102
RTVSPost2010PropOp31
 70
     1
102
RTVSPost2010Prop32
280
     0
102
RTVSPost2010PropOp32
 70
     1
102
RTVSPost2010Prop33
280
     0
102
RTVSPost2010PropOp33
 70
     1
102
RTVSPost2010Prop34
280
     0
102
RTVSPost2010PropOp34
 70
     1
102
RTVSPost2010Prop35
280
     0
102
RTVSPost2010PropOp35
 70
     1
102
RTVSPost2010Prop36
280
     0
102
RTVSPost2010PropOp36
 70
     1
102
RTVSPost2010Prop37
 90
       50
102
RTVSPost2010PropOp37
 70
     1
102
RTVSPost2010Prop38
140
0.0
102
RTVSPost2010PropOp38
 70
     1
102
RTVSPost2010Prop39
140
1.0
102
RTVSPost2010PropOp39
 70
     1
102
RTVSPost2010Prop40
 90
        0
102
RTVSPost2010PropOp40
 70
     1
102
RTVSPost2010Prop41ColorIndex
 90
       18
102
RTVSPost2010Prop41ColorRGB
 90
        0
102
RTVSPost2010PropOp41
 70
     1
102
RTVSPost2010Prop42
 90
       50
102
RTVSPost2010PropOp42
 70
     1
102
RTVSPost2010Prop43
 90
        3
102
RTVSPost2010PropOp43
 70
     1
102
RTVSPost2010Prop44ColorIndex
 90
        5
102
RTVSPost2010Prop44ColorRGB
 90
      255
102
RTVSPost2010PropOp44
 70
     1
102
RTVSPost2010Prop45
280
     0
102
RTVSPost2010PropOp45
 70
     1
102
RTVSPost2010Prop46
 90
       50
102
RTVSPost2010PropOp46
 70
     1
102
RTVSPost2010Prop47
 90
       50
102
RTVSPost2010PropOp47
 70
     1
102
RTVSPost2010Prop48
 90
       50
102
RTVSPost2010PropOp48
 70
     1
102
RTVSPost2010Prop49
280
     0
102
RTVSPost2010PropOp49
 70
     1
102
RTVSPost2010Prop50
 90
       50
102
RTVSPost2010PropOp50
 70
     1
102
RTVSPost2010Prop51ColorIndex
 90
      256
102
RTVSPost2010Prop51ColorRGB
 90
-16777216
102
RTVSPost2010PropOp51
 70
     0
102
RTVSPost2010Prop52
140
1.0
102
RTVSPost2010PropOp52
 70
     0
102
RTVSPost2010Prop53
 90
        2
102
RTVSPost2010PropOp53
 70
     1
102
RTVSPost2010Prop54
  1
strokes_ogs.tif
102
RTVSPost2010PropOp54
 70
     1
102
RTVSPost2010Prop55
280
     0
102
RTVSPost2010PropOp55
 70
     1
102
RTVSPost2010Prop56
140
1.0
102
RTVSPost2010PropOp56
 70
     1
102
RTVSPost2010Prop57
140
1.0
102
RTVSPost2010PropOp57
 70
     1
102
RTVSPropertyOp0
 70
     1
102
RTVSPropertyOp1
 70
     1
102
RTVSPropertyOp2
 70
     1
102
RTVSPropertyOp3
 70
     1
102
RTVSPropertyOp4
 70
     1
102
RTVSPropertyOp5
 70
     1
102
RTVSPropertyOp6
 70
     1
102
RTVSPropertyOp7
 70
     1
102
RTVSPropertyOp8
 70
     1
102
RTVSPropertyOp9
 70
     1
102
RTVSPropertyOp10
 70
     1
102
RTVSPropertyOp11
 70
     1
102
RTVSPropertyOp12
 70
     1
102
RTVSPropertyOp13
 70
     1
102
RTVSPropertyOp14
 70
     1
102
RTVSPropertyOp15
 70
     1
102
RTVSPropertyOp16
 70
     1
102
RTVSPropertyOp17
 70
     1
102
RTVSPropertyOp18
 70
     1
102
RTVSPropertyOp19
 70
     1
102
RTVSPropertyOp20
 70
     1
102
RTVSPropertyOp21
 70
     1
102
RTVSPropertyOp22
 70
     1
102
RTVSPropertyOp23
 70
     1
102
RTVSPropertyOp24
 70
     1
102
RTVSPropertyOp25
 70
     1
102
RTVSPropertyOp26
 70
     1
102
RTVSPropertyOp27
 70
     1
102
RTVSPropertyOp28
 70
     1
102
RTVSPropertyOp29
 70
     1
102
RTVSPropertyOp30
 70
     1
102
RTVSPropertyOp31
 70
     1
102
RTVSPropertyOp32
 70
     1
102
RTVSPropertyOp33
 70
     1
102
RTVSPropertyOp34
 70
     1
102
RTVSPropertyOp35
 70
     1
102
RTVSPropertyOp36
 70
     1
102
RTVSPropertyOp37
 70
     1
102
RTVSPropertyOp38
 70
     1
102
RTVSPropertyOp39
 70
     1
102
RTVSPropertyOp40
 70
     1
102
RTVSPropertyOp41
 70
     1
102
RTVSPropertyOp42
 70
     1
102
RTVSPropertyOp43
 70
     1
102
RTVSPropertyOp44
 70
     1
102
RTVSPropertyOp45
 70
     1
102
RTVSPropertyOp46
 70
     1
102
RTVSPropertyOp47
 70
     1
102
RTVSPropertyOp48
 70
     1
102
RTVSPropertyOp49
 70
     1
102
RTVSPropertyOp50
 70
     1
102
RTVSPropertyOp51
 70
     0
102
RTVSPropertyOp52
 70
     0
102
RTVSPropertyOp53
 70
     1
102
RTVSPropertyOp54
 70
     1
102
RTVSPropertyOp55
 70
     1
102
RTVSPropertyOp56
 70
     1
102
RTVSPropertyOp57
 70
     1
102
RTVSPropertyOp58
 70
     1
102
RTVSPropertyOp59
 70
     1
102
RTVSPropertyOp60
 70
     1
102
RTVSPropertyOp61
 70
     1
102
RTVSPropertyOp62
 70
     1
  0
XRECORD
  5
63B2
102
{ACAD_REACTORS
330
63B1
102
}
330
63B1
100
AcDbXrecord
280
     1
102
RTVSPost2010Prop28
280
     0
102
RTVSPost2010PropOp28
 70
     1
102
RTVSPost2010Prop29
280
     1
102
RTVSPost2010PropOp29
 70
     1
102
RTVSPost2010Prop30
280
     1
102
RTVSPost2010PropOp30
 70
     1
102
RTVSPost2010Prop31
280
     0
102
RTVSPost2010PropOp31
 70
     1
102
RTVSPost2010Prop32
280
     0
102
RTVSPost2010PropOp32
 70
     1
102
RTVSPost2010Prop33
280
     0
102
RTVSPost2010PropOp33
 70
     1
102
RTVSPost2010Prop34
280
     0
102
RTVSPost2010PropOp34
 70
     1
102
RTVSPost2010Prop35
280
     0
102
RTVSPost2010PropOp35
 70
     1
102
RTVSPost2010Prop36
280
     0
102
RTVSPost2010PropOp36
 70
     1
102
RTVSPost2010Prop37
 90
       50
102
RTVSPost2010PropOp37
 70
     1
102
RTVSPost2010Prop38
140
0.0
102
RTVSPost2010PropOp38
 70
     1
102
RTVSPost2010Prop39
140
1.0
102
RTVSPost2010PropOp39
 70
     1
102
RTVSPost2010Prop40
 90
        0
102
RTVSPost2010PropOp40
 70
     1
102
RTVSPost2010Prop41ColorIndex
 90
       18
102
RTVSPost2010Prop41ColorRGB
 90
        0
102
RTVSPost2010PropOp41
 70
     1
102
RTVSPost2010Prop42
 90
       50
102
RTVSPost2010PropOp42
 70
     1
102
RTVSPost2010Prop43
 90
        3
102
RTVSPost2010PropOp43
 70
     1
102
RTVSPost2010Prop44ColorIndex
 90
        5
102
RTVSPost2010Prop44ColorRGB
 90
      255
102
RTVSPost2010PropOp44
 70
     1
102
RTVSPost2010Prop45
280
     0
102
RTVSPost2010PropOp45
 70
     1
102
RTVSPost2010Prop46
 90
       50
102
RTVSPost2010PropOp46
 70
     1
102
RTVSPost2010Prop47
 90
       50
102
RTVSPost2010PropOp47
 70
     1
102
RTVSPost2010Prop48
 90
       50
102
RTVSPost2010PropOp48
 70
     1
102
RTVSPost2010Prop49
280
     0
102
RTVSPost2010PropOp49
 70
     1
102
RTVSPost2010Prop50
 90
       50
102
RTVSPost2010PropOp50
 70
     1
102
RTVSPost2010Prop51ColorIndex
 90
      256
102
RTVSPost2010Prop51ColorRGB
 90
-16777216
102
RTVSPost2010PropOp51
 70
     0
102
RTVSPost2010Prop52
140
1.0
102
RTVSPost2010PropOp52
 70
     0
102
RTVSPost2010Prop53
 90
        2
102
RTVSPost2010PropOp53
 70
     1
102
RTVSPost2010Prop54
  1
strokes_ogs.tif
102
RTVSPost2010PropOp54
 70
     1
102
RTVSPost2010Prop55
280
     0
102
RTVSPost2010PropOp55
 70
     1
102
RTVSPost2010Prop56
140
1.0
102
RTVSPost2010PropOp56
 70
     1
102
RTVSPost2010Prop57
140
1.0
102
RTVSPost2010PropOp57
 70
     1
102
RTVSPropertyOp0
 70
     1
102
RTVSPropertyOp1
 70
     1
102
RTVSPropertyOp2
 70
     1
102
RTVSPropertyOp3
 70
     1
102
RTVSPropertyOp4
 70
     1
102
RTVSPropertyOp5
 70
     1
102
RTVSPropertyOp6
 70
     1
102
RTVSPropertyOp7
 70
     1
102
RTVSPropertyOp8
 70
     1
102
RTVSPropertyOp9
 70
     1
102
RTVSPropertyOp10
 70
     1
102
RTVSPropertyOp11
 70
     1
102
RTVSPropertyOp12
 70
     1
102
RTVSPropertyOp13
 70
     1
102
RTVSPropertyOp14
 70
     1
102
RTVSPropertyOp15
 70
     1
102
RTVSPropertyOp16
 70
     1
102
RTVSPropertyOp17
 70
     1
102
RTVSPropertyOp18
 70
     1
102
RTVSPropertyOp19
 70
     1
102
RTVSPropertyOp20
 70
     1
102
RTVSPropertyOp21
 70
     1
102
RTVSPropertyOp22
 70
     1
102
RTVSPropertyOp23
 70
     1
102
RTVSPropertyOp24
 70
     1
102
RTVSPropertyOp25
 70
     1
102
RTVSPropertyOp26
 70
     1
102
RTVSPropertyOp27
 70
     1
102
RTVSPropertyOp28
 70
     1
102
RTVSPropertyOp29
 70
     1
102
RTVSPropertyOp30
 70
     1
102
RTVSPropertyOp31
 70
     1
102
RTVSPropertyOp32
 70
     1
102
RTVSPropertyOp33
 70
     1
102
RTVSPropertyOp34
 70
     1
102
RTVSPropertyOp35
 70
     1
102
RTVSPropertyOp36
 70
     1
102
RTVSPropertyOp37
 70
     1
102
RTVSPropertyOp38
 70
     1
102
RTVSPropertyOp39
 70
     1
102
RTVSPropertyOp40
 70
     1
102
RTVSPropertyOp41
 70
     1
102
RTVSPropertyOp42
 70
     1
102
RTVSPropertyOp43
 70
     1
102
RTVSPropertyOp44
 70
     1
102
RTVSPropertyOp45
 70
     1
102
RTVSPropertyOp46
 70
     1
102
RTVSPropertyOp47
 70
     1
102
RTVSPropertyOp48
 70
     1
102
RTVSPropertyOp49
 70
     1
102
RTVSPropertyOp50
 70
     1
102
RTVSPropertyOp51
 70
     0
102
RTVSPropertyOp52
 70
     0
102
RTVSPropertyOp53
 70
     1
102
RTVSPropertyOp54
 70
     1
102
RTVSPropertyOp55
 70
     1
102
RTVSPropertyOp56
 70
     1
102
RTVSPropertyOp57
 70
     1
102
RTVSPropertyOp58
 70
     1
102
RTVSPropertyOp59
 70
     1
102
RTVSPropertyOp60
 70
     1
102
RTVSPropertyOp61
 70
     1
102
RTVSPropertyOp62
 70
     1
  0
XRECORD
  5
63B0
102
{ACAD_REACTORS
330
63AF
102
}
330
63AF
100
AcDbXrecord
280
     1
102
RTVSPost2010Prop28
280
     0
102
RTVSPost2010PropOp28
 70
     1
102
RTVSPost2010Prop29
280
     1
102
RTVSPost2010PropOp29
 70
     1
102
RTVSPost2010Prop30
280
     1
102
RTVSPost2010PropOp30
 70
     1
102
RTVSPost2010Prop31
280
     0
102
RTVSPost2010PropOp31
 70
     1
102
RTVSPost2010Prop32
280
     0
102
RTVSPost2010PropOp32
 70
     1
102
RTVSPost2010Prop33
280
     0
102
RTVSPost2010PropOp33
 70
     1
102
RTVSPost2010Prop34
280
     0
102
RTVSPost2010PropOp34
 70
     1
102
RTVSPost2010Prop35
280
     0
102
RTVSPost2010PropOp35
 70
     1
102
RTVSPost2010Prop36
280
     0
102
RTVSPost2010PropOp36
 70
     1
102
RTVSPost2010Prop37
 90
       50
102
RTVSPost2010PropOp37
 70
     1
102
RTVSPost2010Prop38
140
0.0
102
RTVSPost2010PropOp38
 70
     1
102
RTVSPost2010Prop39
140
1.0
102
RTVSPost2010PropOp39
 70
     1
102
RTVSPost2010Prop40
 90
        0
102
RTVSPost2010PropOp40
 70
     1
102
RTVSPost2010Prop41ColorIndex
 90
       18
102
RTVSPost2010Prop41ColorRGB
 90
        0
102
RTVSPost2010PropOp41
 70
     1
102
RTVSPost2010Prop42
 90
       50
102
RTVSPost2010PropOp42
 70
     1
102
RTVSPost2010Prop43
 90
        3
102
RTVSPost2010PropOp43
 70
     1
102
RTVSPost2010Prop44ColorIndex
 90
        5
102
RTVSPost2010Prop44ColorRGB
 90
      255
102
RTVSPost2010PropOp44
 70
     1
102
RTVSPost2010Prop45
280
     0
102
RTVSPost2010PropOp45
 70
     1
102
RTVSPost2010Prop46
 90
       50
102
RTVSPost2010PropOp46
 70
     1
102
RTVSPost2010Prop47
 90
       50
102
RTVSPost2010PropOp47
 70
     1
102
RTVSPost2010Prop48
 90
       50
102
RTVSPost2010PropOp48
 70
     1
102
RTVSPost2010Prop49
280
     0
102
RTVSPost2010PropOp49
 70
     1
102
RTVSPost2010Prop50
 90
       50
102
RTVSPost2010PropOp50
 70
     1
102
RTVSPost2010Prop51ColorIndex
 90
      256
102
RTVSPost2010Prop51ColorRGB
 90
-16777216
102
RTVSPost2010PropOp51
 70
     0
102
RTVSPost2010Prop52
140
1.0
102
RTVSPost2010PropOp52
 70
     0
102
RTVSPost2010Prop53
 90
        2
102
RTVSPost2010PropOp53
 70
     1
102
RTVSPost2010Prop54
  1
strokes_ogs.tif
102
RTVSPost2010PropOp54
 70
     1
102
RTVSPost2010Prop55
280
     0
102
RTVSPost2010PropOp55
 70
     1
102
RTVSPost2010Prop56
140
1.0
102
RTVSPost2010PropOp56
 70
     1
102
RTVSPost2010Prop57
140
1.0
102
RTVSPost2010PropOp57
 70
     1
102
RTVSPropertyOp0
 70
     1
102
RTVSPropertyOp1
 70
     1
102
RTVSPropertyOp2
 70
     1
102
RTVSPropertyOp3
 70
     1
102
RTVSPropertyOp4
 70
     1
102
RTVSPropertyOp5
 70
     1
102
RTVSPropertyOp6
 70
     1
102
RTVSPropertyOp7
 70
     1
102
RTVSPropertyOp8
 70
     1
102
RTVSPropertyOp9
 70
     1
102
RTVSPropertyOp10
 70
     1
102
RTVSPropertyOp11
 70
     1
102
RTVSPropertyOp12
 70
     1
102
RTVSPropertyOp13
 70
     1
102
RTVSPropertyOp14
 70
     1
102
RTVSPropertyOp15
 70
     1
102
RTVSPropertyOp16
 70
     1
102
RTVSPropertyOp17
 70
     1
102
RTVSPropertyOp18
 70
     1
102
RTVSPropertyOp19
 70
     1
102
RTVSPropertyOp20
 70
     1
102
RTVSPropertyOp21
 70
     1
102
RTVSPropertyOp22
 70
     1
102
RTVSPropertyOp23
 70
     1
102
RTVSPropertyOp24
 70
     1
102
RTVSPropertyOp25
 70
     1
102
RTVSPropertyOp26
 70
     1
102
RTVSPropertyOp27
 70
     1
102
RTVSPropertyOp28
 70
     1
102
RTVSPropertyOp29
 70
     1
102
RTVSPropertyOp30
 70
     1
102
RTVSPropertyOp31
 70
     1
102
RTVSPropertyOp32
 70
     1
102
RTVSPropertyOp33
 70
     1
102
RTVSPropertyOp34
 70
     1
102
RTVSPropertyOp35
 70
     1
102
RTVSPropertyOp36
 70
     1
102
RTVSPropertyOp37
 70
     1
102
RTVSPropertyOp38
 70
     1
102
RTVSPropertyOp39
 70
     1
102
RTVSPropertyOp40
 70
     1
102
RTVSPropertyOp41
 70
     1
102
RTVSPropertyOp42
 70
     1
102
RTVSPropertyOp43
 70
     1
102
RTVSPropertyOp44
 70
     1
102
RTVSPropertyOp45
 70
     1
102
RTVSPropertyOp46
 70
     1
102
RTVSPropertyOp47
 70
     1
102
RTVSPropertyOp48
 70
     1
102
RTVSPropertyOp49
 70
     1
102
RTVSPropertyOp50
 70
     1
102
RTVSPropertyOp51
 70
     0
102
RTVSPropertyOp52
 70
     0
102
RTVSPropertyOp53
 70
     1
102
RTVSPropertyOp54
 70
     1
102
RTVSPropertyOp55
 70
     1
102
RTVSPropertyOp56
 70
     1
102
RTVSPropertyOp57
 70
     1
102
RTVSPropertyOp58
 70
     1
102
RTVSPropertyOp59
 70
     1
102
RTVSPropertyOp60
 70
     1
102
RTVSPropertyOp61
 70
     1
102
RTVSPropertyOp62
 70
     1
  0
XRECORD
  5
63AA
102
{ACAD_REACTORS
330
63A9
102
}
330
63A9
100
AcDbXrecord
280
     1
102
RTVSPost2010Prop28
280
     0
102
RTVSPost2010PropOp28
 70
     1
102
RTVSPost2010Prop29
280
     1
102
RTVSPost2010PropOp29
 70
     1
102
RTVSPost2010Prop30
280
     1
102
RTVSPost2010PropOp30
 70
     1
102
RTVSPost2010Prop31
280
     0
102
RTVSPost2010PropOp31
 70
     1
102
RTVSPost2010Prop32
280
     0
102
RTVSPost2010PropOp32
 70
     1
102
RTVSPost2010Prop33
280
     0
102
RTVSPost2010PropOp33
 70
     1
102
RTVSPost2010Prop34
280
     0
102
RTVSPost2010PropOp34
 70
     1
102
RTVSPost2010Prop35
280
     0
102
RTVSPost2010PropOp35
 70
     1
102
RTVSPost2010Prop36
280
     0
102
RTVSPost2010PropOp36
 70
     1
102
RTVSPost2010Prop37
 90
       50
102
RTVSPost2010PropOp37
 70
     1
102
RTVSPost2010Prop38
140
0.0
102
RTVSPost2010PropOp38
 70
     1
102
RTVSPost2010Prop39
140
1.0
102
RTVSPost2010PropOp39
 70
     1
102
RTVSPost2010Prop40
 90
        0
102
RTVSPost2010PropOp40
 70
     1
102
RTVSPost2010Prop41ColorIndex
 90
       18
102
RTVSPost2010Prop41ColorRGB
 90
        0
102
RTVSPost2010PropOp41
 70
     1
102
RTVSPost2010Prop42
 90
       50
102
RTVSPost2010PropOp42
 70
     1
102
RTVSPost2010Prop43
 90
        3
102
RTVSPost2010PropOp43
 70
     1
102
RTVSPost2010Prop44ColorIndex
 90
        5
102
RTVSPost2010Prop44ColorRGB
 90
      255
102
RTVSPost2010PropOp44
 70
     1
102
RTVSPost2010Prop45
280
     0
102
RTVSPost2010PropOp45
 70
     1
102
RTVSPost2010Prop46
 90
       50
102
RTVSPost2010PropOp46
 70
     1
102
RTVSPost2010Prop47
 90
       50
102
RTVSPost2010PropOp47
 70
     1
102
RTVSPost2010Prop48
 90
       50
102
RTVSPost2010PropOp48
 70
     1
102
RTVSPost2010Prop49
280
     0
102
RTVSPost2010PropOp49
 70
     1
102
RTVSPost2010Prop50
 90
       50
102
RTVSPost2010PropOp50
 70
     1
102
RTVSPost2010Prop51ColorIndex
 90
      256
102
RTVSPost2010Prop51ColorRGB
 90
-16777216
102
RTVSPost2010PropOp51
 70
     0
102
RTVSPost2010Prop52
140
1.0
102
RTVSPost2010PropOp52
 70
     0
102
RTVSPost2010Prop53
 90
        2
102
RTVSPost2010PropOp53
 70
     1
102
RTVSPost2010Prop54
  1
strokes_ogs.tif
102
RTVSPost2010PropOp54
 70
     1
102
RTVSPost2010Prop55
280
     0
102
RTVSPost2010PropOp55
 70
     1
102
RTVSPost2010Prop56
140
1.0
102
RTVSPost2010PropOp56
 70
     1
102
RTVSPost2010Prop57
140
1.0
102
RTVSPost2010PropOp57
 70
     1
102
RTVSPropertyOp0
 70
     1
102
RTVSPropertyOp1
 70
     1
102
RTVSPropertyOp2
 70
     1
102
RTVSPropertyOp3
 70
     1
102
RTVSPropertyOp4
 70
     1
102
RTVSPropertyOp5
 70
     1
102
RTVSPropertyOp6
 70
     1
102
RTVSPropertyOp7
 70
     1
102
RTVSPropertyOp8
 70
     1
102
RTVSPropertyOp9
 70
     1
102
RTVSPropertyOp10
 70
     1
102
RTVSPropertyOp11
 70
     1
102
RTVSPropertyOp12
 70
     1
102
RTVSPropertyOp13
 70
     1
102
RTVSPropertyOp14
 70
     1
102
RTVSPropertyOp15
 70
     1
102
RTVSPropertyOp16
 70
     1
102
RTVSPropertyOp17
 70
     1
102
RTVSPropertyOp18
 70
     1
102
RTVSPropertyOp19
 70
     1
102
RTVSPropertyOp20
 70
     1
102
RTVSPropertyOp21
 70
     1
102
RTVSPropertyOp22
 70
     1
102
RTVSPropertyOp23
 70
     1
102
RTVSPropertyOp24
 70
     1
102
RTVSPropertyOp25
 70
     1
102
RTVSPropertyOp26
 70
     1
102
RTVSPropertyOp27
 70
     1
102
RTVSPropertyOp28
 70
     1
102
RTVSPropertyOp29
 70
     1
102
RTVSPropertyOp30
 70
     1
102
RTVSPropertyOp31
 70
     1
102
RTVSPropertyOp32
 70
     1
102
RTVSPropertyOp33
 70
     1
102
RTVSPropertyOp34
 70
     1
102
RTVSPropertyOp35
 70
     1
102
RTVSPropertyOp36
 70
     1
102
RTVSPropertyOp37
 70
     1
102
RTVSPropertyOp38
 70
     1
102
RTVSPropertyOp39
 70
     1
102
RTVSPropertyOp40
 70
     1
102
RTVSPropertyOp41
 70
     1
102
RTVSPropertyOp42
 70
     1
102
RTVSPropertyOp43
 70
     1
102
RTVSPropertyOp44
 70
     1
102
RTVSPropertyOp45
 70
     1
102
RTVSPropertyOp46
 70
     1
102
RTVSPropertyOp47
 70
     1
102
RTVSPropertyOp48
 70
     1
102
RTVSPropertyOp49
 70
     1
102
RTVSPropertyOp50
 70
     1
102
RTVSPropertyOp51
 70
     0
102
RTVSPropertyOp52
 70
     0
102
RTVSPropertyOp53
 70
     1
102
RTVSPropertyOp54
 70
     1
102
RTVSPropertyOp55
 70
     1
102
RTVSPropertyOp56
 70
     1
102
RTVSPropertyOp57
 70
     1
102
RTVSPropertyOp58
 70
     1
102
RTVSPropertyOp59
 70
     1
102
RTVSPropertyOp60
 70
     1
102
RTVSPropertyOp61
 70
     1
102
RTVSPropertyOp62
 70
     1
  0
XRECORD
  5
63AC
102
{ACAD_REACTORS
330
63AB
102
}
330
63AB
100
AcDbXrecord
280
     1
102
RTVSPost2010Prop28
280
     0
102
RTVSPost2010PropOp28
 70
     1
102
RTVSPost2010Prop29
280
     1
102
RTVSPost2010PropOp29
 70
     1
102
RTVSPost2010Prop30
280
     1
102
RTVSPost2010PropOp30
 70
     1
102
RTVSPost2010Prop31
280
     0
102
RTVSPost2010PropOp31
 70
     1
102
RTVSPost2010Prop32
280
     0
102
RTVSPost2010PropOp32
 70
     1
102
RTVSPost2010Prop33
280
     0
102
RTVSPost2010PropOp33
 70
     1
102
RTVSPost2010Prop34
280
     0
102
RTVSPost2010PropOp34
 70
     1
102
RTVSPost2010Prop35
280
     0
102
RTVSPost2010PropOp35
 70
     1
102
RTVSPost2010Prop36
280
     0
102
RTVSPost2010PropOp36
 70
     1
102
RTVSPost2010Prop37
 90
       50
102
RTVSPost2010PropOp37
 70
     1
102
RTVSPost2010Prop38
140
0.0
102
RTVSPost2010PropOp38
 70
     1
102
RTVSPost2010Prop39
140
1.0
102
RTVSPost2010PropOp39
 70
     1
102
RTVSPost2010Prop40
 90
        0
102
RTVSPost2010PropOp40
 70
     1
102
RTVSPost2010Prop41ColorIndex
 90
       18
102
RTVSPost2010Prop41ColorRGB
 90
        0
102
RTVSPost2010PropOp41
 70
     1
102
RTVSPost2010Prop42
 90
       50
102
RTVSPost2010PropOp42
 70
     1
102
RTVSPost2010Prop43
 90
        3
102
RTVSPost2010PropOp43
 70
     1
102
RTVSPost2010Prop44ColorIndex
 90
        5
102
RTVSPost2010Prop44ColorRGB
 90
      255
102
RTVSPost2010PropOp44
 70
     1
102
RTVSPost2010Prop45
280
     0
102
RTVSPost2010PropOp45
 70
     1
102
RTVSPost2010Prop46
 90
       50
102
RTVSPost2010PropOp46
 70
     1
102
RTVSPost2010Prop47
 90
       50
102
RTVSPost2010PropOp47
 70
     1
102
RTVSPost2010Prop48
 90
       50
102
RTVSPost2010PropOp48
 70
     1
102
RTVSPost2010Prop49
280
     0
102
RTVSPost2010PropOp49
 70
     1
102
RTVSPost2010Prop50
 90
       50
102
RTVSPost2010PropOp50
 70
     1
102
RTVSPost2010Prop51ColorIndex
 90
      256
102
RTVSPost2010Prop51ColorRGB
 90
-16777216
102
RTVSPost2010PropOp51
 70
     0
102
RTVSPost2010Prop52
140
1.0
102
RTVSPost2010PropOp52
 70
     0
102
RTVSPost2010Prop53
 90
        2
102
RTVSPost2010PropOp53
 70
     1
102
RTVSPost2010Prop54
  1
strokes_ogs.tif
102
RTVSPost2010PropOp54
 70
     1
102
RTVSPost2010Prop55
280
     0
102
RTVSPost2010PropOp55
 70
     1
102
RTVSPost2010Prop56
140
1.0
102
RTVSPost2010PropOp56
 70
     1
102
RTVSPost2010Prop57
140
1.0
102
RTVSPost2010PropOp57
 70
     1
102
RTVSPropertyOp0
 70
     1
102
RTVSPropertyOp1
 70
     1
102
RTVSPropertyOp2
 70
     1
102
RTVSPropertyOp3
 70
     1
102
RTVSPropertyOp4
 70
     1
102
RTVSPropertyOp5
 70
     1
102
RTVSPropertyOp6
 70
     1
102
RTVSPropertyOp7
 70
     1
102
RTVSPropertyOp8
 70
     1
102
RTVSPropertyOp9
 70
     1
102
RTVSPropertyOp10
 70
     1
102
RTVSPropertyOp11
 70
     1
102
RTVSPropertyOp12
 70
     1
102
RTVSPropertyOp13
 70
     1
102
RTVSPropertyOp14
 70
     1
102
RTVSPropertyOp15
 70
     1
102
RTVSPropertyOp16
 70
     1
102
RTVSPropertyOp17
 70
     1
102
RTVSPropertyOp18
 70
     1
102
RTVSPropertyOp19
 70
     1
102
RTVSPropertyOp20
 70
     1
102
RTVSPropertyOp21
 70
     1
102
RTVSPropertyOp22
 70
     1
102
RTVSPropertyOp23
 70
     1
102
RTVSPropertyOp24
 70
     1
102
RTVSPropertyOp25
 70
     1
102
RTVSPropertyOp26
 70
     1
102
RTVSPropertyOp27
 70
     1
102
RTVSPropertyOp28
 70
     1
102
RTVSPropertyOp29
 70
     1
102
RTVSPropertyOp30
 70
     1
102
RTVSPropertyOp31
 70
     1
102
RTVSPropertyOp32
 70
     1
102
RTVSPropertyOp33
 70
     1
102
RTVSPropertyOp34
 70
     1
102
RTVSPropertyOp35
 70
     1
102
RTVSPropertyOp36
 70
     1
102
RTVSPropertyOp37
 70
     1
102
RTVSPropertyOp38
 70
     1
102
RTVSPropertyOp39
 70
     1
102
RTVSPropertyOp40
 70
     1
102
RTVSPropertyOp41
 70
     1
102
RTVSPropertyOp42
 70
     1
102
RTVSPropertyOp43
 70
     1
102
RTVSPropertyOp44
 70
     1
102
RTVSPropertyOp45
 70
     1
102
RTVSPropertyOp46
 70
     1
102
RTVSPropertyOp47
 70
     1
102
RTVSPropertyOp48
 70
     1
102
RTVSPropertyOp49
 70
     1
102
RTVSPropertyOp50
 70
     1
102
RTVSPropertyOp51
 70
     0
102
RTVSPropertyOp52
 70
     0
102
RTVSPropertyOp53
 70
     1
102
RTVSPropertyOp54
 70
     1
102
RTVSPropertyOp55
 70
     1
102
RTVSPropertyOp56
 70
     1
102
RTVSPropertyOp57
 70
     1
102
RTVSPropertyOp58
 70
     1
102
RTVSPropertyOp59
 70
     1
102
RTVSPropertyOp60
 70
     1
102
RTVSPropertyOp61
 70
     1
102
RTVSPropertyOp62
 70
     1
  0
XRECORD
  5
639A
102
{ACAD_REACTORS
330
6399
102
}
330
6399
100
AcDbXrecord
280
     1
102
RTVSPost2010Prop28
280
     0
102
RTVSPost2010PropOp28
 70
     1
102
RTVSPost2010Prop29
280
     1
102
RTVSPost2010PropOp29
 70
     1
102
RTVSPost2010Prop30
280
     1
102
RTVSPost2010PropOp30
 70
     1
102
RTVSPost2010Prop31
280
     0
102
RTVSPost2010PropOp31
 70
     1
102
RTVSPost2010Prop32
280
     0
102
RTVSPost2010PropOp32
 70
     1
102
RTVSPost2010Prop33
280
     0
102
RTVSPost2010PropOp33
 70
     1
102
RTVSPost2010Prop34
280
     0
102
RTVSPost2010PropOp34
 70
     1
102
RTVSPost2010Prop35
280
     0
102
RTVSPost2010PropOp35
 70
     1
102
RTVSPost2010Prop36
280
     0
102
RTVSPost2010PropOp36
 70
     1
102
RTVSPost2010Prop37
 90
       50
102
RTVSPost2010PropOp37
 70
     1
102
RTVSPost2010Prop38
140
0.0
102
RTVSPost2010PropOp38
 70
     1
102
RTVSPost2010Prop39
140
1.0
102
RTVSPost2010PropOp39
 70
     1
102
RTVSPost2010Prop40
 90
        0
102
RTVSPost2010PropOp40
 70
     1
102
RTVSPost2010Prop41ColorIndex
 90
       18
102
RTVSPost2010Prop41ColorRGB
 90
        0
102
RTVSPost2010PropOp41
 70
     1
102
RTVSPost2010Prop42
 90
       50
102
RTVSPost2010PropOp42
 70
     1
102
RTVSPost2010Prop43
 90
        3
102
RTVSPost2010PropOp43
 70
     1
102
RTVSPost2010Prop44ColorIndex
 90
        5
102
RTVSPost2010Prop44ColorRGB
 90
      255
102
RTVSPost2010PropOp44
 70
     1
102
RTVSPost2010Prop45
280
     0
102
RTVSPost2010PropOp45
 70
     1
102
RTVSPost2010Prop46
 90
       50
102
RTVSPost2010PropOp46
 70
     1
102
RTVSPost2010Prop47
 90
       50
102
RTVSPost2010PropOp47
 70
     1
102
RTVSPost2010Prop48
 90
       50
102
RTVSPost2010PropOp48
 70
     1
102
RTVSPost2010Prop49
280
     0
102
RTVSPost2010PropOp49
 70
     1
102
RTVSPost2010Prop50
 90
       50
102
RTVSPost2010PropOp50
 70
     1
102
RTVSPost2010Prop51ColorIndex
 90
      256
102
RTVSPost2010Prop51ColorRGB
 90
-16777216
102
RTVSPost2010PropOp51
 70
     0
102
RTVSPost2010Prop52
140
1.0
102
RTVSPost2010PropOp52
 70
     0
102
RTVSPost2010Prop53
 90
        2
102
RTVSPost2010PropOp53
 70
     1
102
RTVSPost2010Prop54
  1
strokes_ogs.tif
102
RTVSPost2010PropOp54
 70
     1
102
RTVSPost2010Prop55
280
     0
102
RTVSPost2010PropOp55
 70
     1
102
RTVSPost2010Prop56
140
1.0
102
RTVSPost2010PropOp56
 70
     1
102
RTVSPost2010Prop57
140
1.0
102
RTVSPost2010PropOp57
 70
     1
102
RTVSPropertyOp0
 70
     1
102
RTVSPropertyOp1
 70
     1
102
RTVSPropertyOp2
 70
     1
102
RTVSPropertyOp3
 70
     1
102
RTVSPropertyOp4
 70
     1
102
RTVSPropertyOp5
 70
     1
102
RTVSPropertyOp6
 70
     1
102
RTVSPropertyOp7
 70
     1
102
RTVSPropertyOp8
 70
     1
102
RTVSPropertyOp9
 70
     1
102
RTVSPropertyOp10
 70
     1
102
RTVSPropertyOp11
 70
     1
102
RTVSPropertyOp12
 70
     1
102
RTVSPropertyOp13
 70
     1
102
RTVSPropertyOp14
 70
     1
102
RTVSPropertyOp15
 70
     1
102
RTVSPropertyOp16
 70
     1
102
RTVSPropertyOp17
 70
     1
102
RTVSPropertyOp18
 70
     1
102
RTVSPropertyOp19
 70
     1
102
RTVSPropertyOp20
 70
     1
102
RTVSPropertyOp21
 70
     1
102
RTVSPropertyOp22
 70
     1
102
RTVSPropertyOp23
 70
     1
102
RTVSPropertyOp24
 70
     1
102
RTVSPropertyOp25
 70
     1
102
RTVSPropertyOp26
 70
     1
102
RTVSPropertyOp27
 70
     1
102
RTVSPropertyOp28
 70
     1
102
RTVSPropertyOp29
 70
     1
102
RTVSPropertyOp30
 70
     1
102
RTVSPropertyOp31
 70
     1
102
RTVSPropertyOp32
 70
     1
102
RTVSPropertyOp33
 70
     1
102
RTVSPropertyOp34
 70
     1
102
RTVSPropertyOp35
 70
     1
102
RTVSPropertyOp36
 70
     1
102
RTVSPropertyOp37
 70
     1
102
RTVSPropertyOp38
 70
     1
102
RTVSPropertyOp39
 70
     1
102
RTVSPropertyOp40
 70
     1
102
RTVSPropertyOp41
 70
     1
102
RTVSPropertyOp42
 70
     1
102
RTVSPropertyOp43
 70
     1
102
RTVSPropertyOp44
 70
     1
102
RTVSPropertyOp45
 70
     1
102
RTVSPropertyOp46
 70
     1
102
RTVSPropertyOp47
 70
     1
102
RTVSPropertyOp48
 70
     1
102
RTVSPropertyOp49
 70
     1
102
RTVSPropertyOp50
 70
     1
102
RTVSPropertyOp51
 70
     0
102
RTVSPropertyOp52
 70
     0
102
RTVSPropertyOp53
 70
     1
102
RTVSPropertyOp54
 70
     1
102
RTVSPropertyOp55
 70
     1
102
RTVSPropertyOp56
 70
     1
102
RTVSPropertyOp57
 70
     1
102
RTVSPropertyOp58
 70
     1
102
RTVSPropertyOp59
 70
     1
102
RTVSPropertyOp60
 70
     1
102
RTVSPropertyOp61
 70
     1
102
RTVSPropertyOp62
 70
     1
  0
XRECORD
  5
638E
102
{ACAD_REACTORS
330
638D
102
}
330
638D
100
AcDbXrecord
280
     1
102
RTVSPost2010Prop28
280
     0
102
RTVSPost2010PropOp28
 70
     1
102
RTVSPost2010Prop29
280
     1
102
RTVSPost2010PropOp29
 70
     1
102
RTVSPost2010Prop30
280
     1
102
RTVSPost2010PropOp30
 70
     1
102
RTVSPost2010Prop31
280
     0
102
RTVSPost2010PropOp31
 70
     1
102
RTVSPost2010Prop32
280
     0
102
RTVSPost2010PropOp32
 70
     1
102
RTVSPost2010Prop33
280
     0
102
RTVSPost2010PropOp33
 70
     1
102
RTVSPost2010Prop34
280
     0
102
RTVSPost2010PropOp34
 70
     1
102
RTVSPost2010Prop35
280
     0
102
RTVSPost2010PropOp35
 70
     1
102
RTVSPost2010Prop36
280
     0
102
RTVSPost2010PropOp36
 70
     1
102
RTVSPost2010Prop37
 90
       50
102
RTVSPost2010PropOp37
 70
     1
102
RTVSPost2010Prop38
140
0.0
102
RTVSPost2010PropOp38
 70
     1
102
RTVSPost2010Prop39
140
1.0
102
RTVSPost2010PropOp39
 70
     1
102
RTVSPost2010Prop40
 90
        0
102
RTVSPost2010PropOp40
 70
     1
102
RTVSPost2010Prop41ColorIndex
 90
       18
102
RTVSPost2010Prop41ColorRGB
 90
        0
102
RTVSPost2010PropOp41
 70
     1
102
RTVSPost2010Prop42
 90
       50
102
RTVSPost2010PropOp42
 70
     1
102
RTVSPost2010Prop43
 90
        3
102
RTVSPost2010PropOp43
 70
     1
102
RTVSPost2010Prop44ColorIndex
 90
        5
102
RTVSPost2010Prop44ColorRGB
 90
      255
102
RTVSPost2010PropOp44
 70
     1
102
RTVSPost2010Prop45
280
     0
102
RTVSPost2010PropOp45
 70
     1
102
RTVSPost2010Prop46
 90
       50
102
RTVSPost2010PropOp46
 70
     1
102
RTVSPost2010Prop47
 90
       50
102
RTVSPost2010PropOp47
 70
     1
102
RTVSPost2010Prop48
 90
       50
102
RTVSPost2010PropOp48
 70
     1
102
RTVSPost2010Prop49
280
     0
102
RTVSPost2010PropOp49
 70
     1
102
RTVSPost2010Prop50
 90
       50
102
RTVSPost2010PropOp50
 70
     1
102
RTVSPost2010Prop51ColorIndex
 90
      256
102
RTVSPost2010Prop51ColorRGB
 90
-16777216
102
RTVSPost2010PropOp51
 70
     0
102
RTVSPost2010Prop52
140
1.0
102
RTVSPost2010PropOp52
 70
     0
102
RTVSPost2010Prop53
 90
        2
102
RTVSPost2010PropOp53
 70
     1
102
RTVSPost2010Prop54
  1
strokes_ogs.tif
102
RTVSPost2010PropOp54
 70
     1
102
RTVSPost2010Prop55
280
     0
102
RTVSPost2010PropOp55
 70
     1
102
RTVSPost2010Prop56
140
1.0
102
RTVSPost2010PropOp56
 70
     1
102
RTVSPost2010Prop57
140
1.0
102
RTVSPost2010PropOp57
 70
     1
102
RTVSPropertyOp0
 70
     1
102
RTVSPropertyOp1
 70
     1
102
RTVSPropertyOp2
 70
     1
102
RTVSPropertyOp3
 70
     1
102
RTVSPropertyOp4
 70
     1
102
RTVSPropertyOp5
 70
     1
102
RTVSPropertyOp6
 70
     1
102
RTVSPropertyOp7
 70
     1
102
RTVSPropertyOp8
 70
     1
102
RTVSPropertyOp9
 70
     1
102
RTVSPropertyOp10
 70
     1
102
RTVSPropertyOp11
 70
     1
102
RTVSPropertyOp12
 70
     1
102
RTVSPropertyOp13
 70
     1
102
RTVSPropertyOp14
 70
     1
102
RTVSPropertyOp15
 70
     1
102
RTVSPropertyOp16
 70
     1
102
RTVSPropertyOp17
 70
     1
102
RTVSPropertyOp18
 70
     1
102
RTVSPropertyOp19
 70
     1
102
RTVSPropertyOp20
 70
     1
102
RTVSPropertyOp21
 70
     1
102
RTVSPropertyOp22
 70
     1
102
RTVSPropertyOp23
 70
     1
102
RTVSPropertyOp24
 70
     1
102
RTVSPropertyOp25
 70
     1
102
RTVSPropertyOp26
 70
     1
102
RTVSPropertyOp27
 70
     1
102
RTVSPropertyOp28
 70
     1
102
RTVSPropertyOp29
 70
     1
102
RTVSPropertyOp30
 70
     1
102
RTVSPropertyOp31
 70
     1
102
RTVSPropertyOp32
 70
     1
102
RTVSPropertyOp33
 70
     1
102
RTVSPropertyOp34
 70
     1
102
RTVSPropertyOp35
 70
     1
102
RTVSPropertyOp36
 70
     1
102
RTVSPropertyOp37
 70
     1
102
RTVSPropertyOp38
 70
     1
102
RTVSPropertyOp39
 70
     1
102
RTVSPropertyOp40
 70
     1
102
RTVSPropertyOp41
 70
     1
102
RTVSPropertyOp42
 70
     1
102
RTVSPropertyOp43
 70
     1
102
RTVSPropertyOp44
 70
     1
102
RTVSPropertyOp45
 70
     1
102
RTVSPropertyOp46
 70
     1
102
RTVSPropertyOp47
 70
     1
102
RTVSPropertyOp48
 70
     1
102
RTVSPropertyOp49
 70
     1
102
RTVSPropertyOp50
 70
     1
102
RTVSPropertyOp51
 70
     0
102
RTVSPropertyOp52
 70
     0
102
RTVSPropertyOp53
 70
     1
102
RTVSPropertyOp54
 70
     1
102
RTVSPropertyOp55
 70
     1
102
RTVSPropertyOp56
 70
     1
102
RTVSPropertyOp57
 70
     1
102
RTVSPropertyOp58
 70
     1
102
RTVSPropertyOp59
 70
     1
102
RTVSPropertyOp60
 70
     1
102
RTVSPropertyOp61
 70
     1
102
RTVSPropertyOp62
 70
     1
  0
XRECORD
  5
63AE
102
{ACAD_REACTORS
330
63AD
102
}
330
63AD
100
AcDbXrecord
280
     1
102
RTVSPost2010Prop28
280
     0
102
RTVSPost2010PropOp28
 70
     1
102
RTVSPost2010Prop29
280
     1
102
RTVSPost2010PropOp29
 70
     1
102
RTVSPost2010Prop30
280
     1
102
RTVSPost2010PropOp30
 70
     1
102
RTVSPost2010Prop31
280
     0
102
RTVSPost2010PropOp31
 70
     1
102
RTVSPost2010Prop32
280
     0
102
RTVSPost2010PropOp32
 70
     1
102
RTVSPost2010Prop33
280
     0
102
RTVSPost2010PropOp33
 70
     1
102
RTVSPost2010Prop34
280
     0
102
RTVSPost2010PropOp34
 70
     1
102
RTVSPost2010Prop35
280
     0
102
RTVSPost2010PropOp35
 70
     1
102
RTVSPost2010Prop36
280
     0
102
RTVSPost2010PropOp36
 70
     1
102
RTVSPost2010Prop37
 90
       50
102
RTVSPost2010PropOp37
 70
     1
102
RTVSPost2010Prop38
140
0.0
102
RTVSPost2010PropOp38
 70
     1
102
RTVSPost2010Prop39
140
1.0
102
RTVSPost2010PropOp39
 70
     1
102
RTVSPost2010Prop40
 90
        0
102
RTVSPost2010PropOp40
 70
     1
102
RTVSPost2010Prop41ColorIndex
 90
       18
102
RTVSPost2010Prop41ColorRGB
 90
        0
102
RTVSPost2010PropOp41
 70
     1
102
RTVSPost2010Prop42
 90
       50
102
RTVSPost2010PropOp42
 70
     1
102
RTVSPost2010Prop43
 90
        3
102
RTVSPost2010PropOp43
 70
     1
102
RTVSPost2010Prop44ColorIndex
 90
        5
102
RTVSPost2010Prop44ColorRGB
 90
      255
102
RTVSPost2010PropOp44
 70
     1
102
RTVSPost2010Prop45
280
     0
102
RTVSPost2010PropOp45
 70
     1
102
RTVSPost2010Prop46
 90
       50
102
RTVSPost2010PropOp46
 70
     1
102
RTVSPost2010Prop47
 90
       50
102
RTVSPost2010PropOp47
 70
     1
102
RTVSPost2010Prop48
 90
       50
102
RTVSPost2010PropOp48
 70
     1
102
RTVSPost2010Prop49
280
     0
102
RTVSPost2010PropOp49
 70
     1
102
RTVSPost2010Prop50
 90
       50
102
RTVSPost2010PropOp50
 70
     1
102
RTVSPost2010Prop51ColorIndex
 90
      256
102
RTVSPost2010Prop51ColorRGB
 90
-16777216
102
RTVSPost2010PropOp51
 70
     0
102
RTVSPost2010Prop52
140
1.0
102
RTVSPost2010PropOp52
 70
     0
102
RTVSPost2010Prop53
 90
        2
102
RTVSPost2010PropOp53
 70
     1
102
RTVSPost2010Prop54
  1
strokes_ogs.tif
102
RTVSPost2010PropOp54
 70
     1
102
RTVSPost2010Prop55
280
     0
102
RTVSPost2010PropOp55
 70
     1
102
RTVSPost2010Prop56
140
1.0
102
RTVSPost2010PropOp56
 70
     1
102
RTVSPost2010Prop57
140
1.0
102
RTVSPost2010PropOp57
 70
     1
102
RTVSPropertyOp0
 70
     1
102
RTVSPropertyOp1
 70
     1
102
RTVSPropertyOp2
 70
     1
102
RTVSPropertyOp3
 70
     1
102
RTVSPropertyOp4
 70
     1
102
RTVSPropertyOp5
 70
     1
102
RTVSPropertyOp6
 70
     1
102
RTVSPropertyOp7
 70
     1
102
RTVSPropertyOp8
 70
     1
102
RTVSPropertyOp9
 70
     1
102
RTVSPropertyOp10
 70
     1
102
RTVSPropertyOp11
 70
     1
102
RTVSPropertyOp12
 70
     1
102
RTVSPropertyOp13
 70
     1
102
RTVSPropertyOp14
 70
     1
102
RTVSPropertyOp15
 70
     1
102
RTVSPropertyOp16
 70
     1
102
RTVSPropertyOp17
 70
     1
102
RTVSPropertyOp18
 70
     1
102
RTVSPropertyOp19
 70
     1
102
RTVSPropertyOp20
 70
     1
102
RTVSPropertyOp21
 70
     1
102
RTVSPropertyOp22
 70
     1
102
RTVSPropertyOp23
 70
     1
102
RTVSPropertyOp24
 70
     1
102
RTVSPropertyOp25
 70
     1
102
RTVSPropertyOp26
 70
     1
102
RTVSPropertyOp27
 70
     1
102
RTVSPropertyOp28
 70
     1
102
RTVSPropertyOp29
 70
     1
102
RTVSPropertyOp30
 70
     1
102
RTVSPropertyOp31
 70
     1
102
RTVSPropertyOp32
 70
     1
102
RTVSPropertyOp33
 70
     1
102
RTVSPropertyOp34
 70
     1
102
RTVSPropertyOp35
 70
     1
102
RTVSPropertyOp36
 70
     1
102
RTVSPropertyOp37
 70
     1
102
RTVSPropertyOp38
 70
     1
102
RTVSPropertyOp39
 70
     1
102
RTVSPropertyOp40
 70
     1
102
RTVSPropertyOp41
 70
     1
102
RTVSPropertyOp42
 70
     1
102
RTVSPropertyOp43
 70
     1
102
RTVSPropertyOp44
 70
     1
102
RTVSPropertyOp45
 70
     1
102
RTVSPropertyOp46
 70
     1
102
RTVSPropertyOp47
 70
     1
102
RTVSPropertyOp48
 70
     1
102
RTVSPropertyOp49
 70
     1
102
RTVSPropertyOp50
 70
     1
102
RTVSPropertyOp51
 70
     0
102
RTVSPropertyOp52
 70
     0
102
RTVSPropertyOp53
 70
     1
102
RTVSPropertyOp54
 70
     1
102
RTVSPropertyOp55
 70
     1
102
RTVSPropertyOp56
 70
     1
102
RTVSPropertyOp57
 70
     1
102
RTVSPropertyOp58
 70
     1
102
RTVSPropertyOp59
 70
     1
102
RTVSPropertyOp60
 70
     1
102
RTVSPropertyOp61
 70
     1
102
RTVSPropertyOp62
 70
     1
  0
ENDSEC
  0
EOF
