  0
SECTION
  2
HEADER
  9
$ACADVER
  1
AC1015
  9
$ACADMAINTVER
 70
    18
  9
$DWGCODEPAGE
  3
ANSI_1252
  9
$INSBASE
 10
0.0
 20
0.0
 30
0.0
  9
$EXTMIN
 10
-177.4374381935194
 20
-265.4627834310089
 30
-0.0015258207003583
  9
$EXTMAX
 10
177.4438483517662
 20
214.4385687106272
 30
0.0000000349246037
  9
$LIMMIN
 10
0.0
 20
0.0
  9
$LIMMAX
 10
420.0
 20
297.0
  9
$ORTHOMODE
 70
     0
  9
$REGENMODE
 70
     1
  9
$FILLMODE
 70
     1
  9
$QTEXTMODE
 70
     0
  9
$MIRRTEXT
 70
     0
  9
$LTSCALE
 40
1.0
  9
$ATTMODE
 70
     1
  9
$TEXTSIZE
 40
2.5
  9
$TRACEWID
 40
1.0
  9
$TEXTSTYLE
  7
Standard
  9
$CLAYER
  8
0
  9
$CELTYPE
  6
ByLayer
  9
$CECOLOR
 62
   256
  9
$CELTSCALE
 40
1.0
  9
$DISPSILH
 70
     0
  9
$DIMSCALE
 40
1.0
  9
$DIMASZ
 40
2.5
  9
$DIMEXO
 40
0.625
  9
$DIMDLI
 40
3.75
  9
$DIMRND
 40
0.0
  9
$DIMDLE
 40
0.0
  9
$DIMEXE
 40
1.25
  9
$DIMTP
 40
0.0
  9
$DIMTM
 40
0.0
  9
$DIMTXT
 40
2.5
  9
$DIMCEN
 40
2.5
  9
$DIMTSZ
 40
0.0
  9
$DIMTOL
 70
     0
  9
$DIMLIM
 70
     0
  9
$DIMTIH
 70
     0
  9
$DIMTOH
 70
     0
  9
$DIMSE1
 70
     0
  9
$DIMSE2
 70
     0
  9
$DIMTAD
 70
     1
  9
$DIMZIN
 70
     8
  9
$DIMBLK
  1

  9
$DIMASO
 70
     1
  9
$DIMSHO
 70
     1
  9
$DIMPOST
  1

  9
$DIMAPOST
  1

  9
$DIMALT
 70
     0
  9
$DIMALTD
 70
     3
  9
$DIMALTF
 40
0.03937007874016
  9
$DIMLFAC
 40
1.0
  9
$DIMTOFL
 70
     1
  9
$DIMTVP
 40
0.0
  9
$DIMTIX
 70
     0
  9
$DIMSOXD
 70
     0
  9
$DIMSAH
 70
     0
  9
$DIMBLK1
  1

  9
$DIMBLK2
  1

  9
$DIMSTYLE
  2
ISO-25
  9
$DIMCLRD
 70
     0
  9
$DIMCLRE
 70
     0
  9
$DIMCLRT
 70
     0
  9
$DIMTFAC
 40
1.0
  9
$DIMGAP
 40
0.625
  9
$DIMJUST
 70
     0
  9
$DIMSD1
 70
     0
  9
$DIMSD2
 70
     0
  9
$DIMTOLJ
 70
     0
  9
$DIMTZIN
 70
     8
  9
$DIMALTZ
 70
     0
  9
$DIMALTTZ
 70
     0
  9
$DIMUPT
 70
     0
  9
$DIMDEC
 70
     2
  9
$DIMTDEC
 70
     2
  9
$DIMALTU
 70
     2
  9
$DIMALTTD
 70
     3
  9
$DIMTXSTY
  7
Standard
  9
$DIMAUNIT
 70
     0
  9
$DIMADEC
 70
     0
  9
$DIMALTRND
 40
0.0
  9
$DIMAZIN
 70
     0
  9
$DIMDSEP
 70
    44
  9
$DIMATFIT
 70
     3
  9
$DIMFRAC
 70
     0
  9
$DIMLDRBLK
  1

  9
$DIMLUNIT
 70
     2
  9
$DIMLWD
 70
    -2
  9
$DIMLWE
 70
    -2
  9
$DIMTMOVE
 70
     0
  9
$LUNITS
 70
     2
  9
$LUPREC
 70
     4
  9
$SKETCHINC
 40
1.0
  9
$FILLETRAD
 40
0.0
  9
$AUNITS
 70
     0
  9
$AUPREC
 70
     0
  9
$MENU
  1
.
  9
$ELEVATION
 40
0.0
  9
$PELEVATION
 40
0.0
  9
$THICKNESS
 40
0.0
  9
$LIMCHECK
 70
     0
  9
$CHAMFERA
 40
0.0
  9
$CHAMFERB
 40
0.0
  9
$CHAMFERC
 40
0.0
  9
$CHAMFERD
 40
0.0
  9
$SKPOLY
 70
     0
  9
$TDCREATE
 40
2460367.705740741
  9
$TDUCREATE
 40
2460367.414074074
  9
$TDUPDATE
 40
2460367.713807870
  9
$TDUUPDATE
 40
2460367.422141204
  9
$TDINDWG
 40
0.0037615741
  9
$TDUSRTIMER
 40
0.0037615741
  9
$USRTIMER
 70
     1
  9
$ANGBASE
 50
0.0
  9
$ANGDIR
 70
     0
  9
$PDMODE
 70
     0
  9
$PDSIZE
 40
0.0
  9
$PLINEWID
 40
0.0
  9
$SPLFRAME
 70
     0
  9
$SPLINETYPE
 70
     6
  9
$SPLINESEGS
 70
     8
  9
$HANDSEED
  5
6094
  9
$SURFTAB1
 70
     6
  9
$SURFTAB2
 70
     6
  9
$SURFTYPE
 70
     6
  9
$SURFU
 70
     6
  9
$SURFV
 70
     6
  9
$UCSBASE
  2

  9
$UCSNAME
  2

  9
$UCSORG
 10
0.0
 20
0.0
 30
0.0
  9
$UCSXDIR
 10
1.0
 20
0.0
 30
0.0
  9
$UCSYDIR
 10
0.0
 20
1.0
 30
0.0
  9
$UCSORTHOREF
  2

  9
$UCSORTHOVIEW
 70
     0
  9
$UCSORGTOP
 10
0.0
 20
0.0
 30
0.0
  9
$UCSORGBOTTOM
 10
0.0
 20
0.0
 30
0.0
  9
$UCSORGLEFT
 10
0.0
 20
0.0
 30
0.0
  9
$UCSORGRIGHT
 10
0.0
 20
0.0
 30
0.0
  9
$UCSORGFRONT
 10
0.0
 20
0.0
 30
0.0
  9
$UCSORGBACK
 10
0.0
 20
0.0
 30
0.0
  9
$PUCSBASE
  2

  9
$PUCSNAME
  2

  9
$PUCSORG
 10
0.0
 20
0.0
 30
0.0
  9
$PUCSXDIR
 10
1.0
 20
0.0
 30
0.0
  9
$PUCSYDIR
 10
0.0
 20
1.0
 30
0.0
  9
$PUCSORTHOREF
  2

  9
$PUCSORTHOVIEW
 70
     0
  9
$PUCSORGTOP
 10
0.0
 20
0.0
 30
0.0
  9
$PUCSORGBOTTOM
 10
0.0
 20
0.0
 30
0.0
  9
$PUCSORGLEFT
 10
0.0
 20
0.0
 30
0.0
  9
$PUCSORGRIGHT
 10
0.0
 20
0.0
 30
0.0
  9
$PUCSORGFRONT
 10
0.0
 20
0.0
 30
0.0
  9
$PUCSORGBACK
 10
0.0
 20
0.0
 30
0.0
  9
$USERI1
 70
     0
  9
$USERI2
 70
     0
  9
$USERI3
 70
     0
  9
$USERI4
 70
     0
  9
$USERI5
 70
     0
  9
$USERR1
 40
0.0
  9
$USERR2
 40
0.0
  9
$USERR3
 40
0.0
  9
$USERR4
 40
0.0
  9
$USERR5
 40
0.0
  9
$WORLDVIEW
 70
     1
  9
$SHADEDGE
 70
     3
  9
$SHADEDIF
 70
    70
  9
$TILEMODE
 70
     1
  9
$MAXACTVP
 70
    48
  9
$PINSBASE
 10
0.0
 20
0.0
 30
0.0
  9
$PLIMCHECK
 70
     0
  9
$PEXTMIN
 10
0.0
 20
0.0
 30
0.0
  9
$PEXTMAX
 10
0.0
 20
0.0
 30
0.0
  9
$PLIMMIN
 10
0.0
 20
0.0
  9
$PLIMMAX
 10
12.0
 20
9.0
  9
$UNITMODE
 70
     0
  9
$VISRETAIN
 70
     1
  9
$PLINEGEN
 70
     0
  9
$PSLTSCALE
 70
     1
  9
$TREEDEPTH
 70
  3020
  9
$CMLSTYLE
  2
Standard
  9
$CMLJUST
 70
     0
  9
$CMLSCALE
 40
20.0
  9
$PROXYGRAPHICS
 70
     1
  9
$MEASUREMENT
 70
     1
  9
$CELWEIGHT
370
    -1
  9
$ENDCAPS
280
     0
  9
$JOINSTYLE
280
     0
  9
$LWDISPLAY
290
     0
  9
$INSUNITS
 70
     4
  9
$HYPERLINKBASE
  1

  9
$STYLESHEET
  1

  9
$XEDIT
290
     1
  9
$CEPSNTYPE
380
     0
  9
$PSTYLEMODE
290
     1
  9
$FINGERPRINTGUID
  2
{09ACAAAA-6FF3-F94C-B944-1C0D1F37C415}
  9
$VERSIONGUID
  2
{24D3D438-E059-A84D-AB26-B479CA460906}
  9
$EXTNAMES
290
     1
  9
$PSVPSCALE
 40
0.0
  9
$OLESTARTUP
290
     0
  0
ENDSEC
  0
SECTION
  2
CLASSES
  0
CLASS
  1
ACDBDICTIONARYWDFLT
  2
AcDbDictionaryWithDefault
  3
ObjectDBX Classes
 90
        0
280
     0
281
     0
  0
CLASS
  1
ACDBPLACEHOLDER
  2
AcDbPlaceHolder
  3
ObjectDBX Classes
 90
        0
280
     0
281
     0
  0
CLASS
  1
LAYOUT
  2
AcDbLayout
  3
ObjectDBX Classes
 90
        0
280
     0
281
     0
  0
CLASS
  1
DICTIONARYVAR
  2
AcDbDictionaryVar
  3
ObjectDBX Classes
 90
        0
280
     0
281
     0
  0
CLASS
  1
TABLESTYLE
  2
AcDbTableStyle
  3
ObjectDBX Classes
 90
     4095
280
     0
281
     0
  0
CLASS
  1
MATERIAL
  2
AcDbMaterial
  3
ObjectDBX Classes
 90
     1153
280
     0
281
     0
  0
CLASS
  1
VISUALSTYLE
  2
AcDbVisualStyle
  3
ObjectDBX Classes
 90
     4095
280
     0
281
     0
  0
CLASS
  1
SCALE
  2
AcDbScale
  3
ObjectDBX Classes
 90
     1153
280
     0
281
     0
  0
CLASS
  1
MLEADERSTYLE
  2
AcDbMLeaderStyle
  3
ACDB_MLEADERSTYLE_CLASS
 90
     4095
280
     0
281
     0
  0
CLASS
  1
CELLSTYLEMAP
  2
AcDbCellStyleMap
  3
ObjectDBX Classes
 90
     1152
280
     0
281
     0
  0
CLASS
  1
EXACXREFPANELOBJECT
  2
ExAcXREFPanelObject
  3
EXAC_ESW
 90
    33793
280
     0
281
     0
  0
CLASS
  1
NPOCOLLECTION
  2
AcDbImpNonPersistentObjectsCollection
  3
ObjectDBX Classes
 90
    33921
280
     0
281
     0
  0
CLASS
  1
LAYER_INDEX
  2
AcDbLayerIndex
  3
ObjectDBX Classes
 90
    32768
280
     0
281
     0
  0
CLASS
  1
SPATIAL_INDEX
  2
AcDbSpatialIndex
  3
ObjectDBX Classes
 90
    32768
280
     0
281
     0
  0
CLASS
  1
IDBUFFER
  2
AcDbIdBuffer
  3
ObjectDBX Classes
 90
    32768
280
     0
281
     0
  0
CLASS
  1
ACDBSECTIONVIEWSTYLE
  2
AcDbSectionViewStyle
  3
ObjectDBX Classes
 90
     1025
280
     0
281
     0
  0
CLASS
  1
ACDBDETAILVIEWSTYLE
  2
AcDbDetailViewStyle
  3
ObjectDBX Classes
 90
     1025
280
     0
281
     0
  0
CLASS
  1
XRECORD
  2
AcDbXrecord
  3
ObjectDBX Classes
 90
        0
280
     0
281
     0
  0
ENDSEC
  0
SECTION
  2
TABLES
  0
TABLE
  2
VPORT
  5
8
102
{ACAD_XDICTIONARY
360
5FA2
102
}
330
0
100
AcDbSymbolTable
 70
     1
  0
VPORT
  5
EA
330
8
100
AcDbSymbolTableRecord
100
AcDbViewportTableRecord
  2
*Active
 70
     0
 10
0.0
 20
0.0
 11
1.0
 21
1.0
 12
0.0032050791234042
 22
-25.51210736019084
 13
0.0
 23
0.0
 14
10.0
 24
10.0
 15
10.0
 25
10.0
 16
0.0
 26
0.0
 36
1.0
 17
0.0
 27
0.0
 37
0.0
 40
510.331597750761
 41
0.9846153846153846
 42
50.0
 43
0.0
 44
0.0
 50
0.0
 51
0.0
 71
     0
 72
  1000
 73
     1
 74
     3
 75
     0
 76
     1
 77
     0
 78
     0
281
     0
 65
     1
110
0.0
120
0.0
130
0.0
111
1.0
121
0.0
131
0.0
112
0.0
122
1.0
132
0.0
 79
     0
146
0.0
1001
ACAD_NAV_VCDISPLAY
1070
     3
  0
ENDTAB
  0
TABLE
  2
LTYPE
  5
5
330
0
100
AcDbSymbolTable
 70
     1
  0
LTYPE
  5
14
330
5
100
AcDbSymbolTableRecord
100
AcDbLinetypeTableRecord
  2
ByBlock
 70
     0
  3

 72
    65
 73
     0
 40
0.0
  0
LTYPE
  5
15
330
5
100
AcDbSymbolTableRecord
100
AcDbLinetypeTableRecord
  2
ByLayer
 70
     0
  3

 72
    65
 73
     0
 40
0.0
  0
LTYPE
  5
16
330
5
100
AcDbSymbolTableRecord
100
AcDbLinetypeTableRecord
  2
Continuous
 70
     0
  3
Solid line
 72
    65
 73
     0
 40
0.0
  0
ENDTAB
  0
TABLE
  2
LAYER
  5
2
102
{ACAD_XDICTIONARY
360
1FF
102
}
330
0
100
AcDbSymbolTable
 70
     1
  0
LAYER
  5
10
102
{ACAD_XDICTIONARY
360
13C
102
}
330
2
100
AcDbSymbolTableRecord
100
AcDbLayerTableRecord
  2
0
 70
     0
 62
     7
  6
Continuous
370
    -3
390
F
  0
ENDTAB
  0
TABLE
  2
STYLE
  5
3
330
0
100
AcDbSymbolTable
 70
     1
  0
STYLE
  5
11
330
3
100
AcDbSymbolTableRecord
100
AcDbTextStyleTableRecord
  2
Standard
 70
     0
 40
0.0
 41
1.0
 50
0.0
 71
     0
 42
2.5
  3
arial.ttf
  4

1001
ACAD
1000
Arial
1071
       34
  0
ENDTAB
  0
TABLE
  2
VIEW
  5
6
330
0
100
AcDbSymbolTable
 70
     0
  0
ENDTAB
  0
TABLE
  2
UCS
  5
7
330
0
100
AcDbSymbolTable
 70
     0
  0
ENDTAB
  0
TABLE
  2
APPID
  5
9
330
0
100
AcDbSymbolTable
 70
     8
  0
APPID
  5
12
330
9
100
AcDbSymbolTableRecord
100
AcDbRegAppTableRecord
  2
ACAD
 70
     0
  0
APPID
  5
9E
330
9
100
AcDbSymbolTableRecord
100
AcDbRegAppTableRecord
  2
ACAD_PSEXT
 70
     0
  0
APPID
  5
133
330
9
100
AcDbSymbolTableRecord
100
AcDbRegAppTableRecord
  2
AcadAnnoPO
 70
     0
  0
APPID
  5
134
330
9
100
AcDbSymbolTableRecord
100
AcDbRegAppTableRecord
  2
AcadAnnotative
 70
     0
  0
APPID
  5
135
330
9
100
AcDbSymbolTableRecord
100
AcDbRegAppTableRecord
  2
ACAD_DSTYLE_DIMJAG
 70
     0
  0
APPID
  5
136
330
9
100
AcDbSymbolTableRecord
100
AcDbRegAppTableRecord
  2
ACAD_DSTYLE_DIMTALN
 70
     0
  0
APPID
  5
165
330
9
100
AcDbSymbolTableRecord
100
AcDbRegAppTableRecord
  2
ACAD_MLEADERVER
 70
     0
  0
APPID
  5
217
330
9
100
AcDbSymbolTableRecord
100
AcDbRegAppTableRecord
  2
ACAD_NAV_VCDISPLAY
 70
     0
  0
ENDTAB
  0
TABLE
  2
DIMSTYLE
  5
A
330
0
100
AcDbSymbolTable
 70
     1
100
AcDbDimStyleTable
 71
     0
  0
DIMSTYLE
105
27
330
A
100
AcDbSymbolTableRecord
100
AcDbDimStyleTableRecord
  2
ISO-25
 70
     0
 41
2.5
 42
0.625
 43
3.75
 44
1.25
 73
     0
 74
     0
 77
     1
 78
     8
140
2.5
141
2.5
143
0.03937007874016
147
0.625
171
     3
172
     1
271
     2
272
     2
274
     3
278
    44
283
     0
284
     8
340
11
  0
ENDTAB
  0
TABLE
  2
BLOCK_RECORD
  5
1
330
0
100
AcDbSymbolTable
 70
     7
  0
BLOCK_RECORD
  5
1F
102
{ACAD_XDICTIONARY
360
1CE
102
}
330
1
100
AcDbSymbolTableRecord
100
AcDbBlockTableRecord
  2
*Model_Space
340
22
  0
BLOCK_RECORD
  5
D2
102
{ACAD_XDICTIONARY
360
5F55
102
}
330
1
100
AcDbSymbolTableRecord
100
AcDbBlockTableRecord
  2
*Paper_Space
340
D3
  0
BLOCK_RECORD
  5
D6
102
{ACAD_XDICTIONARY
360
5F57
102
}
330
1
100
AcDbSymbolTableRecord
100
AcDbBlockTableRecord
  2
*Paper_Space0
340
D7
  0
BLOCK_RECORD
  5
5D04
330
1
100
AcDbSymbolTableRecord
100
AcDbBlockTableRecord
  2
TU16-Front
340
0
102
{BLKREFS
331
5F4B
102
}
  0
BLOCK_RECORD
  5
5D64
330
1
100
AcDbSymbolTableRecord
100
AcDbBlockTableRecord
  2
TU16-Left
340
0
102
{BLKREFS
331
5F4C
102
}
  0
BLOCK_RECORD
  5
5DA6
330
1
100
AcDbSymbolTableRecord
100
AcDbBlockTableRecord
  2
TU16-Right
340
0
102
{BLKREFS
331
5F4D
102
}
  0
BLOCK_RECORD
  5
5DE8
330
1
100
AcDbSymbolTableRecord
100
AcDbBlockTableRecord
  2
TU16-Top
340
0
102
{BLKREFS
331
5F4E
102
}
  0
BLOCK_RECORD
  5
5E3D
330
1
100
AcDbSymbolTableRecord
100
AcDbBlockTableRecord
  2
TU16-Bottom
340
0
102
{BLKREFS
331
5F4F
102
}
  0
BLOCK_RECORD
  5
5E6F
330
1
100
AcDbSymbolTableRecord
100
AcDbBlockTableRecord
  2
TU16-ISO
340
0
102
{BLKREFS
331
5F50
102
}
  0
ENDTAB
  0
ENDSEC
  0
SECTION
  2
BLOCKS
  0
BLOCK
  5
20
330
1F
100
AcDbEntity
  8
0
100
AcDbBlockBegin
  2
*Model_Space
 70
     0
 10
0.0
 20
0.0
 30
0.0
  3
*Model_Space
  1

  0
ENDBLK
  5
21
330
1F
100
AcDbEntity
  8
0
100
AcDbBlockEnd
  0
BLOCK
  5
D4
330
D2
100
AcDbEntity
 67
     1
  8
0
100
AcDbBlockBegin
  2
*Paper_Space
 70
     0
 10
0.0
 20
0.0
 30
0.0
  3
*Paper_Space
  1

  0
ENDBLK
  5
D5
330
D2
100
AcDbEntity
 67
     1
  8
0
100
AcDbBlockEnd
  0
BLOCK
  5
D8
330
D6
100
AcDbEntity
 67
     1
  8
0
100
AcDbBlockBegin
  2
*Paper_Space0
 70
     0
 10
0.0
 20
0.0
 30
0.0
  3
*Paper_Space0
  1

  0
ENDBLK
  5
D9
330
D6
100
AcDbEntity
 67
     1
  8
0
100
AcDbBlockEnd
  0
BLOCK
  5
5D05
330
5D04
100
AcDbEntity
  8
0
100
AcDbBlockBegin
  2
TU16-Front
 70
     0
 10
0.0
 20
0.0
 30
0.0
  3
TU16-Front
  1

  0
LINE
  5
5D07
330
5D04
100
AcDbEntity
  8
0
100
AcDbLine
 10
4.500000000000034
 20
-3.250000000000004
 30
0.0
 11
2.540935496491221
 21
-3.250000000000032
 31
0.0
  0
SPLINE
  5
5D08
330
5D04
100
AcDbEntity
  8
0
100
AcDbSpline
210
0.0
220
0.0
230
1.0
 70
     8
 71
     3
 72
    12
 73
     8
 74
     0
 42
0.000000001
 43
0.0000000001
 40
0.3975413774053146
 40
0.3975413774053146
 40
0.3975413774053146
 40
0.3975413774053146
 40
0.4924973234428319
 40
0.4924973234428319
 40
0.5936467899885186
 40
0.5936467899885186
 40
0.761125163031526
 40
0.761125163031526
 40
0.761125163031526
 40
0.761125163031526
 10
4.000011975312553
 20
-32.13288732846804
 30
0.0
 10
4.090281896124647
 20
-32.25330652557796
 30
0.0
 10
4.171093514157684
 20
-32.38773035217466
 30
0.0
 10
4.313761828379394
 20
-32.69047903846791
 30
0.0
 10
4.371358554569056
 20
-32.85481987671616
 30
0.0
 10
4.482867459146049
 20
-33.30074827662804
 30
0.0
 10
4.500023436785223
 20
-33.54957521479256
 30
0.0
 10
4.500000000000035
 20
-33.73443401210682
 30
0.0
  0
SPLINE
  5
5D09
330
5D04
100
AcDbEntity
  8
0
100
AcDbSpline
210
0.0
220
0.0
230
1.0
 70
     8
 71
     3
 72
    12
 73
     8
 74
     0
 42
0.000000001
 43
0.0000000001
 40
0.0002887099491829
 40
0.0002887099491829
 40
0.0002887099491829
 40
0.0002887099491829
 40
0.0405976442392018
 40
0.0405976442392018
 40
0.0716043848019677
 40
0.0716043848019677
 40
0.0808633911521522
 40
0.0808633911521522
 40
0.0808633911521522
 40
0.0808633911521522
 10
4.499999520333876
 20
-33.73154032856705
 30
0.0
 10
4.49984522426832
 20
-33.59656464414783
 30
0.0
 10
4.481182383544155
 20
-33.41888721563085
 30
0.0
 10
4.354027954235212
 20
-33.06063936823713
 30
0.0
 10
4.26655326786897
 20
-32.88817092496785
 30
0.0
 10
4.088768740429252
 20
-32.65615750106789
 30
0.0
 10
4.045438593546216
 20
-32.60480351472858
 30
0.0
 10
4.00001769501258
 20
-32.55541418282805
 30
0.0
  0
ARC
  5
5D0A
330
5D04
100
AcDbEntity
  8
0
100
AcDbCircle
 10
2.250000000000038
 20
-33.73443401210682
 30
0.0
 40
2.250000000000001
100
AcDbArc
 50
321.0575587310182
 51
0.0
  0
CIRCLE
  5
5D0B
330
5D04
100
AcDbEntity
  8
0
100
AcDbCircle
 10
-23.99999999999998
 20
-61.00000000000001
 30
0.0
 40
2.499999999999997
  0
CIRCLE
  5
5D0C
330
5D04
100
AcDbEntity
  8
0
100
AcDbCircle
 10
-3.999999999999979
 20
-61.00000000000001
 30
0.0
 40
2.499999999999997
  0
CIRCLE
  5
5D0D
330
5D04
100
AcDbEntity
  8
0
100
AcDbCircle
 10
-13.99999999999997
 20
-51.00000000000001
 30
0.0
 40
2.5
  0
LINE
  5
5D0E
330
5D04
100
AcDbEntity
  8
0
100
AcDbLine
 10
-28.7492131868318
 20
-48.68563229086642
 30
0.0
 11
-3.999999999999928
 21
-38.68630109460107
 31
0.0
  0
ARC
  5
5D0F
330
5D04
100
AcDbEntity
  8
0
100
AcDbCircle
 10
-27.99999999999998
 20
-50.54000000000001
 30
0.0
 40
2.000000000000019
100
AcDbArc
 50
111.9999999999999
 51
180.0
  0
LINE
  5
5D10
330
5D04
100
AcDbEntity
  8
0
100
AcDbLine
 10
-29.99999999999998
 20
-65.0
 30
0.0
 11
-29.99999999999998
 21
-50.54000000000001
 31
0.0
  0
ARC
  5
5D11
330
5D04
100
AcDbEntity
  8
0
100
AcDbCircle
 10
-27.99999999999999
 20
-65.00000000000001
 30
0.0
 40
1.999999999999992
100
AcDbArc
 50
180.0
 51
270.0
  0
LINE
  5
5D12
330
5D04
100
AcDbEntity
  8
0
100
AcDbLine
 10
-1.732050807568861
 20
-67.00000000000001
 30
0.0
 11
-27.99999999999999
 21
-67.00000000000001
 31
0.0
  0
LINE
  5
5D13
330
5D04
100
AcDbEntity
  8
0
100
AcDbLine
 10
0.0
 20
-64.00000000000003
 30
0.0
 11
-1.732050807568861
 21
-67.00000000000001
 31
0.0
  0
LINE
  5
5D14
330
5D04
100
AcDbEntity
  8
0
100
AcDbLine
 10
1.732050807568892
 20
-67.00000000000001
 30
0.0
 11
0.0
 21
-64.00000000000003
 31
0.0
  0
LINE
  5
5D15
330
5D04
100
AcDbEntity
  8
0
100
AcDbLine
 10
28.00000000000003
 20
-67.00000000000002
 30
0.0
 11
1.73205080756889
 21
-67.00000000000001
 31
0.0
  0
ARC
  5
5D16
330
5D04
100
AcDbEntity
  8
0
100
AcDbCircle
 10
28.00000000000003
 20
-65.00000000000001
 30
0.0
 40
1.999999999999999
100
AcDbArc
 50
270.0
 51
0.0
  0
LINE
  5
5D17
330
5D04
100
AcDbEntity
  8
0
100
AcDbLine
 10
30.00000000000004
 20
-5.250000000000025
 30
0.0
 11
30.00000000000002
 21
-65.00000000000001
 31
0.0
  0
ARC
  5
5D18
330
5D04
100
AcDbEntity
  8
0
100
AcDbCircle
 10
28.00000000000003
 20
-5.250000000000034
 30
0.0
 40
2.00000000000001
100
AcDbArc
 50
0.0
 51
89.99999999999975
  0
LINE
  5
5D19
330
5D04
100
AcDbEntity
  8
0
100
AcDbLine
 10
4.500000000000035
 20
-3.250000000000015
 30
0.0
 11
28.00000000000005
 21
-3.250000000000023
 31
0.0
  0
ARC
  5
5D1A
330
5D04
100
AcDbEntity
  8
0
100
AcDbCircle
 10
-2.249999999999972
 20
33.87443401210674
 30
0.0
 40
2.249999999999997
100
AcDbArc
 50
112.0
 51
180.0
  0
LINE
  5
5D1B
330
5D04
100
AcDbEntity
  8
0
100
AcDbLine
 10
28.74921318683186
 20
48.82563229086642
 30
0.0
 11
1.500000000000074
 21
37.81623553001317
 31
0.0
  0
LINE
  5
5D1C
330
5D04
100
AcDbEntity
  8
0
100
AcDbLine
 10
-1.49999999999993
 20
36.60415685250769
 30
0.0
 11
-3.092864835185775
 21
35.96059768488201
 31
0.0
  0
ARC
  5
5D1D
330
5D04
100
AcDbEntity
  8
0
100
AcDbCircle
 10
28.00000000000003
 20
50.67999999999999
 30
0.0
 40
2.000000000000079
100
AcDbArc
 50
292.0000000000002
 51
0.0
  0
LINE
  5
5D1E
330
5D04
100
AcDbEntity
  8
0
100
AcDbLine
 10
30.00000000000004
 20
65.0
 30
0.0
 11
30.00000000000002
 21
50.67999999999999
 31
0.0
  0
ARC
  5
5D1F
330
5D04
100
AcDbEntity
  8
0
100
AcDbCircle
 10
28.00000000000005
 20
65.0
 30
0.0
 40
1.999999999999984
100
AcDbArc
 50
0.0
 51
90.00000000000026
  0
LINE
  5
5D20
330
5D04
100
AcDbEntity
  8
0
100
AcDbLine
 10
1.732050807568927
 20
67.0
 30
0.0
 11
28.00000000000005
 21
66.99999999999997
 31
0.0
  0
LINE
  5
5D21
330
5D04
100
AcDbEntity
  8
0
100
AcDbLine
 10
0.0
 20
63.99999999999998
 30
0.0
 11
1.732050807568927
 21
67.0
 31
0.0
  0
LINE
  5
5D22
330
5D04
100
AcDbEntity
  8
0
100
AcDbLine
 10
-1.732050807568843
 20
67.0
 30
0.0
 11
0.0
 21
63.99999999999998
 31
0.0
  0
LINE
  5
5D23
330
5D04
100
AcDbEntity
  8
0
100
AcDbLine
 10
-27.99999999999997
 20
67.00000000000001
 30
0.0
 11
-1.732050807568845
 21
67.0
 31
0.0
  0
ARC
  5
5D24
330
5D04
100
AcDbEntity
  8
0
100
AcDbCircle
 10
-27.99999999999999
 20
65.00000000000001
 30
0.0
 40
1.999999999999992
100
AcDbArc
 50
89.99999999999975
 51
180.0
  0
LINE
  5
5D25
330
5D04
100
AcDbEntity
  8
0
100
AcDbLine
 10
-29.99999999999998
 20
3.249999999999979
 30
0.0
 11
-29.99999999999998
 21
65.00000000000001
 31
0.0
  0
ARC
  5
5D26
330
5D04
100
AcDbEntity
  8
0
100
AcDbCircle
 10
-27.99999999999997
 20
3.249999999999988
 30
0.0
 40
2.00000000000001
100
AcDbArc
 50
180.0
 51
269.9999999999999
  0
LINE
  5
5D27
330
5D04
100
AcDbEntity
  8
0
100
AcDbLine
 10
-4.499999999999968
 20
1.249999999999995
 30
0.0
 11
-27.99999999999997
 21
1.249999999999977
 31
0.0
  0
CIRCLE
  5
5D28
330
5D04
100
AcDbEntity
  8
0
100
AcDbCircle
 10
4.000000000000046
 20
58.99999999999998
 30
0.0
 40
2.499999999999999
  0
CIRCLE
  5
5D29
330
5D04
100
AcDbEntity
  8
0
100
AcDbCircle
 10
24.00000000000003
 20
58.99999999999998
 30
0.0
 40
2.500000000000002
  0
CIRCLE
  5
5D2A
330
5D04
100
AcDbEntity
  8
0
100
AcDbCircle
 10
14.00000000000003
 20
48.99999999999998
 30
0.0
 40
2.499999999999996
  0
LINE
  5
5D2B
330
5D04
100
AcDbEntity
  8
0
100
AcDbLine
 10
1.500000000000085
 20
-59.00000000000005
 30
0.0
 11
-1.499999999999903
 21
-59.00000000000005
 31
0.0
  0
LINE
  5
5D2C
330
5D04
100
AcDbEntity
  8
0
100
AcDbLine
 10
-1.499999999999903
 20
-59.00000000000005
 30
0.0
 11
-1.499999999999902
 21
-57.00000000000006
 31
0.0
  0
LINE
  5
5D2D
330
5D04
100
AcDbEntity
  8
0
100
AcDbLine
 10
1.500000000000087
 20
-57.00000000000006
 30
0.0
 11
1.500000000000085
 21
-59.00000000000005
 31
0.0
  0
LINE
  5
5D2E
330
5D04
100
AcDbEntity
  8
0
100
AcDbLine
 10
-1.499999999999902
 20
51.99999999999997
 30
0.0
 11
-1.499999999999902
 21
-57.00000000000004
 31
0.0
  0
LINE
  5
5D2F
330
5D04
100
AcDbEntity
  8
0
100
AcDbLine
 10
1.500000000000086
 20
-57.00000000000006
 30
0.0
 11
1.500000000000104
 21
51.99999999999995
 31
0.0
  0
LINE
  5
5D30
330
5D04
100
AcDbEntity
  8
0
100
AcDbLine
 10
-1.499999999999902
 20
51.99999999999997
 30
0.0
 11
-1.499999999999903
 21
53.99999999999997
 31
0.0
  0
LINE
  5
5D31
330
5D04
100
AcDbEntity
  8
0
100
AcDbLine
 10
1.500000000000103
 20
53.99999999999997
 30
0.0
 11
1.500000000000104
 21
51.99999999999997
 31
0.0
  0
LINE
  5
5D32
330
5D04
100
AcDbEntity
  8
0
100
AcDbLine
 10
1.500000000000103
 20
53.99999999999997
 30
0.0
 11
-1.499999999999903
 21
53.99999999999997
 31
0.0
  0
LINE
  5
5D33
330
5D04
100
AcDbEntity
  8
0
100
AcDbLine
 10
-1.499999999999908
 20
54.99999999999999
 30
0.0
 11
-1.499999999999908
 21
53.99999999999998
 31
0.0
  0
LINE
  5
5D34
330
5D04
100
AcDbEntity
  8
0
100
AcDbLine
 10
1.500000000000097
 20
53.99999999999998
 30
0.0
 11
1.50000000000008
 21
54.99999999999999
 31
0.0
  0
LINE
  5
5D35
330
5D04
100
AcDbEntity
  8
0
100
AcDbLine
 10
-1.499999999999908
 20
54.99999999999999
 30
0.0
 11
-1.499999999999909
 21
55.99999999999997
 31
0.0
  0
LINE
  5
5D36
330
5D04
100
AcDbEntity
  8
0
100
AcDbLine
 10
1.50000000000008
 20
55.99999999999997
 30
0.0
 11
1.500000000000081
 21
54.99999999999999
 31
0.0
  0
LINE
  5
5D37
330
5D04
100
AcDbEntity
  8
0
100
AcDbLine
 10
1.500000000000097
 20
55.99999999999997
 30
0.0
 11
-1.499999999999909
 21
55.99999999999997
 31
0.0
  0
CIRCLE
  5
5D38
330
5D04
100
AcDbEntity
  8
0
100
AcDbCircle
 10
24.00000000000004
 20
-21.00000000000003
 30
0.0
 40
2.500000000000001
  0
CIRCLE
  5
5D39
330
5D04
100
AcDbEntity
  8
0
100
AcDbCircle
 10
14.00000000000004
 20
-11.00000000000003
 30
0.0
 40
2.500000000000002
  0
CIRCLE
  5
5D3A
330
5D04
100
AcDbEntity
  8
0
100
AcDbCircle
 10
-13.99999999999997
 20
49.0
 30
0.0
 40
2.500000000000003
  0
CIRCLE
  5
5D3B
330
5D04
100
AcDbEntity
  8
0
100
AcDbCircle
 10
-23.99999999999997
 20
59.0
 30
0.0
 40
2.5
  0
CIRCLE
  5
5D3C
330
5D04
100
AcDbEntity
  8
0
100
AcDbCircle
 10
24.00000000000003
 20
-41.00000000000001
 30
0.0
 40
2.500000000000001
  0
CIRCLE
  5
5D3D
330
5D04
100
AcDbEntity
  8
0
100
AcDbCircle
 10
14.00000000000004
 20
-31.00000000000002
 30
0.0
 40
2.500000000000002
  0
CIRCLE
  5
5D3E
330
5D04
100
AcDbEntity
  8
0
100
AcDbCircle
 10
24.00000000000003
 20
-61.00000000000003
 30
0.0
 40
2.500000000000001
  0
CIRCLE
  5
5D3F
330
5D04
100
AcDbEntity
  8
0
100
AcDbCircle
 10
14.00000000000003
 20
-51.00000000000001
 30
0.0
 40
2.500000000000002
  0
CIRCLE
  5
5D40
330
5D04
100
AcDbEntity
  8
0
100
AcDbCircle
 10
-13.99999999999997
 20
29.0
 30
0.0
 40
2.500000000000003
  0
CIRCLE
  5
5D41
330
5D04
100
AcDbEntity
  8
0
100
AcDbCircle
 10
-23.99999999999997
 20
39.0
 30
0.0
 40
2.5
  0
CIRCLE
  5
5D42
330
5D04
100
AcDbEntity
  8
0
100
AcDbCircle
 10
-13.99999999999998
 20
8.999999999999982
 30
0.0
 40
2.500000000000003
  0
CIRCLE
  5
5D43
330
5D04
100
AcDbEntity
  8
0
100
AcDbCircle
 10
-23.99999999999997
 20
19.0
 30
0.0
 40
2.5
  0
LINE
  5
5D44
330
5D04
100
AcDbEntity
  8
0
100
AcDbLine
 10
-3.999999999999905
 20
7.477016653792545
 30
0.0
 11
-3.999999999999907
 21
-9.477016653792635
 31
0.0
  0
ARC
  5
5D45
330
5D04
100
AcDbEntity
  8
0
100
AcDbCircle
 10
-1.499999999999905
 20
7.477016653792545
 30
0.0
 40
2.5
100
AcDbArc
 50
114.3157391711766
 51
180.0
  0
ARC
  5
5D46
330
5D04
100
AcDbEntity
  8
0
100
AcDbCircle
 10
-1.499999999999908
 20
-9.477016653792635
 30
0.0
 40
2.5
100
AcDbArc
 50
180.0
 51
245.6842608288233
  0
ARC
  5
5D47
330
5D04
100
AcDbEntity
  8
0
100
AcDbCircle
 10
-3.249999999999912
 20
11.34999999999996
 30
0.0
 40
1.75
100
AcDbArc
 50
294.3157391711765
 51
0.0
  0
ARC
  5
5D48
330
5D04
100
AcDbEntity
  8
0
100
AcDbCircle
 10
-3.249999999999915
 20
-13.35000000000006
 30
0.0
 40
1.75
100
AcDbArc
 50
0.0
 51
65.68426082882361
  0
LINE
  5
5D49
330
5D04
100
AcDbEntity
  8
0
100
AcDbLine
 10
4.000000000000057
 20
11.97701665379254
 30
0.0
 11
4.000000000000055
 21
-0.9770166537926394
 31
0.0
  0
ARC
  5
5D4A
330
5D04
100
AcDbEntity
  8
0
100
AcDbCircle
 10
1.500000000000057
 20
11.97701665379254
 30
0.0
 40
2.5
100
AcDbArc
 50
0.0
 51
65.68426082882337
  0
ARC
  5
5D4B
330
5D04
100
AcDbEntity
  8
0
100
AcDbCircle
 10
1.500000000000055
 20
-0.9770166537926394
 30
0.0
 40
2.5
100
AcDbArc
 50
294.3157391711766
 51
0.0
  0
ARC
  5
5D4C
330
5D04
100
AcDbEntity
  8
0
100
AcDbCircle
 10
3.250000000000064
 20
15.84999999999995
 30
0.0
 40
1.75
100
AcDbArc
 50
180.0
 51
245.6842608288235
  0
ARC
  5
5D4D
330
5D04
100
AcDbEntity
  8
0
100
AcDbCircle
 10
3.250000000000063
 20
-4.850000000000052
 30
0.0
 40
1.75
100
AcDbArc
 50
114.3157391711765
 51
180.0
  0
LINE
  5
5D4E
330
5D04
100
AcDbEntity
  8
0
100
AcDbLine
 10
-3.999999999999905
 20
-32.52298334620744
 30
0.0
 11
-3.999999999999907
 21
-49.47701665379263
 31
0.0
  0
LINE
  5
5D4F
330
5D04
100
AcDbEntity
  8
0
100
AcDbLine
 10
4.000000000000057
 20
-28.02298334620744
 30
0.0
 11
4.000000000000055
 21
-40.97701665379261
 31
0.0
  0
ARC
  5
5D50
330
5D04
100
AcDbEntity
  8
0
100
AcDbCircle
 10
-1.499999999999923
 20
-32.52298334620745
 30
0.0
 40
2.5
100
AcDbArc
 50
114.3157391711766
 51
180.0
  0
ARC
  5
5D51
330
5D04
100
AcDbEntity
  8
0
100
AcDbCircle
 10
-1.499999999999925
 20
-49.47701665379263
 30
0.0
 40
2.5
100
AcDbArc
 50
180.0
 51
245.6842608288233
  0
ARC
  5
5D52
330
5D04
100
AcDbEntity
  8
0
100
AcDbCircle
 10
-3.249999999999912
 20
-28.65000000000002
 30
0.0
 40
1.75
100
AcDbArc
 50
294.3157391711758
 51
0.0
  0
ARC
  5
5D53
330
5D04
100
AcDbEntity
  8
0
100
AcDbCircle
 10
-3.249999999999915
 20
-53.35000000000004
 30
0.0
 40
1.75
100
AcDbArc
 50
0.0
 51
65.68426082882415
  0
ARC
  5
5D54
330
5D04
100
AcDbEntity
  8
0
100
AcDbCircle
 10
1.500000000000057
 20
-28.02298334620744
 30
0.0
 40
2.5
100
AcDbArc
 50
0.0
 51
65.68426082882339
  0
ARC
  5
5D55
330
5D04
100
AcDbEntity
  8
0
100
AcDbCircle
 10
1.500000000000055
 20
-40.97701665379261
 30
0.0
 40
2.5
100
AcDbArc
 50
294.3157391711768
 51
0.0
  0
ARC
  5
5D56
330
5D04
100
AcDbEntity
  8
0
100
AcDbCircle
 10
3.250000000000064
 20
-24.15000000000003
 30
0.0
 40
1.75
100
AcDbArc
 50
180.0
 51
245.6842608288235
  0
ARC
  5
5D57
330
5D04
100
AcDbEntity
  8
0
100
AcDbCircle
 10
3.250000000000063
 20
-44.85000000000002
 30
0.0
 40
1.75
100
AcDbArc
 50
114.3157391711765
 51
180.0
  0
LINE
  5
5D58
330
5D04
100
AcDbEntity
  8
0
100
AcDbLine
 10
-3.999999999999939
 20
25.12701665379263
 30
0.0
 11
-3.999999999999939
 21
25.00000000000009
 31
0.0
  0
LINE
  5
5D59
330
5D04
100
AcDbEntity
  8
0
100
AcDbLine
 10
-3.999999999999957
 20
-26.99999999999999
 30
0.0
 11
-3.999999999999957
 21
-27.12701665379264
 31
0.0
  0
ARC
  5
5D5A
330
5D04
100
AcDbEntity
  8
0
100
AcDbCircle
 10
-1.499999999999939
 20
25.12701665379261
 30
0.0
 40
2.5
100
AcDbArc
 50
114.3157391711764
 51
180.0
  0
ARC
  5
5D5B
330
5D04
100
AcDbEntity
  8
0
100
AcDbCircle
 10
-3.249999999999945
 20
29.00000000000004
 30
0.0
 40
1.75
100
AcDbArc
 50
294.3157391711765
 51
0.0
  0
ARC
  5
5D5C
330
5D04
100
AcDbEntity
  8
0
100
AcDbCircle
 10
-1.499999999999956
 20
-27.12701665379264
 30
0.0
 40
2.5
100
AcDbArc
 50
180.0
 51
245.6842608288238
  0
ARC
  5
5D5D
330
5D04
100
AcDbEntity
  8
0
100
AcDbCircle
 10
-3.249999999999946
 20
-31.00000000000005
 30
0.0
 40
1.75
100
AcDbArc
 50
42.17741860089944
 51
65.68426082882345
  0
LINE
  5
5D5E
330
5D04
100
AcDbEntity
  8
0
100
AcDbLine
 10
-3.999999999999939
 20
25.0
 30
0.0
 11
-3.999999999999941
 21
7.477016653792554
 31
0.0
  0
LINE
  5
5D5F
330
5D04
100
AcDbEntity
  8
0
100
AcDbLine
 10
-3.999999999999943
 20
-9.477016653792635
 30
0.0
 11
-3.999999999999957
 21
-27.00000000000001
 31
0.0
  0
SPLINE
  5
5D60
330
5D04
100
AcDbEntity
  8
0
100
AcDbSpline
210
0.0
220
0.0
230
1.0
 70
     8
 71
     3
 72
    16
 73
    12
 74
     0
 42
0.000000001
 43
0.0000000001
 40
0.0
 40
0.0
 40
0.0
 40
0.0
 40
0.0405976442383458
 40
0.0405976442383458
 40
0.0716043848047081
 40
0.0716043848047081
 40
0.1028570667671033
 40
0.1028570667671033
 40
0.1477895630004486
 40
0.1477895630004486
 40
0.1627976483856448
 40
0.1627976483856448
 40
0.1627976483856448
 40
0.1627976483856448
 10
-4.499999999999951
 20
33.87443401210676
 30
0.0
 10
-4.500109837324946
 20
33.73910857588718
 30
0.0
 10
-4.481697147639825
 20
33.56033752397188
 30
0.0
 10
-4.354027954229516
 20
33.20063936821993
 30
0.0
 10
-4.266553267856186
 20
33.02817092495217
 30
0.0
 10
-3.991660515107569
 20
32.66942874592619
 30
0.0
 10
-3.825768713380964
 20
32.51210031419388
 30
0.0
 10
-3.386941791109514
 20
32.18101522963401
 30
0.0
 10
-3.082397868969118
 20
32.01770930673667
 30
0.0
 10
-2.636679827016117
 20
31.85076605248743
 30
0.0
 10
-2.524403888615311
 20
31.81409587954821
 30
0.0
 10
-2.41208890366683
 20
31.78238494485683
 30
0.0
  0
SPLINE
  5
5D61
330
5D04
100
AcDbEntity
  8
0
100
AcDbSpline
210
0.0
220
0.0
230
1.0
 70
     8
 71
     3
 72
    10
 73
     6
 74
     0
 42
0.000000001
 43
0.0000000001
 40
0.0
 40
0.0
 40
0.0
 40
0.0
 40
0.1362998422634597
 40
0.1362998422634597
 40
0.2725996852924406
 40
0.2725996852924406
 40
0.2725996852924406
 40
0.2725996852924406
 10
-1.49999999999996
 20
33.07660883592429
 30
0.0
 10
-1.499999999999961
 20
32.8611759470073
 30
0.0
 10
-1.580003492034329
 20
32.64787138984477
 30
0.0
 10
-1.89058233632273
 20
32.2170077877953
 30
0.0
 10
-2.11804372602413
 20
32.00370322945865
 30
0.0
 10
-2.40426315624034
 20
31.78827033933148
 30
0.0
  0
SPLINE
  5
5D62
330
5D04
100
AcDbEntity
  8
0
100
AcDbSpline
210
0.0
220
0.0
230
1.0
 70
     8
 71
     3
 72
    20
 73
    16
 74
     0
 42
0.000000001
 43
0.0000000001
 40
0.0
 40
0.0
 40
0.0
 40
0.0
 40
0.0292038487375118
 40
0.0292038487375118
 40
0.1061564375241149
 40
0.1061564375241149
 40
0.2088926109145357
 40
0.2088926109145357
 40
0.3299865151909042
 40
0.3299865151909042
 40
0.4924973235132071
 40
0.4924973235132071
 40
0.5936467900789474
 40
0.5936467900789474
 40
0.7611251631567433
 40
0.7611251631567433
 40
0.7611251631567433
 40
0.7611251631567433
 10
-2.404263156240358
 20
31.78827033933146
 30
0.0
 10
-2.465674248597722
 20
31.74233308817566
 30
0.0
 10
-2.523558632590543
 20
31.71083413766762
 30
0.0
 10
-2.722765588245359
 20
31.62706251268139
 30
0.0
 10
-2.856603618634896
 20
31.62001480511023
 30
0.0
 10
-3.0906933795968
 20
31.63448206304656
 30
0.0
 10
-3.226847097515428
 20
31.67132420163906
 30
0.0
 10
-3.516412986700594
 20
31.80595871721834
 30
0.0
 10
-3.662991456258073
 20
31.91083197017798
 30
0.0
 10
-3.969360485244124
 20
32.20819879561782
 30
0.0
 10
-4.121946791543031
 20
32.42343875955132
 30
0.0
 10
-4.31376182837835
 20
32.83047903846525
 30
0.0
 10
-4.371358554568349
 20
32.99481987671418
 30
0.0
 10
-4.482867459146266
 20
33.44074827662821
 30
0.0
 10
-4.500023436785173
 20
33.68957521479437
 30
0.0
 10
-4.49999999999995
 20
33.87443401210673
 30
0.0
  0
LINE
  5
5D63
330
5D04
100
AcDbEntity
  8
0
100
AcDbLine
 10
-4.499999999999969
 20
1.250000000000118
 30
0.0
 11
-4.00000000000006
 21
1.250000000000109
 31
0.0
  0
ENDBLK
  5
5D06
330
5D04
100
AcDbEntity
  8
0
100
AcDbBlockEnd
  0
BLOCK
  5
5D65
330
5D64
100
AcDbEntity
  8
0
100
AcDbBlockBegin
  2
TU16-Left
 70
     0
 10
0.0
 20
0.0
 30
0.0
  3
TU16-Left
  1

  0
LINE
  5
5D67
330
5D64
100
AcDbEntity
  8
0
100
AcDbLine
 10
0.0
 20
-3.24999999999979
 30
0.0
 11
4.109845709134276
 21
-3.250000000000083
 31
0.0
  0
SPLINE
  5
5D68
330
5D64
100
AcDbEntity
  8
0
100
AcDbSpline
210
0.0
220
0.0
230
1.0
 70
     8
 71
     3
 72
    10
 73
     6
 74
     0
 42
0.000000001
 43
0.0000000001
 40
0.0
 40
0.0
 40
0.0
 40
0.0
 40
0.0507000194577206
 40
0.0507000194577206
 40
0.0861016273844298
 40
0.0861016273844298
 40
0.0861016273844298
 40
0.0861016273844298
 10
5.999999999999998
 20
-2.849314533975131
 30
0.0
 10
5.846476691523569
 20
-2.919965901101471
 30
0.0
 10
5.515198743782874
 20
-3.060232633690582
 30
0.0
 10
4.74195954266059
 20
-3.218335028914682
 30
0.0
 10
4.421711722071272
 20
-3.250001105790922
 30
0.0
 10
4.109845709134276
 20
-3.250000000000006
 30
0.0
  0
SPLINE
  5
5D69
330
5D64
100
AcDbEntity
  8
0
100
AcDbSpline
210
0.0
220
0.0
230
1.0
 70
     8
 71
     3
 72
    12
 73
     8
 74
     0
 42
0.000000001
 43
0.0000000001
 40
0.3900856594227951
 40
0.3900856594227951
 40
0.3900856594227951
 40
0.3900856594227951
 40
0.4924973234428319
 40
0.4924973234428319
 40
0.5936467899885186
 40
0.5936467899885186
 40
0.761125163031526
 40
0.761125163031526
 40
0.761125163031526
 40
0.761125163031526
 10
3.045649841383522
 20
-32.10478213516463
 30
0.0
 10
3.028179899718683
 20
-32.23227226553248
 30
0.0
 10
3.017749832807683
 20
-32.37622017101828
 30
0.0
 10
3.004875407166751
 20
-32.69047903846791
 30
0.0
 10
3.002465043087989
 20
-32.85481987671616
 30
0.0
 10
2.999242810694267
 20
-33.30074827662804
 30
0.0
 10
2.999999999999978
 20
-33.54957521479256
 30
0.0
 10
2.999999999999978
 20
-33.73443401210682
 30
0.0
  0
SPLINE
  5
5D6A
330
5D64
100
AcDbEntity
  8
0
100
AcDbSpline
210
0.0
220
0.0
230
1.0
 70
     8
 71
     3
 72
    20
 73
    16
 74
     0
 42
0.000000001
 43
0.0000000001
 40
0.0
 40
0.0
 40
0.0
 40
0.0
 40
0.0405976442392018
 40
0.0405976442392018
 40
0.0716043848019677
 40
0.0716043848019677
 40
0.1028570667572095
 40
0.1028570667572095
 40
0.1477895629812403
 40
0.1477895629812403
 40
0.2029079031090301
 40
0.2029079031090301
 40
0.2338286432149128
 40
0.2338286432149128
 40
0.2734021259109438
 40
0.2734021259109438
 40
0.2734021259109438
 40
0.2734021259109438
 10
-0.0000000000000207
 20
-33.73443401210682
 30
0.0
 10
-0.0000000000000206
 20
-33.59910857588438
 30
0.0
 10
-0.0004087994864176
 20
-33.4203375239681
 30
0.0
 10
0.0015210907019313
 20
-33.06063936823713
 30
0.0
 10
0.0029743327852139
 20
-32.88817092496785
 30
0.0
 10
0.0199745112783421
 20
-32.52942874592258
 30
0.0
 10
0.0352294054458707
 20
-32.37210031419122
 30
0.0
 10
0.0983501783746892
 20
-32.04101522962705
 30
0.0
 10
0.1594143251000424
 20
-31.87770930673055
 30
0.0
 10
0.3865153478643191
 20
-31.59905314819638
 30
0.0
 10
0.5640693250730152
 20
-31.51472672751268
 30
0.0
 10
0.917829328249539
 20
-31.47792528922242
 30
0.0
 10
1.059692441939318
 20
-31.48416197723097
 30
0.0
 10
1.41020642858523
 20
-31.5430738212282
 30
0.0
 10
1.586752567442546
 20
-31.60240070648885
 30
0.0
 10
1.70680208622591
 20
-31.64827033933156
 30
0.0
  0
SPLINE
  5
5D6B
330
5D64
100
AcDbEntity
  8
0
100
AcDbSpline
210
0.0
220
0.0
230
1.0
 70
     8
 71
     3
 72
    12
 73
     8
 74
     0
 42
0.000000001
 43
0.0000000001
 40
0.0
 40
0.0
 40
0.0
 40
0.0
 40
0.1239712457412924
 40
0.1239712457412924
 40
0.3101197498474792
 40
0.3101197498474792
 40
0.496268332762988
 40
0.496268332762988
 40
0.496268332762988
 40
0.496268332762988
 10
1.706802086225913
 20
-31.64827033933154
 30
0.0
 10
1.985551206012025
 20
-31.75572174907069
 30
0.0
 10
2.292088205023677
 20
-31.86290459519232
 30
0.0
 10
3.117020801816263
 20
-32.13169668343282
 30
0.0
 10
3.659931912819321
 20
-32.29214020590355
 30
0.0
 10
4.805061856518512
 20
-32.61482365365503
 30
0.0
 10
5.400848321169258
 20
-32.77526555378205
 30
0.0
 10
5.999999999999977
 20
-32.93660883592435
 30
0.0
  0
LINE
  5
5D6C
330
5D64
100
AcDbEntity
  8
0
100
AcDbLine
 10
0.0
 20
-33.73443401210681
 30
0.0
 11
0.0
 21
-3.250000000000015
 31
0.0
  0
LINE
  5
5D6D
330
5D64
100
AcDbEntity
  8
0
100
AcDbLine
 10
0.0
 20
-33.73443401210681
 30
0.0
 11
0.0
 21
-35.82059768488208
 31
0.0
  0
LINE
  5
5D6E
330
5D64
100
AcDbEntity
  8
0
100
AcDbLine
 10
2.999999999999978
 20
-35.82059768488209
 30
0.0
 11
2.999999999999978
 21
-33.73443401210682
 31
0.0
  0
LINE
  5
5D6F
330
5D64
100
AcDbEntity
  8
0
100
AcDbLine
 10
2.999999999999982
 20
-48.68563229086642
 30
0.0
 11
2.999999999999978
 21
-35.82059768488208
 31
0.0
  0
LINE
  5
5D70
330
5D64
100
AcDbEntity
  8
0
100
AcDbLine
 10
2.999999999999982
 20
-48.68563229086641
 30
0.0
 11
2.999999999999981
 21
-50.54000000000001
 31
0.0
  0
LINE
  5
5D71
330
5D64
100
AcDbEntity
  8
0
100
AcDbLine
 10
2.999999999999974
 20
-65.0
 30
0.0
 11
2.999999999999981
 21
-50.54000000000001
 31
0.0
  0
LINE
  5
5D72
330
5D64
100
AcDbEntity
  8
0
100
AcDbLine
 10
2.999999999999974
 20
-65.00000000000001
 30
0.0
 11
2.999999999999972
 21
-67.00000000000001
 31
0.0
  0
LINE
  5
5D73
330
5D64
100
AcDbEntity
  8
0
100
AcDbLine
 10
0.0
 20
-67.00000000000001
 30
0.0
 11
0.0
 21
-65.00000000000001
 31
0.0
  0
LINE
  5
5D74
330
5D64
100
AcDbEntity
  8
0
100
AcDbLine
 10
0.0
 20
-50.54000000000001
 30
0.0
 11
0.0
 21
-65.0
 31
0.0
  0
LINE
  5
5D75
330
5D64
100
AcDbEntity
  8
0
100
AcDbLine
 10
0.0
 20
-50.54000000000001
 30
0.0
 11
0.0
 21
-48.68563229086641
 31
0.0
  0
LINE
  5
5D76
330
5D64
100
AcDbEntity
  8
0
100
AcDbLine
 10
0.0
 20
-35.82059768488207
 30
0.0
 11
0.0
 21
-48.68563229086642
 31
0.0
  0
LINE
  5
5D77
330
5D64
100
AcDbEntity
  8
0
100
AcDbLine
 10
2.999999999999972
 20
-67.00000000000001
 30
0.0
 11
0.0
 21
-67.00000000000001
 31
0.0
  0
LINE
  5
5D78
330
5D64
100
AcDbEntity
  8
0
100
AcDbLine
 10
0.0
 20
1.249999999999986
 30
0.0
 11
0.0
 21
3.249999999999988
 31
0.0
  0
LINE
  5
5D79
330
5D64
100
AcDbEntity
  8
0
100
AcDbLine
 10
0.0
 20
65.00000000000001
 30
0.0
 11
0.0
 21
3.249999999999975
 31
0.0
  0
LINE
  5
5D7A
330
5D64
100
AcDbEntity
  8
0
100
AcDbLine
 10
0.0
 20
65.00000000000001
 30
0.0
 11
0.0
 21
67.00000000000001
 31
0.0
  0
LINE
  5
5D7B
330
5D64
100
AcDbEntity
  8
0
100
AcDbLine
 10
3.000000000000031
 20
67.00000000000001
 30
0.0
 11
3.000000000000033
 21
65.00000000000001
 31
0.0
  0
LINE
  5
5D7C
330
5D64
100
AcDbEntity
  8
0
100
AcDbLine
 10
3.000000000000013
 20
3.249999999999979
 30
0.0
 11
3.000000000000036
 21
65.00000000000001
 31
0.0
  0
LINE
  5
5D7D
330
5D64
100
AcDbEntity
  8
0
100
AcDbLine
 10
3.00000000000001
 20
3.24999999999998
 30
0.0
 11
3.000000000000007
 21
1.249999999999977
 31
0.0
  0
LINE
  5
5D7E
330
5D64
100
AcDbEntity
  8
0
100
AcDbLine
 10
0.0
 20
1.249999999999986
 30
0.0
 11
3.000000000000007
 21
1.249999999999977
 31
0.0
  0
LINE
  5
5D7F
330
5D64
100
AcDbEntity
  8
0
100
AcDbLine
 10
0.0
 20
67.00000000000001
 30
0.0
 11
3.000000000000032
 21
67.00000000000001
 31
0.0
  0
LINE
  5
5D80
330
5D64
100
AcDbEntity
  8
0
100
AcDbLine
 10
70.50915682565015
 20
-59.00000000000004
 30
0.0
 11
5.999999999999969
 21
-32.93660883592436
 31
0.0
  0
LINE
  5
5D81
330
5D64
100
AcDbEntity
  8
0
100
AcDbLine
 10
105.2183854891472
 20
-59.00000000000005
 30
0.0
 11
70.50915682565015
 21
-59.00000000000004
 31
0.0
  0
ARC
  5
5D82
330
5D64
100
AcDbEntity
  8
0
100
AcDbCircle
 10
105.2183854891472
 20
-57.00000000000006
 30
0.0
 40
1.999999999999992
100
AcDbArc
 50
270.0
 51
0.0
  0
LINE
  5
5D83
330
5D64
100
AcDbEntity
  8
0
100
AcDbLine
 10
107.2183854891472
 20
51.99999999999997
 30
0.0
 11
107.2183854891472
 21
-57.00000000000004
 31
0.0
  0
ARC
  5
5D84
330
5D64
100
AcDbEntity
  8
0
100
AcDbCircle
 10
105.2183854891472
 20
51.99999999999997
 30
0.0
 40
1.999999999999992
100
AcDbArc
 50
0.0
 51
90.0
  0
LINE
  5
5D85
330
5D64
100
AcDbEntity
  8
0
100
AcDbLine
 10
99.85423414066055
 20
53.99999999999998
 30
0.0
 11
105.2183854891472
 21
53.99999999999997
 31
0.0
  0
ARC
  5
5D86
330
5D64
100
AcDbEntity
  8
0
100
AcDbCircle
 10
99.85423414066056
 20
51.99999999999997
 30
0.0
 40
1.99999999999995
100
AcDbArc
 50
90.0
 51
149.0
  0
LINE
  5
5D87
330
5D64
100
AcDbEntity
  8
0
100
AcDbLine
 10
95.71838548914724
 20
48.99999999999998
 30
0.0
 11
98.13989953925634
 21
53.03007614982007
 31
0.0
  0
LINE
  5
5D88
330
5D64
100
AcDbEntity
  8
0
100
AcDbLine
 10
95.71838548914724
 20
43.99999999999998
 30
0.0
 11
95.71838548914724
 21
48.99999999999998
 31
0.0
  0
ARC
  5
5D89
330
5D64
100
AcDbEntity
  8
0
100
AcDbCircle
 10
91.96838548914721
 20
38.99999999999998
 30
0.0
 40
6.25
100
AcDbArc
 50
270.0
 51
53.13010235415581
  0
LINE
  5
5D8A
330
5D64
100
AcDbEntity
  8
0
100
AcDbLine
 10
88.96838548914722
 20
32.74999999999998
 30
0.0
 11
91.96838548914719
 21
32.74999999999998
 31
0.0
  0
ARC
  5
5D8B
330
5D64
100
AcDbEntity
  8
0
100
AcDbCircle
 10
88.96838548914724
 20
38.99999999999998
 30
0.0
 40
6.25
100
AcDbArc
 50
180.0
 51
270.0
  0
LINE
  5
5D8C
330
5D64
100
AcDbEntity
  8
0
100
AcDbLine
 10
82.71838548914722
 20
49.99999999999999
 30
0.0
 11
82.71838548914722
 21
38.99999999999998
 31
0.0
  0
LINE
  5
5D8D
330
5D64
100
AcDbEntity
  8
0
100
AcDbLine
 10
79.83163414319908
 20
54.99999999999999
 30
0.0
 11
82.71838548914722
 21
49.99999999999999
 31
0.0
  0
ARC
  5
5D8E
330
5D64
100
AcDbEntity
  8
0
100
AcDbCircle
 10
78.0995833356302
 20
53.99999999999998
 30
0.0
 40
1.99999999999999
100
AcDbArc
 50
30.00000000000005
 51
90.0
  0
LINE
  5
5D8F
330
5D64
100
AcDbEntity
  8
0
100
AcDbLine
 10
63.62799145031506
 20
55.99999999999997
 30
0.0
 11
78.0995833356302
 21
55.99999999999997
 31
0.0
  0
ARC
  5
5D90
330
5D64
100
AcDbEntity
  8
0
100
AcDbCircle
 10
63.62799145031506
 20
54.0
 30
0.0
 40
1.999999999999797
100
AcDbArc
 50
89.99999999999975
 51
112.0
  0
LINE
  5
5D91
330
5D64
100
AcDbEntity
  8
0
100
AcDbLine
 10
59.85917230231536
 20
54.6343677091336
 30
0.0
 11
62.87877826348324
 21
55.85436770913357
 31
0.0
  0
ARC
  5
5D92
330
5D64
100
AcDbEntity
  8
0
100
AcDbCircle
 10
60.6083854891472
 20
52.78
 30
0.0
 40
2.000000000000054
100
AcDbArc
 50
112.0
 51
150.0000000000002
  0
LINE
  5
5D93
330
5D64
100
AcDbEntity
  8
0
100
AcDbLine
 10
57.71838548914719
 20
51.77437316612595
 30
0.0
 11
58.8763346815783
 21
53.78
 31
0.0
  0
LINE
  5
5D94
330
5D64
100
AcDbEntity
  8
0
100
AcDbLine
 10
57.71838548914719
 20
48.23861278752582
 30
0.0
 11
57.71838548914719
 21
51.77437316612595
 31
0.0
  0
ARC
  5
5D95
330
5D64
100
AcDbEntity
  8
0
100
AcDbCircle
 10
54.4683854891472
 20
45.49999999999998
 30
0.0
 40
4.249999999999996
100
AcDbArc
 50
270.0
 51
40.11916689840525
  0
LINE
  5
5D96
330
5D64
100
AcDbEntity
  8
0
100
AcDbLine
 10
52.9683854891472
 20
41.24999999999999
 30
0.0
 11
54.46838548914719
 21
41.24999999999999
 31
0.0
  0
ARC
  5
5D97
330
5D64
100
AcDbEntity
  8
0
100
AcDbCircle
 10
52.9683854891472
 20
45.49999999999998
 30
0.0
 40
4.250000000000007
100
AcDbArc
 50
180.0
 51
270.0
  0
LINE
  5
5D98
330
5D64
100
AcDbEntity
  8
0
100
AcDbLine
 10
48.71838548914721
 20
47.37083496185029
 30
0.0
 11
48.7183854891472
 21
45.49999999999998
 31
0.0
  0
ARC
  5
5D99
330
5D64
100
AcDbEntity
  8
0
100
AcDbCircle
 10
46.7183854891472
 20
47.3708349618503
 30
0.0
 40
2.000000000000002
100
AcDbArc
 50
0.0
 51
111.9999999999997
  0
LINE
  5
5D9A
330
5D64
100
AcDbEntity
  8
0
100
AcDbLine
 10
6.000000000000007
 20
33.07660883592429
 30
0.0
 11
45.96917230231537
 21
49.2252026709839
 31
0.0
  0
ARC
  5
5D9B
330
5D64
100
AcDbEntity
  8
0
100
AcDbCircle
 10
4.718385489147197
 20
-1.0
 30
0.0
 40
2.250000000000005
100
AcDbArc
 50
304.722786822948
 51
55.27721317705194
  0
CIRCLE
  5
5D9C
330
5D64
100
AcDbEntity
  8
0
100
AcDbCircle
 10
88.9683854891472
 20
-1.000000000000045
 30
0.0
 40
6.250000000000008
  0
CIRCLE
  5
5D9D
330
5D64
100
AcDbEntity
  8
0
100
AcDbCircle
 10
52.9683854891472
 20
5.499999999999949
 30
0.0
 40
4.250000000000007
  0
CIRCLE
  5
5D9E
330
5D64
100
AcDbEntity
  8
0
100
AcDbCircle
 10
88.9683854891472
 20
-41.00000000000003
 30
0.0
 40
6.250000000000008
  0
CIRCLE
  5
5D9F
330
5D64
100
AcDbEntity
  8
0
100
AcDbCircle
 10
52.96838548914717
 20
-34.50000000000004
 30
0.0
 40
4.250000000000007
  0
SPLINE
  5
5DA0
330
5D64
100
AcDbEntity
  8
0
100
AcDbSpline
210
0.0
220
0.0
230
1.0
 70
     8
 71
     3
 72
    10
 73
     6
 74
     0
 42
0.000000001
 43
0.0000000001
 40
0.0
 40
0.0
 40
0.0
 40
0.0
 40
0.0507000194424427
 40
0.0507000194424427
 40
0.0861016273554008
 40
0.0861016273554008
 40
0.0861016273554008
 40
0.0861016273554008
 10
5.999999999999986
 20
0.849314533975094
 30
0.0
 10
5.846476691569718
 20
0.9199659010799132
 30
0.0
 10
5.515198743807578
 20
1.060232633685491
 30
0.0
 10
4.741959542670997
 20
1.218335028912513
 30
0.0
 10
4.421711722102228
 20
1.250001105790627
 30
0.0
 10
4.109845709134257
 20
1.249999999999977
 30
0.0
  0
SPLINE
  5
5DA1
330
5D64
100
AcDbEntity
  8
0
100
AcDbSpline
210
0.0
220
0.0
230
1.0
 70
     8
 71
     3
 72
    10
 73
     6
 74
     0
 42
0.000000001
 43
0.0000000001
 40
0.1757394058398027
 40
0.1757394058398027
 40
0.1757394058398027
 40
0.1757394058398027
 40
0.3101197498474652
 40
0.3101197498474652
 40
0.4962683327629611
 40
0.4962683327629611
 40
0.4962683327629611
 40
0.4962683327629611
 10
3.045663593021845
 20
32.24479328613823
 30
0.0
 10
3.421282916610258
 20
32.36100528533818
 30
0.0
 10
3.819163000908872
 20
32.47700955612585
 30
0.0
 10
4.805061856518528
 20
32.75482365365498
 30
0.0
 10
5.400848321169283
 20
32.915265553782
 30
0.0
 10
6.000000000000012
 20
33.07660883592431
 30
0.0
  0
SPLINE
  5
5DA2
330
5D64
100
AcDbEntity
  8
0
100
AcDbSpline
210
0.0
220
0.0
230
1.0
 70
     8
 71
     3
 72
    10
 73
     6
 74
     0
 42
0.000000001
 43
0.0000000001
 40
0.0
 40
0.0
 40
0.0
 40
0.0
 40
0.1362998422634597
 40
0.1362998422634597
 40
0.2725996852924406
 40
0.2725996852924406
 40
0.2725996852924406
 40
0.2725996852924406
 10
6.000000000000007
 20
33.07660883592429
 30
0.0
 10
5.599991287114304
 20
32.8611759470073
 30
0.0
 10
5.203992570414628
 20
32.64787138984477
 30
0.0
 10
4.466720217059799
 20
32.2170077877953
 30
0.0
 10
4.132838710488837
 20
32.00370322945865
 30
0.0
 10
3.853401043112965
 20
31.78827033933148
 30
0.0
  0
SPLINE
  5
5DA3
330
5D64
100
AcDbEntity
  8
0
100
AcDbSpline
210
0.0
220
0.0
230
1.0
 70
     8
 71
     3
 72
    20
 73
    16
 74
     0
 42
0.000000001
 43
0.0000000001
 40
0.0
 40
0.0
 40
0.0
 40
0.0
 40
0.0292038487375118
 40
0.0292038487375118
 40
0.1061564375241149
 40
0.1061564375241149
 40
0.2088926109145357
 40
0.2088926109145357
 40
0.3299865151909042
 40
0.3299865151909042
 40
0.4924973235132071
 40
0.4924973235132071
 40
0.5936467900789474
 40
0.5936467900789474
 40
0.7611251631567433
 40
0.7611251631567433
 40
0.7611251631567433
 40
0.7611251631567433
 10
3.853401043112965
 20
31.78827033933146
 30
0.0
 10
3.793445042269889
 20
31.74233308817566
 30
0.0
 10
3.741953848794994
 20
31.71083413766762
 30
0.0
 10
3.575788910616506
 20
31.62706251268139
 30
0.0
 10
3.487448653725209
 20
31.62001480511023
 30
0.0
 10
3.347036989114775
 20
31.63448206304656
 30
0.0
 10
3.279755693677083
 20
31.67132420163906
 30
0.0
 10
3.160767333415497
 20
31.80595871721834
 30
0.0
 10
3.115986682584688
 20
31.91083197017798
 30
0.0
 10
3.041782749642626
 20
32.20819879561782
 30
0.0
 10
3.021550862807318
 20
32.42343875955132
 30
0.0
 10
3.004875407166829
 20
32.83047903846525
 30
0.0
 10
3.002465043088045
 20
32.99481987671418
 30
0.0
 10
2.999242810694276
 20
33.44074827662821
 30
0.0
 10
3.000000000000011
 20
33.68957521479437
 30
0.0
 10
3.000000000000012
 20
33.87443401210673
 30
0.0
  0
LINE
  5
5DA4
330
5D64
100
AcDbEntity
  8
0
100
AcDbLine
 10
2.999999999999992
 20
1.250000000000118
 30
0.0
 11
5.054922854567131
 21
1.249999999999994
 31
0.0
  0
SPLINE
  5
5DA5
330
5D64
100
AcDbEntity
  8
0
100
AcDbSpline
210
0.0
220
0.0
230
1.0
 70
     8
 71
     3
 72
    12
 73
     8
 74
     0
 42
0.000000001
 43
0.0000000001
 40
0.0
 40
0.0
 40
0.0
 40
0.0
 40
0.0463759660140537
 40
0.0463759660140537
 40
0.0752344047874618
 40
0.0752344047874618
 40
0.1164597033337813
 40
0.1164597033337813
 40
0.1164597033337813
 40
0.1164597033337813
 10
5.054922854567126
 20
1.249999999999995
 30
0.0
 10
5.201638345397604
 20
1.25000223430415
 30
0.0
 10
5.349190800365962
 20
1.221797932496735
 30
0.0
 10
5.581407130178516
 20
1.134644979152334
 30
0.0
 10
5.667250896995978
 20
1.091882110392625
 30
0.0
 10
5.865687391815587
 20
0.9687830747471126
 30
0.0
 10
5.951653230238211
 20
0.8938636495620011
 30
0.0
 10
5.999999999999986
 20
0.849314533975094
 30
0.0
  0
ENDBLK
  5
5D66
330
5D64
100
AcDbEntity
  8
0
100
AcDbBlockEnd
  0
BLOCK
  5
5DA7
330
5DA6
100
AcDbEntity
  8
0
100
AcDbBlockBegin
  2
TU16-Right
 70
     0
 10
0.0
 20
0.0
 30
0.0
  3
TU16-Right
  1

  0
LINE
  5
5DA9
330
5DA6
100
AcDbEntity
  8
0
100
AcDbLine
 10
-2.999999999999993
 20
-3.250000000000004
 30
0.0
 11
-5.054922854567135
 21
-3.250000000000045
 31
0.0
  0
SPLINE
  5
5DAA
330
5DA6
100
AcDbEntity
  8
0
100
AcDbSpline
210
0.0
220
0.0
230
1.0
 70
     8
 71
     3
 72
    12
 73
     8
 74
     0
 42
0.000000001
 43
0.0000000001
 40
0.0
 40
0.0
 40
0.0
 40
0.0
 40
0.0463759660026018
 40
0.0463759660026018
 40
0.0752344047761934
 40
0.0752344047761934
 40
0.1164597033174768
 40
0.1164597033174768
 40
0.1164597033174768
 40
0.1164597033174768
 10
-5.054922854567136
 20
-3.250000000000023
 30
0.0
 10
-5.201638345361384
 20
-3.250002234304409
 30
0.0
 10
-5.349190800302451
 20
-3.221797932510734
 30
0.0
 10
-5.581407130113836
 20
-3.134644979182801
 30
0.0
 10
-5.667250896942642
 20
-3.091882110422461
 30
0.0
 10
-5.865687391783024
 20
-2.968783074772063
 30
0.0
 10
-5.951653230212636
 20
-2.893863649585743
 30
0.0
 10
-5.999999999999997
 20
-2.849314533975131
 30
0.0
  0
SPLINE
  5
5DAB
330
5DA6
100
AcDbEntity
  8
0
100
AcDbSpline
210
0.0
220
0.0
230
1.0
 70
     8
 71
     3
 72
    10
 73
     6
 74
     0
 42
0.000000001
 43
0.0000000001
 40
0.0
 40
0.0
 40
0.0
 40
0.0
 40
0.0507000194577206
 40
0.0507000194577206
 40
0.0861016273844298
 40
0.0861016273844298
 40
0.0861016273844298
 40
0.0861016273844298
 10
-5.999999999999998
 20
-2.849314533975131
 30
0.0
 10
-5.846476691523569
 20
-2.919965901101471
 30
0.0
 10
-5.515198743782874
 20
-3.060232633690582
 30
0.0
 10
-4.74195954266059
 20
-3.218335028914682
 30
0.0
 10
-4.421711722071272
 20
-3.250001105790922
 30
0.0
 10
-4.109845709134276
 20
-3.250000000000006
 30
0.0
  0
SPLINE
  5
5DAC
330
5DA6
100
AcDbEntity
  8
0
100
AcDbSpline
210
0.0
220
0.0
230
1.0
 70
     8
 71
     3
 72
    20
 73
    16
 74
     0
 42
0.000000001
 43
0.0000000001
 40
0.0
 40
0.0
 40
0.0
 40
0.0
 40
0.0292038487373892
 40
0.0292038487373892
 40
0.1061564375204376
 40
0.1061564375204376
 40
0.20889261089405
 40
0.20889261089405
 40
0.3299865151499506
 40
0.3299865151499506
 40
0.4924973234428319
 40
0.4924973234428319
 40
0.5936467899885186
 40
0.5936467899885186
 40
0.761125163031526
 40
0.761125163031526
 40
0.761125163031526
 40
0.761125163031526
 10
-3.853401043112944
 20
-31.64827033933155
 30
0.0
 10
-3.793445042270147
 20
-31.60233308817586
 30
0.0
 10
-3.741953848794989
 20
-31.57083413766777
 30
0.0
 10
-3.575788910622216
 20
-31.48706251268426
 30
0.0
 10
-3.487448653733045
 20
-31.48001480510956
 30
0.0
 10
-3.34703698911419
 20
-31.49448206304662
 30
0.0
 10
-3.279755693676138
 20
-31.53132420163974
 30
0.0
 10
-3.160767333414952
 20
-31.66595871721953
 30
0.0
 10
-3.11598668258434
 20
-31.7708319701789
 30
0.0
 10
-3.041782749642873
 20
-32.06819879561754
 30
0.0
 10
-3.021550862807242
 20
-32.28343875955045
 30
0.0
 10
-3.004875407166751
 20
-32.69047903846791
 30
0.0
 10
-3.002465043087989
 20
-32.85481987671616
 30
0.0
 10
-2.999242810694267
 20
-33.30074827662804
 30
0.0
 10
-2.999999999999978
 20
-33.54957521479256
 30
0.0
 10
-2.999999999999978
 20
-33.73443401210682
 30
0.0
  0
SPLINE
  5
5DAD
330
5DA6
100
AcDbEntity
  8
0
100
AcDbSpline
210
0.0
220
0.0
230
1.0
 70
     8
 71
     3
 72
    10
 73
     6
 74
     0
 42
0.000000001
 43
0.0000000001
 40
0.0
 40
0.0
 40
0.0
 40
0.0
 40
0.1362998422634547
 40
0.1362998422634547
 40
0.2725996852924237
 40
0.2725996852924237
 40
0.2725996852924237
 40
0.2725996852924237
 10
-5.999999999999979
 20
-32.93660883592436
 30
0.0
 10
-5.599991287114297
 20
-32.72117594700735
 30
0.0
 10
-5.203992570414618
 20
-32.50787138984481
 30
0.0
 10
-4.466720217059801
 20
-32.07700778779552
 30
0.0
 10
-4.132838710488853
 20
-31.86370322945839
 30
0.0
 10
-3.853401043112947
 20
-31.64827033933156
 30
0.0
  0
SPLINE
  5
5DAE
330
5DA6
100
AcDbEntity
  8
0
100
AcDbSpline
210
0.0
220
0.0
230
1.0
 70
     8
 71
     3
 72
    10
 73
     6
 74
     0
 42
0.000000001
 43
0.0000000001
 40
0.1757394058398097
 40
0.1757394058398097
 40
0.1757394058398097
 40
0.1757394058398097
 40
0.3101197498474792
 40
0.3101197498474792
 40
0.496268332762988
 40
0.496268332762988
 40
0.496268332762988
 40
0.496268332762988
 10
-3.045663593021826
 20
-32.10479328613828
 30
0.0
 10
-3.421282916610234
 20
-32.22100528533822
 30
0.0
 10
-3.819163000908847
 20
-32.3370095561259
 30
0.0
 10
-4.805061856518512
 20
-32.61482365365503
 30
0.0
 10
-5.400848321169258
 20
-32.77526555378205
 30
0.0
 10
-5.999999999999977
 20
-32.93660883592435
 30
0.0
  0
LINE
  5
5DAF
330
5DA6
100
AcDbEntity
  8
0
100
AcDbLine
 10
-2.999999999999953
 20
-67.00000000000001
 30
0.0
 11
-2.999999999999953
 21
-65.00000000000001
 31
0.0
  0
LINE
  5
5DB0
330
5DA6
100
AcDbEntity
  8
0
100
AcDbLine
 10
-2.999999999999984
 20
-5.250000000000025
 30
0.0
 11
-2.999999999999953
 21
-65.00000000000001
 31
0.0
  0
LINE
  5
5DB1
330
5DA6
100
AcDbEntity
  8
0
100
AcDbLine
 10
-2.999999999999984
 20
-5.250000000000024
 30
0.0
 11
-2.999999999999985
 21
-3.250000000000023
 31
0.0
  0
LINE
  5
5DB2
330
5DA6
100
AcDbEntity
  8
0
100
AcDbLine
 10
0.0
 20
-3.250000000000023
 30
0.0
 11
0.0
 21
-5.250000000000025
 31
0.0
  0
LINE
  5
5DB3
330
5DA6
100
AcDbEntity
  8
0
100
AcDbLine
 10
0.0
 20
-65.00000000000001
 30
0.0
 11
0.0
 21
-5.250000000000021
 31
0.0
  0
LINE
  5
5DB4
330
5DA6
100
AcDbEntity
  8
0
100
AcDbLine
 10
0.0
 20
-65.00000000000001
 30
0.0
 11
0.0
 21
-67.00000000000001
 31
0.0
  0
LINE
  5
5DB5
330
5DA6
100
AcDbEntity
  8
0
100
AcDbLine
 10
-2.999999999999953
 20
-67.00000000000002
 30
0.0
 11
0.0
 21
-67.00000000000002
 31
0.0
  0
LINE
  5
5DB6
330
5DA6
100
AcDbEntity
  8
0
100
AcDbLine
 10
-2.999999999999985
 20
-3.250000000000023
 30
0.0
 11
0.0
 21
-3.250000000000023
 31
0.0
  0
LINE
  5
5DB7
330
5DA6
100
AcDbEntity
  8
0
100
AcDbLine
 10
0.0
 20
66.99999999999999
 30
0.0
 11
0.0
 21
65.0
 31
0.0
  0
LINE
  5
5DB8
330
5DA6
100
AcDbEntity
  8
0
100
AcDbLine
 10
0.0
 20
50.67999999999999
 30
0.0
 11
0.0
 21
65.0
 31
0.0
  0
LINE
  5
5DB9
330
5DA6
100
AcDbEntity
  8
0
100
AcDbLine
 10
0.0
 20
50.67999999999999
 30
0.0
 11
0.0
 21
48.82563229086635
 31
0.0
  0
LINE
  5
5DBA
330
5DA6
100
AcDbEntity
  8
0
100
AcDbLine
 10
0.0
 20
35.96059768488201
 30
0.0
 11
0.0
 21
48.82563229086642
 31
0.0
  0
LINE
  5
5DBB
330
5DA6
100
AcDbEntity
  8
0
100
AcDbLine
 10
0.0
 20
33.87443401210674
 30
0.0
 11
0.0
 21
35.96059768488201
 31
0.0
  0
LINE
  5
5DBC
330
5DA6
100
AcDbEntity
  8
0
100
AcDbLine
 10
-3.000000000000003
 20
35.96059768488201
 30
0.0
 11
-3.000000000000004
 21
33.87443401210674
 31
0.0
  0
LINE
  5
5DBD
330
5DA6
100
AcDbEntity
  8
0
100
AcDbLine
 10
-2.999999999999985
 20
48.82563229086642
 30
0.0
 11
-3.000000000000003
 21
35.96059768488201
 31
0.0
  0
LINE
  5
5DBE
330
5DA6
100
AcDbEntity
  8
0
100
AcDbLine
 10
-2.999999999999985
 20
48.82563229086635
 30
0.0
 11
-2.999999999999985
 21
50.67999999999999
 31
0.0
  0
LINE
  5
5DBF
330
5DA6
100
AcDbEntity
  8
0
100
AcDbLine
 10
-2.999999999999993
 20
65.0
 30
0.0
 11
-2.999999999999986
 21
50.67999999999999
 31
0.0
  0
LINE
  5
5DC0
330
5DA6
100
AcDbEntity
  8
0
100
AcDbLine
 10
-2.999999999999992
 20
65.0
 30
0.0
 11
-2.999999999999994
 21
66.99999999999999
 31
0.0
  0
LINE
  5
5DC1
330
5DA6
100
AcDbEntity
  8
0
100
AcDbLine
 10
0.0
 20
66.99999999999997
 30
0.0
 11
-2.999999999999995
 21
66.99999999999997
 31
0.0
  0
LINE
  5
5DC2
330
5DA6
100
AcDbEntity
  8
0
100
AcDbLine
 10
-5.999999999999969
 20
-32.93660883592436
 30
0.0
 11
-70.50915682565015
 21
-59.00000000000004
 31
0.0
  0
LINE
  5
5DC3
330
5DA6
100
AcDbEntity
  8
0
100
AcDbLine
 10
-70.50915682565015
 20
-59.00000000000004
 30
0.0
 11
-105.2183854891472
 21
-59.00000000000005
 31
0.0
  0
ARC
  5
5DC4
330
5DA6
100
AcDbEntity
  8
0
100
AcDbCircle
 10
-105.2183854891472
 20
-57.00000000000006
 30
0.0
 40
1.999999999999992
100
AcDbArc
 50
180.0
 51
270.0
  0
LINE
  5
5DC5
330
5DA6
100
AcDbEntity
  8
0
100
AcDbLine
 10
-107.2183854891472
 20
-57.00000000000006
 30
0.0
 11
-107.2183854891472
 21
51.99999999999995
 31
0.0
  0
ARC
  5
5DC6
330
5DA6
100
AcDbEntity
  8
0
100
AcDbCircle
 10
-105.2183854891472
 20
51.99999999999997
 30
0.0
 40
1.999999999999992
100
AcDbArc
 50
90.0
 51
180.0
  0
LINE
  5
5DC7
330
5DA6
100
AcDbEntity
  8
0
100
AcDbLine
 10
-105.2183854891472
 20
53.99999999999997
 30
0.0
 11
-99.85423414066055
 21
53.99999999999998
 31
0.0
  0
ARC
  5
5DC8
330
5DA6
100
AcDbEntity
  8
0
100
AcDbCircle
 10
-99.85423414066056
 20
51.99999999999997
 30
0.0
 40
1.99999999999995
100
AcDbArc
 50
30.99999999999994
 51
90.0
  0
LINE
  5
5DC9
330
5DA6
100
AcDbEntity
  8
0
100
AcDbLine
 10
-98.13989953925634
 20
53.03007614982007
 30
0.0
 11
-95.71838548914724
 21
48.99999999999997
 31
0.0
  0
LINE
  5
5DCA
330
5DA6
100
AcDbEntity
  8
0
100
AcDbLine
 10
-95.71838548914724
 20
48.99999999999997
 30
0.0
 11
-95.71838548914724
 21
43.99999999999997
 31
0.0
  0
ARC
  5
5DCB
330
5DA6
100
AcDbEntity
  8
0
100
AcDbCircle
 10
-91.96838548914721
 20
38.99999999999998
 30
0.0
 40
6.25
100
AcDbArc
 50
126.8698976458442
 51
270.0
  0
LINE
  5
5DCC
330
5DA6
100
AcDbEntity
  8
0
100
AcDbLine
 10
-91.96838548914719
 20
32.74999999999998
 30
0.0
 11
-88.96838548914722
 21
32.74999999999998
 31
0.0
  0
ARC
  5
5DCD
330
5DA6
100
AcDbEntity
  8
0
100
AcDbCircle
 10
-88.96838548914724
 20
38.99999999999998
 30
0.0
 40
6.25
100
AcDbArc
 50
270.0
 51
0.0
  0
LINE
  5
5DCE
330
5DA6
100
AcDbEntity
  8
0
100
AcDbLine
 10
-82.71838548914722
 20
38.99999999999998
 30
0.0
 11
-82.71838548914722
 21
49.99999999999999
 31
0.0
  0
LINE
  5
5DCF
330
5DA6
100
AcDbEntity
  8
0
100
AcDbLine
 10
-82.71838548914722
 20
49.99999999999999
 30
0.0
 11
-79.83163414319908
 21
54.99999999999999
 31
0.0
  0
ARC
  5
5DD0
330
5DA6
100
AcDbEntity
  8
0
100
AcDbCircle
 10
-78.0995833356302
 20
53.99999999999998
 30
0.0
 40
1.99999999999999
100
AcDbArc
 50
90.0
 51
149.9999999999999
  0
LINE
  5
5DD1
330
5DA6
100
AcDbEntity
  8
0
100
AcDbLine
 10
-78.0995833356302
 20
55.99999999999997
 30
0.0
 11
-63.62799145031506
 21
55.99999999999997
 31
0.0
  0
ARC
  5
5DD2
330
5DA6
100
AcDbEntity
  8
0
100
AcDbCircle
 10
-63.62799145031506
 20
54.0
 30
0.0
 40
1.999999999999797
100
AcDbArc
 50
68.00000000000001
 51
90.0
  0
LINE
  5
5DD3
330
5DA6
100
AcDbEntity
  8
0
100
AcDbLine
 10
-62.87877826348324
 20
55.85436770913357
 30
0.0
 11
-59.85917230231536
 21
54.6343677091336
 31
0.0
  0
ARC
  5
5DD4
330
5DA6
100
AcDbEntity
  8
0
100
AcDbCircle
 10
-60.6083854891472
 20
52.78
 30
0.0
 40
2.000000000000054
100
AcDbArc
 50
29.99999999999981
 51
68.0
  0
LINE
  5
5DD5
330
5DA6
100
AcDbEntity
  8
0
100
AcDbLine
 10
-58.8763346815783
 20
53.78
 30
0.0
 11
-57.71838548914719
 21
51.77437316612595
 31
0.0
  0
LINE
  5
5DD6
330
5DA6
100
AcDbEntity
  8
0
100
AcDbLine
 10
-57.71838548914719
 20
51.77437316612595
 30
0.0
 11
-57.71838548914719
 21
48.23861278752582
 31
0.0
  0
ARC
  5
5DD7
330
5DA6
100
AcDbEntity
  8
0
100
AcDbCircle
 10
-54.4683854891472
 20
45.49999999999998
 30
0.0
 40
4.249999999999996
100
AcDbArc
 50
139.8808331015947
 51
270.0
  0
LINE
  5
5DD8
330
5DA6
100
AcDbEntity
  8
0
100
AcDbLine
 10
-54.46838548914719
 20
41.24999999999999
 30
0.0
 11
-52.9683854891472
 21
41.24999999999999
 31
0.0
  0
ARC
  5
5DD9
330
5DA6
100
AcDbEntity
  8
0
100
AcDbCircle
 10
-52.9683854891472
 20
45.49999999999998
 30
0.0
 40
4.250000000000007
100
AcDbArc
 50
270.0
 51
0.0
  0
LINE
  5
5DDA
330
5DA6
100
AcDbEntity
  8
0
100
AcDbLine
 10
-48.7183854891472
 20
45.49999999999998
 30
0.0
 11
-48.71838548914721
 21
47.37083496185029
 31
0.0
  0
ARC
  5
5DDB
330
5DA6
100
AcDbEntity
  8
0
100
AcDbCircle
 10
-46.7183854891472
 20
47.37083496185029
 30
0.0
 40
2.000000000000002
100
AcDbArc
 50
68.00000000000022
 51
180.0
  0
LINE
  5
5DDC
330
5DA6
100
AcDbEntity
  8
0
100
AcDbLine
 10
-45.96917230231537
 20
49.2252026709839
 30
0.0
 11
-6.000000000000005
 21
33.07660883592429
 31
0.0
  0
ARC
  5
5DDD
330
5DA6
100
AcDbEntity
  8
0
100
AcDbCircle
 10
-4.718385489147197
 20
-1.000000000000009
 30
0.0
 40
2.250000000000005
100
AcDbArc
 50
124.722786822948
 51
235.2772131770521
  0
LINE
  5
5DDE
330
5DA6
100
AcDbEntity
  8
0
100
AcDbLine
 10
0.0
 20
33.87443401210676
 30
0.0
 11
0.0
 21
1.249999999999995
 31
0.0
  0
SPLINE
  5
5DDF
330
5DA6
100
AcDbEntity
  8
0
100
AcDbSpline
210
0.0
220
0.0
230
1.0
 70
     8
 71
     3
 72
    10
 73
     6
 74
     0
 42
0.000000001
 43
0.0000000001
 40
0.0
 40
0.0
 40
0.0
 40
0.0
 40
0.0507000194424427
 40
0.0507000194424427
 40
0.0861016273554008
 40
0.0861016273554008
 40
0.0861016273554008
 40
0.0861016273554008
 10
-5.999999999999986
 20
0.849314533975094
 30
0.0
 10
-5.846476691569718
 20
0.9199659010799132
 30
0.0
 10
-5.515198743807578
 20
1.060232633685491
 30
0.0
 10
-4.741959542670997
 20
1.218335028912513
 30
0.0
 10
-4.421711722102228
 20
1.250001105790627
 30
0.0
 10
-4.109845709134257
 20
1.249999999999977
 30
0.0
  0
LINE
  5
5DE0
330
5DA6
100
AcDbEntity
  8
0
100
AcDbLine
 10
0.0
 20
1.250000000000265
 30
0.0
 11
-4.109845709134265
 21
1.250000000000072
 31
0.0
  0
SPLINE
  5
5DE1
330
5DA6
100
AcDbEntity
  8
0
100
AcDbSpline
210
0.0
220
0.0
230
1.0
 70
     8
 71
     3
 72
    20
 73
    16
 74
     0
 42
0.000000001
 43
0.0000000001
 40
0.0
 40
0.0
 40
0.0
 40
0.0
 40
0.0405976442383458
 40
0.0405976442383458
 40
0.0716043848047081
 40
0.0716043848047081
 40
0.1028570667671033
 40
0.1028570667671033
 40
0.1477895630004486
 40
0.1477895630004486
 40
0.2029079031391208
 40
0.2029079031391208
 40
0.2338286432514404
 40
0.2338286432514404
 40
0.2734021259558201
 40
0.2734021259558201
 40
0.2734021259558201
 40
0.2734021259558201
 10
0.0000000000000039
 20
33.87443401210676
 30
0.0
 10
0.000000000000004
 20
33.73910857588718
 30
0.0
 10
0.0004087994863863
 20
33.56033752397188
 30
0.0
 10
-0.0015210907020302
 20
33.20063936821993
 30
0.0
 10
-0.0029743327860963
 20
33.02817092495217
 30
0.0
 10
-0.0199745112780775
 20
32.66942874592619
 30
0.0
 10
-0.0352294054455841
 20
32.51210031419388
 30
0.0
 10
-0.0983501783730778
 20
32.18101522963401
 30
0.0
 10
-0.1594143250966238
 20
32.01770930673667
 30
0.0
 10
-0.3865153478597025
 20
31.73905314819956
 30
0.0
 10
-0.5640693250670275
 20
31.65472672751475
 30
0.0
 10
-0.9178293282423126
 20
31.61792528922223
 30
0.0
 10
-1.059692441933106
 20
31.62416197723019
 30
0.0
 10
-1.410206428583176
 20
31.68307382122737
 30
0.0
 10
-1.586752567442413
 20
31.74240070648874
 30
0.0
 10
-1.706802086225931
 20
31.78827033933146
 30
0.0
  0
SPLINE
  5
5DE2
330
5DA6
100
AcDbEntity
  8
0
100
AcDbSpline
210
0.0
220
0.0
230
1.0
 70
     8
 71
     3
 72
    12
 73
     8
 74
     0
 42
0.000000001
 43
0.0000000001
 40
0.0
 40
0.0
 40
0.0
 40
0.0
 40
0.1239712457412893
 40
0.1239712457412893
 40
0.3101197498474652
 40
0.3101197498474652
 40
0.4962683327629611
 40
0.4962683327629611
 40
0.4962683327629611
 40
0.4962683327629611
 10
-1.706802086225935
 20
31.78827033933151
 30
0.0
 10
-1.985551206012041
 20
31.89572174907067
 30
0.0
 10
-2.292088205023679
 20
32.00290459519225
 30
0.0
 10
-3.117020801816294
 20
32.27169668343279
 30
0.0
 10
-3.659931912819349
 20
32.43214020590349
 30
0.0
 10
-4.805061856518528
 20
32.75482365365498
 30
0.0
 10
-5.400848321169283
 20
32.915265553782
 30
0.0
 10
-6.000000000000012
 20
33.07660883592431
 30
0.0
  0
SPLINE
  5
5DE3
330
5DA6
100
AcDbEntity
  8
0
100
AcDbSpline
210
0.0
220
0.0
230
1.0
 70
     8
 71
     3
 72
    12
 73
     8
 74
     0
 42
0.000000001
 43
0.0000000001
 40
0.3900856594746379
 40
0.3900856594746379
 40
0.3900856594746379
 40
0.3900856594746379
 40
0.4924973235132071
 40
0.4924973235132071
 40
0.5936467900789474
 40
0.5936467900789474
 40
0.7611251631567433
 40
0.7611251631567433
 40
0.7611251631567433
 40
0.7611251631567433
 10
-3.045649841383514
 20
32.24478213516454
 30
0.0
 10
-3.028179899718637
 20
32.37227226553261
 30
0.0
 10
-3.017749832807785
 20
32.51622017101775
 30
0.0
 10
-3.004875407166829
 20
32.83047903846525
 30
0.0
 10
-3.002465043088045
 20
32.99481987671418
 30
0.0
 10
-2.999242810694276
 20
33.44074827662821
 30
0.0
 10
-3.000000000000011
 20
33.68957521479437
 30
0.0
 10
-3.000000000000012
 20
33.87443401210673
 30
0.0
  0
CIRCLE
  5
5DE4
330
5DA6
100
AcDbEntity
  8
0
100
AcDbCircle
 10
-88.9683854891472
 20
-1.000000000000045
 30
0.0
 40
6.250000000000008
  0
CIRCLE
  5
5DE5
330
5DA6
100
AcDbEntity
  8
0
100
AcDbCircle
 10
-52.9683854891472
 20
5.499999999999949
 30
0.0
 40
4.250000000000007
  0
CIRCLE
  5
5DE6
330
5DA6
100
AcDbEntity
  8
0
100
AcDbCircle
 10
-88.9683854891472
 20
-41.00000000000003
 30
0.0
 40
6.250000000000008
  0
CIRCLE
  5
5DE7
330
5DA6
100
AcDbEntity
  8
0
100
AcDbCircle
 10
-52.96838548914717
 20
-34.50000000000004
 30
0.0
 40
4.250000000000007
  0
ENDBLK
  5
5DA8
330
5DA6
100
AcDbEntity
  8
0
100
AcDbBlockEnd
  0
BLOCK
  5
5DE9
330
5DE8
100
AcDbEntity
  8
0
100
AcDbBlockBegin
  2
TU16-Top
 70
     0
 10
0.0
 20
0.0
 30
0.0
  3
TU16-Top
  1

  0
ARC
  5
5DEB
330
5DE8
100
AcDbEntity
  8
0
100
AcDbCircle
 10
4.500000000000035
 20
-5.999999999999994
 30
0.0
 40
3.0
100
AcDbArc
 50
90.00000000000003
 51
161.6376337998028
  0
SPLINE
  5
5DEC
330
5DE8
100
AcDbEntity
  8
0
100
AcDbSpline
210
0.0
220
0.0
230
1.0
 70
     8
 71
     3
 72
    12
 73
     8
 74
     0
 42
0.000000001
 43
0.0000000001
 40
0.0
 40
0.0
 40
0.0
 40
0.0
 40
0.0463759660026018
 40
0.0463759660026018
 40
0.0752344047761934
 40
0.0752344047761934
 40
0.1164597033174768
 40
0.1164597033174768
 40
0.1164597033174768
 40
0.1164597033174768
 10
1.652750592382144
 20
-5.054922854567136
 30
0.0
 10
1.604051852868966
 20
-5.201638345361384
 30
0.0
 10
1.567843580480275
 20
-5.349190800302451
 30
0.0
 10
1.527972406044664
 20
-5.581407130113836
 30
0.0
 10
1.517383414124029
 20
-5.667250896942642
 30
0.0
 10
1.500719887641704
 20
-5.865687391783024
 30
0.0
 10
1.500000000000028
 20
-5.951653230212636
 30
0.0
 10
1.500000000000028
 20
-5.999999999999997
 30
0.0
  0
LINE
  5
5DED
330
5DE8
100
AcDbEntity
  8
0
100
AcDbLine
 10
-29.99999999999998
 20
0.0
 30
0.0
 11
-27.99999999999997
 21
0.0
 31
0.0
  0
LINE
  5
5DEE
330
5DE8
100
AcDbEntity
  8
0
100
AcDbLine
 10
-1.732050807568844
 20
0.0
 30
0.0
 11
-27.99999999999997
 21
0.0
 31
0.0
  0
LINE
  5
5DEF
330
5DE8
100
AcDbEntity
  8
0
100
AcDbLine
 10
0.0
 20
0.0
 30
0.0
 11
-1.732050807568844
 21
0.0
 31
0.0
  0
LINE
  5
5DF0
330
5DE8
100
AcDbEntity
  8
0
100
AcDbLine
 10
1.732050807568926
 20
0.0
 30
0.0
 11
0.0
 21
0.0
 31
0.0
  0
LINE
  5
5DF1
330
5DE8
100
AcDbEntity
  8
0
100
AcDbLine
 10
28.00000000000005
 20
0.0
 30
0.0
 11
1.732050807568925
 21
0.0
 31
0.0
  0
LINE
  5
5DF2
330
5DE8
100
AcDbEntity
  8
0
100
AcDbLine
 10
28.00000000000004
 20
0.0
 30
0.0
 11
30.00000000000003
 21
0.0
 31
0.0
  0
LINE
  5
5DF3
330
5DE8
100
AcDbEntity
  8
0
100
AcDbLine
 10
30.00000000000003
 20
-2.999999999999992
 30
0.0
 11
28.00000000000004
 21
-2.999999999999994
 31
0.0
  0
LINE
  5
5DF4
330
5DE8
100
AcDbEntity
  8
0
100
AcDbLine
 10
1.732050807568927
 20
-3.000000000000013
 30
0.0
 11
28.00000000000005
 21
-2.999999999999995
 31
0.0
  0
LINE
  5
5DF5
330
5DE8
100
AcDbEntity
  8
0
100
AcDbLine
 10
0.0
 20
-3.000000000000013
 30
0.0
 11
1.732050807568927
 21
-3.000000000000013
 31
0.0
  0
LINE
  5
5DF6
330
5DE8
100
AcDbEntity
  8
0
100
AcDbLine
 10
-1.732050807568843
 20
-3.000000000000015
 30
0.0
 11
0.0
 21
-3.000000000000013
 31
0.0
  0
LINE
  5
5DF7
330
5DE8
100
AcDbEntity
  8
0
100
AcDbLine
 10
-27.99999999999997
 20
-3.000000000000032
 30
0.0
 11
-1.732050807568845
 21
-3.000000000000015
 31
0.0
  0
LINE
  5
5DF8
330
5DE8
100
AcDbEntity
  8
0
100
AcDbLine
 10
-27.99999999999998
 20
-3.000000000000031
 30
0.0
 11
-29.99999999999998
 21
-3.000000000000033
 31
0.0
  0
LINE
  5
5DF9
330
5DE8
100
AcDbEntity
  8
0
100
AcDbLine
 10
-29.99999999999998
 20
0.0
 30
0.0
 11
-29.99999999999998
 21
-3.000000000000036
 31
0.0
  0
LINE
  5
5DFA
330
5DE8
100
AcDbEntity
  8
0
100
AcDbLine
 10
-1.732050807568844
 20
0.0
 30
0.0
 11
-1.732050807568843
 21
-3.000000000000015
 31
0.0
  0
LINE
  5
5DFB
330
5DE8
100
AcDbEntity
  8
0
100
AcDbLine
 10
0.0
 20
0.0
 30
0.0
 11
0.0
 21
-3.000000000000013
 31
0.0
  0
LINE
  5
5DFC
330
5DE8
100
AcDbEntity
  8
0
100
AcDbLine
 10
1.732050807568926
 20
0.0
 30
0.0
 11
1.732050807568927
 21
-3.000000000000013
 31
0.0
  0
LINE
  5
5DFD
330
5DE8
100
AcDbEntity
  8
0
100
AcDbLine
 10
30.00000000000004
 20
0.0
 30
0.0
 11
30.00000000000004
 21
-2.999999999999993
 31
0.0
  0
LINE
  5
5DFE
330
5DE8
100
AcDbEntity
  8
0
100
AcDbLine
 10
1.500000000000104
 20
-107.2183854891472
 30
0.0
 11
-1.499999999999902
 21
-107.2183854891472
 31
0.0
  0
LINE
  5
5DFF
330
5DE8
100
AcDbEntity
  8
0
100
AcDbLine
 10
-1.499999999999902
 20
-107.2183854891472
 30
0.0
 11
-1.499999999999903
 21
-105.2183854891472
 31
0.0
  0
LINE
  5
5E00
330
5DE8
100
AcDbEntity
  8
0
100
AcDbLine
 10
1.500000000000103
 20
-105.2183854891472
 30
0.0
 11
1.500000000000104
 21
-107.2183854891472
 31
0.0
  0
LINE
  5
5E01
330
5DE8
100
AcDbEntity
  8
0
100
AcDbLine
 10
-1.499999999999904
 20
-99.85423414066055
 30
0.0
 11
-1.499999999999903
 21
-105.2183854891472
 31
0.0
  0
LINE
  5
5E02
330
5DE8
100
AcDbEntity
  8
0
100
AcDbLine
 10
1.500000000000103
 20
-105.2183854891472
 30
0.0
 11
1.500000000000102
 21
-99.85423414066055
 31
0.0
  0
LINE
  5
5E03
330
5DE8
100
AcDbEntity
  8
0
100
AcDbLine
 10
-1.499999999999904
 20
-99.85423414066056
 30
0.0
 11
-1.499999999999905
 21
-98.1398995392564
 31
0.0
  0
LINE
  5
5E04
330
5DE8
100
AcDbEntity
  8
0
100
AcDbLine
 10
1.500000000000102
 20
-98.1398995392564
 30
0.0
 11
1.500000000000103
 21
-99.85423414066056
 31
0.0
  0
LINE
  5
5E05
330
5DE8
100
AcDbEntity
  8
0
100
AcDbLine
 10
-1.499999999999905
 20
-95.71838548914724
 30
0.0
 11
-1.499999999999904
 21
-98.13989953925634
 31
0.0
  0
LINE
  5
5E06
330
5DE8
100
AcDbEntity
  8
0
100
AcDbLine
 10
1.500000000000102
 20
-98.13989953925634
 30
0.0
 11
1.500000000000101
 21
-95.71838548914724
 31
0.0
  0
LINE
  5
5E07
330
5DE8
100
AcDbEntity
  8
0
100
AcDbLine
 10
1.500000000000101
 20
-95.71838548914724
 30
0.0
 11
-1.499999999999905
 21
-95.71838548914724
 31
0.0
  0
LINE
  5
5E08
330
5DE8
100
AcDbEntity
  8
0
100
AcDbLine
 10
-1.499999999999906
 20
-91.96838548914721
 30
0.0
 11
-1.499999999999904
 21
-95.71838548914724
 31
0.0
  0
LINE
  5
5E09
330
5DE8
100
AcDbEntity
  8
0
100
AcDbLine
 10
1.500000000000102
 20
-95.71838548914724
 30
0.0
 11
1.5000000000001
 21
-91.96838548914721
 31
0.0
  0
LINE
  5
5E0A
330
5DE8
100
AcDbEntity
  8
0
100
AcDbLine
 10
-1.499999999999906
 20
-88.96838548914722
 30
0.0
 11
-1.499999999999906
 21
-91.96838548914719
 31
0.0
  0
LINE
  5
5E0B
330
5DE8
100
AcDbEntity
  8
0
100
AcDbLine
 10
1.500000000000101
 20
-91.96838548914719
 30
0.0
 11
1.500000000000082
 21
-88.96838548914722
 31
0.0
  0
LINE
  5
5E0C
330
5DE8
100
AcDbEntity
  8
0
100
AcDbLine
 10
-1.49999999999991
 20
-82.71838548914724
 30
0.0
 11
-1.499999999999907
 21
-88.96838548914724
 31
0.0
  0
LINE
  5
5E0D
330
5DE8
100
AcDbEntity
  8
0
100
AcDbLine
 10
1.500000000000081
 20
-88.96838548914724
 30
0.0
 11
1.500000000000078
 21
-82.71838548914724
 31
0.0
  0
LINE
  5
5E0E
330
5DE8
100
AcDbEntity
  8
0
100
AcDbLine
 10
1.500000000000098
 20
-82.71838548914722
 30
0.0
 11
-1.499999999999908
 21
-82.71838548914722
 31
0.0
  0
LINE
  5
5E0F
330
5DE8
100
AcDbEntity
  8
0
100
AcDbLine
 10
-1.499999999999908
 20
-79.83163414319908
 30
0.0
 11
-1.499999999999908
 21
-82.71838548914722
 31
0.0
  0
LINE
  5
5E10
330
5DE8
100
AcDbEntity
  8
0
100
AcDbLine
 10
1.500000000000098
 20
-82.71838548914722
 30
0.0
 11
1.50000000000008
 21
-79.83163414319908
 31
0.0
  0
LINE
  5
5E11
330
5DE8
100
AcDbEntity
  8
0
100
AcDbLine
 10
-1.499999999999908
 20
-79.83163414319907
 30
0.0
 11
-1.499999999999909
 21
-78.0995833356302
 31
0.0
  0
LINE
  5
5E12
330
5DE8
100
AcDbEntity
  8
0
100
AcDbLine
 10
1.50000000000008
 20
-78.0995833356302
 30
0.0
 11
1.500000000000081
 21
-79.83163414319907
 31
0.0
  0
LINE
  5
5E13
330
5DE8
100
AcDbEntity
  8
0
100
AcDbLine
 10
-1.499999999999912
 20
-63.62799145031506
 30
0.0
 11
-1.499999999999909
 21
-78.0995833356302
 31
0.0
  0
LINE
  5
5E14
330
5DE8
100
AcDbEntity
  8
0
100
AcDbLine
 10
1.500000000000097
 20
-78.0995833356302
 30
0.0
 11
1.500000000000076
 21
-63.62799145031506
 31
0.0
  0
LINE
  5
5E15
330
5DE8
100
AcDbEntity
  8
0
100
AcDbLine
 10
-1.499999999999912
 20
-63.62799145031508
 30
0.0
 11
-1.499999999999912
 21
-62.87877826348331
 31
0.0
  0
LINE
  5
5E16
330
5DE8
100
AcDbEntity
  8
0
100
AcDbLine
 10
1.500000000000076
 20
-62.87877826348331
 30
0.0
 11
1.500000000000077
 21
-63.62799145031506
 31
0.0
  0
LINE
  5
5E17
330
5DE8
100
AcDbEntity
  8
0
100
AcDbLine
 10
-1.499999999999913
 20
-59.85917230231536
 30
0.0
 11
-1.499999999999912
 21
-62.87877826348324
 31
0.0
  0
LINE
  5
5E18
330
5DE8
100
AcDbEntity
  8
0
100
AcDbLine
 10
1.500000000000076
 20
-62.87877826348324
 30
0.0
 11
1.500000000000075
 21
-59.85917230231536
 31
0.0
  0
LINE
  5
5E19
330
5DE8
100
AcDbEntity
  8
0
100
AcDbLine
 10
-1.499999999999913
 20
-59.85917230231535
 30
0.0
 11
-1.499999999999914
 21
-58.87633468157826
 31
0.0
  0
LINE
  5
5E1A
330
5DE8
100
AcDbEntity
  8
0
100
AcDbLine
 10
1.500000000000075
 20
-58.87633468157826
 30
0.0
 11
1.500000000000075
 21
-59.85917230231535
 31
0.0
  0
LINE
  5
5E1B
330
5DE8
100
AcDbEntity
  8
0
100
AcDbLine
 10
-1.499999999999913
 20
-57.71838548914719
 30
0.0
 11
-1.499999999999913
 21
-58.8763346815783
 31
0.0
  0
LINE
  5
5E1C
330
5DE8
100
AcDbEntity
  8
0
100
AcDbLine
 10
1.500000000000075
 20
-58.8763346815783
 30
0.0
 11
1.500000000000075
 21
-57.71838548914719
 31
0.0
  0
LINE
  5
5E1D
330
5DE8
100
AcDbEntity
  8
0
100
AcDbLine
 10
1.500000000000075
 20
-57.71838548914719
 30
0.0
 11
-1.499999999999913
 21
-57.71838548914719
 31
0.0
  0
LINE
  5
5E1E
330
5DE8
100
AcDbEntity
  8
0
100
AcDbLine
 10
-1.499999999999914
 20
-54.4683854891472
 30
0.0
 11
-1.499999999999912
 21
-57.71838548914719
 31
0.0
  0
LINE
  5
5E1F
330
5DE8
100
AcDbEntity
  8
0
100
AcDbLine
 10
1.500000000000076
 20
-57.71838548914719
 30
0.0
 11
1.500000000000074
 21
-54.4683854891472
 31
0.0
  0
LINE
  5
5E20
330
5DE8
100
AcDbEntity
  8
0
100
AcDbLine
 10
-1.499999999999932
 20
-52.9683854891472
 30
0.0
 11
-1.499999999999914
 21
-54.46838548914719
 31
0.0
  0
LINE
  5
5E21
330
5DE8
100
AcDbEntity
  8
0
100
AcDbLine
 10
1.500000000000074
 20
-54.46838548914719
 30
0.0
 11
1.500000000000074
 21
-52.9683854891472
 31
0.0
  0
LINE
  5
5E22
330
5DE8
100
AcDbEntity
  8
0
100
AcDbLine
 10
-1.499999999999934
 20
-48.7183854891472
 30
0.0
 11
-1.499999999999933
 21
-52.9683854891472
 31
0.0
  0
LINE
  5
5E23
330
5DE8
100
AcDbEntity
  8
0
100
AcDbLine
 10
1.500000000000073
 20
-52.9683854891472
 30
0.0
 11
1.500000000000071
 21
-48.7183854891472
 31
0.0
  0
LINE
  5
5E24
330
5DE8
100
AcDbEntity
  8
0
100
AcDbLine
 10
1.500000000000073
 20
-48.71838548914721
 30
0.0
 11
-1.499999999999933
 21
-48.71838548914721
 31
0.0
  0
LINE
  5
5E25
330
5DE8
100
AcDbEntity
  8
0
100
AcDbLine
 10
-1.499999999999932
 20
-48.7183854891472
 30
0.0
 11
-1.499999999999934
 21
-45.96917230231539
 31
0.0
  0
LINE
  5
5E26
330
5DE8
100
AcDbEntity
  8
0
100
AcDbLine
 10
1.500000000000072
 20
-45.96917230231539
 30
0.0
 11
1.500000000000074
 21
-48.7183854891472
 31
0.0
  0
LINE
  5
5E27
330
5DE8
100
AcDbEntity
  8
0
100
AcDbLine
 10
-1.49999999999996
 20
-6.000000000000007
 30
0.0
 11
-1.499999999999934
 21
-45.96917230231537
 31
0.0
  0
LINE
  5
5E28
330
5DE8
100
AcDbEntity
  8
0
100
AcDbLine
 10
1.500000000000072
 20
-45.96917230231537
 30
0.0
 11
1.500000000000046
 21
-6.000000000000005
 31
0.0
  0
LINE
  5
5E29
330
5DE8
100
AcDbEntity
  8
0
100
AcDbLine
 10
-3.99999999999991
 20
-80.49136883535465
 30
0.0
 11
-3.999999999999901
 21
-97.4454021429398
 31
0.0
  0
ARC
  5
5E2A
330
5DE8
100
AcDbEntity
  8
0
100
AcDbCircle
 10
-1.499999999999912
 20
-80.4913688353546
 30
0.0
 40
2.5
100
AcDbArc
 50
114.3157391711767
 51
180.0
  0
ARC
  5
5E2B
330
5DE8
100
AcDbEntity
  8
0
100
AcDbCircle
 10
-1.499999999999901
 20
-97.4454021429398
 30
0.0
 40
2.5
100
AcDbArc
 50
180.0
 51
245.6842608288233
  0
ARC
  5
5E2C
330
5DE8
100
AcDbEntity
  8
0
100
AcDbCircle
 10
-3.24999999999992
 20
-76.61838548914719
 30
0.0
 40
1.75
100
AcDbArc
 50
294.3157391711764
 51
0.0
  0
ARC
  5
5E2D
330
5DE8
100
AcDbEntity
  8
0
100
AcDbCircle
 10
-3.249999999999906
 20
-101.3183854891472
 30
0.0
 40
1.75
100
AcDbArc
 50
0.0
 51
65.68426082882353
  0
LINE
  5
5E2E
330
5DE8
100
AcDbEntity
  8
0
100
AcDbLine
 10
4.000000000000053
 20
-46.49136883535461
 30
0.0
 11
4.00000000000006
 21
-59.44540214293978
 31
0.0
  0
ARC
  5
5E2F
330
5DE8
100
AcDbEntity
  8
0
100
AcDbCircle
 10
1.500000000000052
 20
-46.49136883535461
 30
0.0
 40
2.5
100
AcDbArc
 50
0.0
 51
65.68426082882336
  0
ARC
  5
5E30
330
5DE8
100
AcDbEntity
  8
0
100
AcDbCircle
 10
1.50000000000006
 20
-59.44540214293978
 30
0.0
 40
2.5
100
AcDbArc
 50
294.3157391711768
 51
0.0
  0
ARC
  5
5E31
330
5DE8
100
AcDbEntity
  8
0
100
AcDbCircle
 10
3.250000000000058
 20
-42.61838548914719
 30
0.0
 40
1.75
100
AcDbArc
 50
180.0
 51
245.6842608288235
  0
ARC
  5
5E32
330
5DE8
100
AcDbEntity
  8
0
100
AcDbCircle
 10
3.250000000000069
 20
-63.31838548914719
 30
0.0
 40
1.75
100
AcDbArc
 50
114.3157391711765
 51
180.0
  0
LINE
  5
5E33
330
5DE8
100
AcDbEntity
  8
0
100
AcDbLine
 10
-3.999999999999939
 20
-23.34136883535457
 30
0.0
 11
-3.999999999999939
 21
-23.59540214293989
 31
0.0
  0
ARC
  5
5E34
330
5DE8
100
AcDbEntity
  8
0
100
AcDbCircle
 10
-1.499999999999939
 20
-23.34136883535458
 30
0.0
 40
2.5
100
AcDbArc
 50
114.3157391711766
 51
180.0
  0
ARC
  5
5E35
330
5DE8
100
AcDbEntity
  8
0
100
AcDbCircle
 10
-3.249999999999946
 20
-19.46838548914717
 30
0.0
 40
1.75
100
AcDbArc
 50
294.3157391711765
 51
0.0
  0
ARC
  5
5E36
330
5DE8
100
AcDbEntity
  8
0
100
AcDbCircle
 10
-1.499999999999939
 20
-23.59540214293982
 30
0.0
 40
2.5
100
AcDbArc
 50
180.0
 51
245.6842608288234
  0
ARC
  5
5E37
330
5DE8
100
AcDbEntity
  8
0
100
AcDbCircle
 10
-3.249999999999944
 20
-27.46838548914724
 30
0.0
 40
1.75
100
AcDbArc
 50
0.0
 51
65.68426082882357
  0
LINE
  5
5E38
330
5DE8
100
AcDbEntity
  8
0
100
AcDbLine
 10
1.500000000000046
 20
-6.000000000000007
 30
0.0
 11
-0.5009609454711778
 21
-6.000000000000003
 31
0.0
  0
LINE
  5
5E39
330
5DE8
100
AcDbEntity
  8
0
100
AcDbLine
 10
-0.5009609454711779
 20
-6.000000000000003
 30
0.0
 11
-1.49999999999996
 21
-6.000000000000007
 31
0.0
  0
SPLINE
  5
5E3A
330
5DE8
100
AcDbEntity
  8
0
100
AcDbSpline
210
0.0
220
0.0
230
1.0
 70
     8
 71
     3
 72
    10
 73
     6
 74
     0
 42
0.000000001
 43
0.0000000001
 40
0.1702807264026948
 40
0.1702807264026948
 40
0.1702807264026948
 40
0.1702807264026948
 40
0.3101197498474652
 40
0.3101197498474652
 40
0.4962683327629611
 40
0.4962683327629611
 40
0.4962683327629611
 40
0.4962683327629611
 10
0.6961521796114325
 20
-3.000000017594558
 30
0.0
 10
0.9207315404146132
 20
-3.388983750843134
 30
0.0
 10
1.101162573307819
 20
-3.80237292251612
 30
0.0
 10
1.410254314391188
 20
-4.805061856518528
 30
0.0
 10
1.500000000000046
 20
-5.400848321169283
 30
0.0
 10
1.500000000000046
 20
-6.000000000000012
 30
0.0
  0
SPLINE
  5
5E3B
330
5DE8
100
AcDbEntity
  8
0
100
AcDbSpline
210
0.0
220
0.0
230
1.0
 70
     8
 71
     3
 72
    10
 73
     6
 74
     0
 42
0.000000001
 43
0.0000000001
 40
0.0
 40
0.0
 40
0.0
 40
0.0
 40
0.1362998422634597
 40
0.1362998422634597
 40
0.2725996852924406
 40
0.2725996852924406
 40
0.2725996852924406
 40
0.2725996852924406
 10
-1.49999999999996
 20
-6.000000000000007
 30
0.0
 10
-1.499999999999961
 20
-5.599991287114304
 30
0.0
 10
-1.580003492034329
 20
-5.203992570414628
 30
0.0
 10
-1.89058233632273
 20
-4.466720217059799
 30
0.0
 10
-2.11804372602413
 20
-4.132838710488837
 30
0.0
 10
-2.40426315624034
 20
-3.853401043112965
 30
0.0
  0
SPLINE
  5
5E3C
330
5DE8
100
AcDbEntity
  8
0
100
AcDbSpline
210
0.0
220
0.0
230
1.0
 70
     8
 71
     3
 72
    20
 73
    16
 74
     0
 42
0.000000001
 43
0.0000000001
 40
0.0
 40
0.0
 40
0.0
 40
0.0
 40
0.0292038487375118
 40
0.0292038487375118
 40
0.1061564375241149
 40
0.1061564375241149
 40
0.2088926109145357
 40
0.2088926109145357
 40
0.3299865151909042
 40
0.3299865151909042
 40
0.4924973235132071
 40
0.4924973235132071
 40
0.5936467900789474
 40
0.5936467900789474
 40
0.7610143409012731
 40
0.7610143409012731
 40
0.7610143409012731
 40
0.7610143409012731
 10
-2.404263156240358
 20
-3.853401043112965
 30
0.0
 10
-2.465674248597722
 20
-3.793445042269889
 30
0.0
 10
-2.523558632590543
 20
-3.741953848794994
 30
0.0
 10
-2.722765588245359
 20
-3.575788910616506
 30
0.0
 10
-2.856603618634896
 20
-3.487448653725209
 30
0.0
 10
-3.0906933795968
 20
-3.347036989114775
 30
0.0
 10
-3.226847097515428
 20
-3.279755693677083
 30
0.0
 10
-3.516412986700594
 20
-3.160767333415497
 30
0.0
 10
-3.662991456258073
 20
-3.115986682584688
 30
0.0
 10
-3.969360485244124
 20
-3.041782749642626
 30
0.0
 10
-4.121946791543031
 20
-3.021550862807318
 30
0.0
 10
-4.31376182837835
 20
-3.004875407166829
 30
0.0
 10
-4.371358554568349
 20
-3.002465043088045
 30
0.0
 10
-4.482821456214006
 20
-2.999244140024334
 30
0.0
 10
-4.500000709263614
 20
-2.99999899913044
 30
0.0
 10
-4.500000023948281
 20
-2.999999999006402
 30
0.0
  0
ENDBLK
  5
5DEA
330
5DE8
100
AcDbEntity
  8
0
100
AcDbBlockEnd
  0
BLOCK
  5
5E3E
330
5E3D
100
AcDbEntity
  8
0
100
AcDbBlockBegin
  2
TU16-Bottom
 70
     0
 10
0.0
 20
0.0
 30
0.0
  3
TU16-Bottom
  1

  0
SPLINE
  5
5E40
330
5E3D
100
AcDbEntity
  8
0
100
AcDbSpline
210
0.0
220
0.0
230
1.0
 70
     8
 71
     3
 72
    20
 73
    16
 74
     0
 42
0.000000001
 43
0.0000000001
 40
0.0
 40
0.0
 40
0.0
 40
0.0
 40
0.0292038487373892
 40
0.0292038487373892
 40
0.1061564375204376
 40
0.1061564375204376
 40
0.20889261089405
 40
0.20889261089405
 40
0.3299865151499506
 40
0.3299865151499506
 40
0.4924973234428319
 40
0.4924973234428319
 40
0.5936467899885186
 40
0.5936467899885186
 40
0.7610143407764328
 40
0.7610143407764328
 40
0.7610143407764328
 40
0.7610143407764328
 10
2.404263156240407
 20
3.853401043112944
 30
0.0
 10
2.465674248597504
 20
3.793445042270147
 30
0.0
 10
2.52355863259061
 20
3.741953848794989
 30
0.0
 10
2.722765588238515
 20
3.575788910622216
 30
0.0
 10
2.856603618621906
 20
3.487448653733045
 30
0.0
 10
3.090693379597773
 20
3.34703698911419
 30
0.0
 10
3.226847097517466
 20
3.279755693676138
 30
0.0
 10
3.516412986702277
 20
3.160767333414952
 30
0.0
 10
3.662991456259276
 20
3.11598668258434
 30
0.0
 10
3.969360485243409
 20
3.041782749642873
 30
0.0
 10
4.121946791543063
 20
3.021550862807242
 30
0.0
 10
4.313761828379394
 20
3.004875407166751
 30
0.0
 10
4.371358554569056
 20
3.002465043087989
 30
0.0
 10
4.482821456213936
 20
2.999244140024321
 30
0.0
 10
4.500000709263734
 20
2.999998999130409
 30
0.0
 10
4.500000023948365
 20
2.999999999006367
 30
0.0
  0
SPLINE
  5
5E41
330
5E3D
100
AcDbEntity
  8
0
100
AcDbSpline
210
0.0
220
0.0
230
1.0
 70
     8
 71
     3
 72
    10
 73
     6
 74
     0
 42
0.000000001
 43
0.0000000001
 40
0.0
 40
0.0
 40
0.0
 40
0.0
 40
0.1362998422634547
 40
0.1362998422634547
 40
0.2725996852924237
 40
0.2725996852924237
 40
0.2725996852924237
 40
0.2725996852924237
 10
1.500000000000028
 20
5.999999999999979
 30
0.0
 10
1.500000000000028
 20
5.599991287114297
 30
0.0
 10
1.580003492034396
 20
5.203992570414618
 30
0.0
 10
1.890582336322779
 20
4.466720217059801
 30
0.0
 10
2.118043726024179
 20
4.132838710488853
 30
0.0
 10
2.404263156240424
 20
3.853401043112947
 30
0.0
  0
LINE
  5
5E42
330
5E3D
100
AcDbEntity
  8
0
100
AcDbLine
 10
0.5009609454709434
 20
5.999999999999978
 30
0.0
 11
1.500000000000028
 21
5.999999999999969
 31
0.0
  0
LINE
  5
5E43
330
5E3D
100
AcDbEntity
  8
0
100
AcDbLine
 10
-1.49999999999996
 20
5.999999999999969
 30
0.0
 11
0.5009609454709435
 21
5.999999999999978
 31
0.0
  0
SPLINE
  5
5E44
330
5E3D
100
AcDbEntity
  8
0
100
AcDbSpline
210
0.0
220
0.0
230
1.0
 70
     8
 71
     3
 72
    10
 73
     6
 74
     0
 42
0.000000001
 43
0.0000000001
 40
0.1702807264026986
 40
0.1702807264026986
 40
0.1702807264026986
 40
0.1702807264026986
 40
0.3101197498474792
 40
0.3101197498474792
 40
0.496268332762988
 40
0.496268332762988
 40
0.496268332762988
 40
0.496268332762988
 10
-0.6961521796113481
 20
3.000000017594514
 30
0.0
 10
-0.9207315404145312
 20
3.388983750843093
 30
0.0
 10
-1.101162573307751
 20
3.802372922516086
 30
0.0
 10
-1.410254314391121
 20
4.805061856518512
 30
0.0
 10
-1.499999999999961
 20
5.400848321169258
 30
0.0
 10
-1.49999999999996
 20
5.999999999999977
 30
0.0
  0
LINE
  5
5E45
330
5E3D
100
AcDbEntity
  8
0
100
AcDbLine
 10
-29.99999999999998
 20
2.999999999999974
 30
0.0
 11
-27.99999999999999
 21
2.999999999999972
 31
0.0
  0
LINE
  5
5E46
330
5E3D
100
AcDbEntity
  8
0
100
AcDbLine
 10
-1.732050807568861
 20
2.999999999999963
 30
0.0
 11
-27.99999999999999
 21
2.999999999999972
 31
0.0
  0
LINE
  5
5E47
330
5E3D
100
AcDbEntity
  8
0
100
AcDbLine
 10
0.0
 20
2.999999999999964
 30
0.0
 11
-1.732050807568861
 21
2.999999999999963
 31
0.0
  0
LINE
  5
5E48
330
5E3D
100
AcDbEntity
  8
0
100
AcDbLine
 10
1.732050807568892
 20
2.999999999999962
 30
0.0
 11
0.0
 21
2.999999999999964
 31
0.0
  0
LINE
  5
5E49
330
5E3D
100
AcDbEntity
  8
0
100
AcDbLine
 10
28.00000000000003
 20
2.999999999999953
 30
0.0
 11
1.73205080756889
 21
2.999999999999962
 31
0.0
  0
LINE
  5
5E4A
330
5E3D
100
AcDbEntity
  8
0
100
AcDbLine
 10
28.00000000000003
 20
2.999999999999953
 30
0.0
 11
30.00000000000003
 21
2.999999999999953
 31
0.0
  0
LINE
  5
5E4B
330
5E3D
100
AcDbEntity
  8
0
100
AcDbLine
 10
30.00000000000003
 20
0.0
 30
0.0
 11
28.00000000000003
 21
0.0
 31
0.0
  0
LINE
  5
5E4C
330
5E3D
100
AcDbEntity
  8
0
100
AcDbLine
 10
1.732050807568891
 20
0.0
 30
0.0
 11
28.00000000000003
 21
0.0
 31
0.0
  0
LINE
  5
5E4D
330
5E3D
100
AcDbEntity
  8
0
100
AcDbLine
 10
0.0
 20
0.0
 30
0.0
 11
1.732050807568891
 21
0.0
 31
0.0
  0
LINE
  5
5E4E
330
5E3D
100
AcDbEntity
  8
0
100
AcDbLine
 10
-1.732050807568862
 20
0.0
 30
0.0
 11
0.0
 21
0.0
 31
0.0
  0
LINE
  5
5E4F
330
5E3D
100
AcDbEntity
  8
0
100
AcDbLine
 10
-27.99999999999999
 20
0.0
 30
0.0
 11
-1.732050807568863
 21
0.0
 31
0.0
  0
LINE
  5
5E50
330
5E3D
100
AcDbEntity
  8
0
100
AcDbLine
 10
-27.99999999999999
 20
0.0
 30
0.0
 11
-29.99999999999998
 21
0.0
 31
0.0
  0
LINE
  5
5E51
330
5E3D
100
AcDbEntity
  8
0
100
AcDbLine
 10
-29.99999999999998
 20
2.999999999999974
 30
0.0
 11
-29.99999999999998
 21
0.0
 31
0.0
  0
LINE
  5
5E52
330
5E3D
100
AcDbEntity
  8
0
100
AcDbLine
 10
-1.732050807568861
 20
2.999999999999963
 30
0.0
 11
-1.732050807568862
 21
0.0
 31
0.0
  0
LINE
  5
5E53
330
5E3D
100
AcDbEntity
  8
0
100
AcDbLine
 10
0.0
 20
2.999999999999964
 30
0.0
 11
0.0
 21
0.0
 31
0.0
  0
LINE
  5
5E54
330
5E3D
100
AcDbEntity
  8
0
100
AcDbLine
 10
1.732050807568892
 20
2.999999999999962
 30
0.0
 11
1.732050807568891
 21
0.0
 31
0.0
  0
LINE
  5
5E55
330
5E3D
100
AcDbEntity
  8
0
100
AcDbLine
 10
30.00000000000002
 20
2.999999999999953
 30
0.0
 11
30.00000000000002
 21
0.0
 31
0.0
  0
LINE
  5
5E56
330
5E3D
100
AcDbEntity
  8
0
100
AcDbLine
 10
1.500000000000028
 20
5.999999999999969
 30
0.0
 11
1.500000000000078
 21
70.50915682565015
 31
0.0
  0
LINE
  5
5E57
330
5E3D
100
AcDbEntity
  8
0
100
AcDbLine
 10
1.500000000000078
 20
70.50915682565015
 30
0.0
 11
-1.499999999999928
 21
70.50915682565015
 31
0.0
  0
LINE
  5
5E58
330
5E3D
100
AcDbEntity
  8
0
100
AcDbLine
 10
-1.499999999999928
 20
70.50915682565015
 30
0.0
 11
-1.49999999999996
 21
5.999999999999969
 31
0.0
  0
LINE
  5
5E59
330
5E3D
100
AcDbEntity
  8
0
100
AcDbLine
 10
-1.499999999999903
 20
105.2183854891472
 30
0.0
 11
-1.499999999999928
 21
70.50915682565015
 31
0.0
  0
LINE
  5
5E5A
330
5E3D
100
AcDbEntity
  8
0
100
AcDbLine
 10
1.500000000000078
 20
70.50915682565015
 30
0.0
 11
1.500000000000085
 21
105.2183854891472
 31
0.0
  0
LINE
  5
5E5B
330
5E3D
100
AcDbEntity
  8
0
100
AcDbLine
 10
-1.499999999999903
 20
105.2183854891472
 30
0.0
 11
-1.499999999999902
 21
107.2183854891472
 31
0.0
  0
LINE
  5
5E5C
330
5E3D
100
AcDbEntity
  8
0
100
AcDbLine
 10
1.500000000000087
 20
107.2183854891472
 30
0.0
 11
1.500000000000085
 21
105.2183854891472
 31
0.0
  0
LINE
  5
5E5D
330
5E3D
100
AcDbEntity
  8
0
100
AcDbLine
 10
1.500000000000086
 20
107.2183854891472
 30
0.0
 11
-1.499999999999902
 21
107.2183854891472
 31
0.0
  0
LINE
  5
5E5E
330
5E3D
100
AcDbEntity
  8
0
100
AcDbLine
 10
-3.999999999999901
 20
97.4454021429398
 30
0.0
 11
-3.99999999999991
 21
80.49136883535465
 31
0.0
  0
LINE
  5
5E5F
330
5E3D
100
AcDbEntity
  8
0
100
AcDbLine
 10
4.00000000000006
 20
59.44540214293976
 30
0.0
 11
4.000000000000053
 21
46.49136883535458
 31
0.0
  0
ARC
  5
5E60
330
5E3D
100
AcDbEntity
  8
0
100
AcDbCircle
 10
-1.499999999999919
 20
97.4454021429398
 30
0.0
 40
2.5
100
AcDbArc
 50
114.3157391711767
 51
180.0
  0
ARC
  5
5E61
330
5E3D
100
AcDbEntity
  8
0
100
AcDbCircle
 10
-1.499999999999929
 20
80.4913688353546
 30
0.0
 40
2.5
100
AcDbArc
 50
180.0
 51
245.6842608288233
  0
ARC
  5
5E62
330
5E3D
100
AcDbEntity
  8
0
100
AcDbCircle
 10
-3.249999999999906
 20
101.3183854891472
 30
0.0
 40
1.75
100
AcDbArc
 50
294.3157391711762
 51
0.0
  0
ARC
  5
5E63
330
5E3D
100
AcDbEntity
  8
0
100
AcDbCircle
 10
-3.24999999999992
 20
76.61838548914719
 30
0.0
 40
1.75
100
AcDbArc
 50
0.0
 51
65.68426082882415
  0
ARC
  5
5E64
330
5E3D
100
AcDbEntity
  8
0
100
AcDbCircle
 10
1.50000000000006
 20
59.44540214293976
 30
0.0
 40
2.5
100
AcDbArc
 50
0.0
 51
65.68426082882332
  0
ARC
  5
5E65
330
5E3D
100
AcDbEntity
  8
0
100
AcDbCircle
 10
1.500000000000052
 20
46.49136883535458
 30
0.0
 40
2.5
100
AcDbArc
 50
294.3157391711767
 51
0.0
  0
ARC
  5
5E66
330
5E3D
100
AcDbEntity
  8
0
100
AcDbCircle
 10
3.250000000000069
 20
63.31838548914717
 30
0.0
 40
1.75
100
AcDbArc
 50
180.0
 51
245.6842608288235
  0
ARC
  5
5E67
330
5E3D
100
AcDbEntity
  8
0
100
AcDbCircle
 10
3.250000000000058
 20
42.61838548914717
 30
0.0
 40
1.75
100
AcDbArc
 50
114.3157391711765
 51
180.0
  0
LINE
  5
5E68
330
5E3D
100
AcDbEntity
  8
0
100
AcDbLine
 10
-3.999999999999957
 20
23.59540214293983
 30
0.0
 11
-3.999999999999957
 21
23.34136883535455
 31
0.0
  0
ARC
  5
5E69
330
5E3D
100
AcDbEntity
  8
0
100
AcDbCircle
 10
-1.499999999999956
 20
23.34136883535455
 30
0.0
 40
2.5
100
AcDbArc
 50
180.0
 51
245.6842608288234
  0
ARC
  5
5E6A
330
5E3D
100
AcDbEntity
  8
0
100
AcDbCircle
 10
-3.249999999999946
 20
19.46838548914713
 30
0.0
 40
1.75
100
AcDbArc
 50
0.0
 51
65.68426082882351
  0
ARC
  5
5E6B
330
5E3D
100
AcDbEntity
  8
0
100
AcDbCircle
 10
-1.499999999999956
 20
23.59540214293984
 30
0.0
 40
2.5
100
AcDbArc
 50
114.3157391711765
 51
180.0
  0
ARC
  5
5E6C
330
5E3D
100
AcDbEntity
  8
0
100
AcDbCircle
 10
-3.249999999999944
 20
27.46838548914726
 30
0.0
 40
1.75
100
AcDbArc
 50
294.3157391711764
 51
0.0
  0
ARC
  5
5E6D
330
5E3D
100
AcDbEntity
  8
0
100
AcDbCircle
 10
-4.499999999999968
 20
5.999999999999992
 30
0.0
 40
3.0
100
AcDbArc
 50
269.9999999999999
 51
341.6376337998028
  0
SPLINE
  5
5E6E
330
5E3D
100
AcDbEntity
  8
0
100
AcDbSpline
210
0.0
220
0.0
230
1.0
 70
     8
 71
     3
 72
    12
 73
     8
 74
     0
 42
0.000000001
 43
0.0000000001
 40
0.0
 40
0.0
 40
0.0
 40
0.0
 40
0.0463759660140537
 40
0.0463759660140537
 40
0.0752344047874618
 40
0.0752344047874618
 40
0.1164597033337813
 40
0.1164597033337813
 40
0.1164597033337813
 40
0.1164597033337813
 10
-1.652750592382059
 20
5.054922854567126
 30
0.0
 10
-1.604051852856873
 20
5.201638345397604
 30
0.0
 10
-1.567843580465393
 20
5.349190800365962
 30
0.0
 10
-1.52797240603591
 20
5.581407130178516
 30
0.0
 10
-1.517383414118402
 20
5.667250896995978
 30
0.0
 10
-1.500719887640411
 20
5.865687391815587
 30
0.0
 10
-1.49999999999996
 20
5.951653230238211
 30
0.0
 10
-1.49999999999996
 20
5.999999999999986
 30
0.0
  0
ENDBLK
  5
5E3F
330
5E3D
100
AcDbEntity
  8
0
100
AcDbBlockEnd
  0
BLOCK
  5
5E70
330
5E6F
100
AcDbEntity
  8
0
100
AcDbBlockBegin
  2
TU16-ISO
 70
     0
 10
0.0
 20
0.0
 30
0.0
  3
TU16-ISO
  1

  0
ELLIPSE
  5
5E72
330
5E6F
100
AcDbEntity
  8
0
100
AcDbEllipse
 10
36.84645969798113
 20
14.94546492312423
 30
0.0
 11
-3.0
 21
-0.0000000000002158
 31
0.0
210
0.0
220
0.0
230
1.0
 40
0.5773502691896181
 41
3.926990816986993
 42
5.177303395131612
  0
LINE
  5
5E73
330
5E6F
100
AcDbEntity
  8
0
100
AcDbLine
 10
41.08910038510041
 20
17.3949546659074
 30
0.0
 11
38.96778004154078
 21
16.17020979451581
 31
0.0
  0
ELLIPSE
  5
5E74
330
5E6F
100
AcDbEntity
  8
0
100
AcDbEllipse
 10
36.84645969798113
 20
14.94546492312423
 30
0.0
 11
6.0
 21
-0.0000000000000383
 31
0.0
210
0.0
220
0.0
230
1.0
 40
0.577350269189632
 41
0.7853981633975762
 42
2.035710741542029
  0
LINE
  5
5E75
330
5E6F
100
AcDbEntity
  8
0
100
AcDbLine
 10
35.50142079240514
 20
16.49367575528792
 30
0.0
 11
34.15638188682913
 21
18.04188658745161
 31
0.0
  0
SPLINE
  5
5E76
330
5E6F
100
AcDbEntity
  8
0
100
AcDbSpline
210
0.0
220
0.0
230
1.0
 70
     8
 71
     3
 72
    12
 73
     8
 74
     0
 42
0.000000001
 43
0.0000000001
 40
0.0
 40
0.0
 40
0.0
 40
0.0
 40
0.0463759660026018
 40
0.0463759660026018
 40
0.0752344047761934
 40
0.0752344047761934
 40
0.1164597033174768
 40
0.1164597033174768
 40
0.1164597033174768
 40
0.1164597033174768
 10
35.50142079240514
 20
16.49367575528789
 30
0.0
 10
35.36324206501441
 20
16.45365875983869
 30
0.0
 10
35.23330360860376
 20
16.43123140364057
 30
0.0
 10
35.04090868927459
 20
16.42386691118941
 30
0.0
 10
34.97272043163434
 20
16.42806001411739
 30
0.0
 10
34.82062174792368
 20
16.45436145225672
 30
0.0
 10
34.75932568318659
 20
16.48073139308828
 30
0.0
 10
34.72513935442148
 20
16.49736810755256
 30
0.0
  0
SPLINE
  5
5E77
330
5E6F
100
AcDbEntity
  8
0
100
AcDbSpline
210
0.0
220
0.0
230
1.0
 70
     8
 71
     3
 72
     8
 73
     4
 74
     0
 42
0.000000001
 43
0.0000000001
 40
0.0828577000333974
 40
0.0828577000333974
 40
0.0828577000333974
 40
0.0828577000333974
 40
0.0861016273844298
 40
0.0861016273844298
 40
0.0861016273844298
 40
0.0861016273844298
 10
34.07596082975325
 20
18.01880514933655
 30
0.0
 10
34.10265856421452
 20
18.02639723720697
 30
0.0
 10
34.12946769166162
 20
18.03409242421018
 30
0.0
 10
34.15638188682913
 20
18.0418865874516
 30
0.0
  0
LINE
  5
5E78
330
5E6F
100
AcDbEntity
  8
0
100
AcDbLine
 10
34.7251393544215
 20
16.49736810755256
 30
0.0
 11
34.32371481839196
 21
16.72913067148853
 31
0.0
  0
SPLINE
  5
5E79
330
5E6F
100
AcDbEntity
  8
0
100
AcDbSpline
210
0.0
220
0.0
230
1.0
 70
     8
 71
     3
 72
    20
 73
    16
 74
     0
 42
0.000000001
 43
0.0000000001
 40
0.0
 40
0.0
 40
0.0
 40
0.0
 40
0.0292038487373892
 40
0.0292038487373892
 40
0.1061564375204376
 40
0.1061564375204376
 40
0.20889261089405
 40
0.20889261089405
 40
0.3299865151499506
 40
0.3299865151499506
 40
0.4924973234428319
 40
0.4924973234428319
 40
0.5936467899885186
 40
0.5936467899885186
 40
0.761125163031526
 40
0.761125163031526
 40
0.761125163031526
 40
0.761125163031526
 10
36.88242464307901
 20
-6.509699375013582
 30
0.0
 10
36.96824413769355
 20
-6.472785805130922
 30
0.0
 10
37.04558435021755
 20
-6.449677028837821
 30
0.0
 10
37.30394129399313
 20
-6.394767130607723
 30
0.0
 10
37.46104506755597
 20
-6.407587089718527
 30
0.0
 10
37.72585756515803
 20
-6.457643479051196
 30
0.0
 10
37.86970784263406
 20
-6.515842007984771
 30
0.0
 10
38.15859932289991
 20
-6.695408614205162
 30
0.0
 10
38.29391065456788
 20
-6.822596052145244
 30
0.0
 10
38.56301637668173
 20
-7.160176051962028
 30
0.0
 10
38.68521729296009
 20
-7.389952212073782
 30
0.0
 10
38.83264233400338
 20
-7.793799642725511
 30
0.0
 10
38.87507375445145
 20
-7.950513113250701
 30
0.0
 10
38.95620091941669
 20
-8.358819975916166
 30
0.0
 10
38.96779661385052
 20
-8.569299339952255
 30
0.0
 10
38.96778004154079
 20
-8.720226347886267
 30
0.0
  0
SPLINE
  5
5E7A
330
5E6F
100
AcDbEntity
  8
0
100
AcDbSpline
210
0.0
220
0.0
230
1.0
 70
     8
 71
     3
 72
    10
 73
     6
 74
     0
 42
0.000000001
 43
0.0000000001
 40
0.0
 40
0.0
 40
0.0
 40
0.0
 40
0.1362998422634547
 40
0.1362998422634547
 40
0.2725996852924237
 40
0.2725996852924237
 40
0.2725996852924237
 40
0.2725996852924237
 10
34.7251393544215
 20
-8.06880481935523
 30
0.0
 10
35.00798822783667
 20
-7.729601728928883
 30
0.0
 10
35.34457261749228
 20
-7.426434777045001
 30
0.0
 10
36.08551530502023
 20
-6.900439223497154
 30
0.0
 10
36.48244467354531
 20
-6.682830950135634
 30
0.0
 10
36.88242464307902
 20
-6.509699375013591
 30
0.0
  0
LINE
  5
5E7B
330
5E6F
100
AcDbEntity
  8
0
100
AcDbLine
 10
34.7251393544215
 20
-8.068804819355221
 30
0.0
 11
34.7251393544215
 21
16.49736810755255
 31
0.0
  0
LINE
  5
5E7C
330
5E6F
100
AcDbEntity
  8
0
100
AcDbLine
 10
38.96778004154078
 20
16.17020979451581
 30
0.0
 11
38.96778004154079
 21
-8.720226347886265
 31
0.0
  0
LINE
  5
5E7D
330
5E6F
100
AcDbEntity
  8
0
100
AcDbLine
 10
37.97278522445461
 20
-9.84911132847591
 30
0.0
 11
38.8519302635555
 21
-9.341536703494286
 31
0.0
  0
ELLIPSE
  5
5E7E
330
5E6F
100
AcDbEntity
  8
0
100
AcDbEllipse
 10
37.37678978387105
 20
-7.80166769434258
 30
0.0
 11
1.125000000000001
 21
-1.948557158514987
 31
0.0
210
0.0
220
0.0
230
0.9999999999999998
 40
0.5773502691896254
 41
5.881759579220891
 42
7.068583470577034
  0
ELLIPSE
  5
5E7F
330
5E6F
100
AcDbEntity
  8
0
100
AcDbEllipse
 10
32.95737240145513
 20
-27.51235728511753
 30
0.0
 11
1.25
 21
-2.165063509461093
 31
0.0
210
0.0
220
0.0
230
1.0
 40
0.5773502691896255
 41
0.0
 42
6.283185307179586
  0
ELLIPSE
  5
5E80
330
5E6F
100
AcDbEntity
  8
0
100
AcDbEllipse
 10
25.88630458958965
 20
-15.26490857120163
 30
0.0
 11
1.250000000000001
 21
-2.165063509461095
 31
0.0
210
0.0
220
0.0
230
1.0
 40
0.5773502691896255
 41
5.494070374682645
 42
7.405312845055222
  0
LINE
  5
5E81
330
5E6F
100
AcDbEntity
  8
0
100
AcDbLine
 10
33.49503752229813
 20
-9.352882990535743
 30
0.0
 11
37.97278522445461
 21
-9.84911132847591
 31
0.0
  0
LINE
  5
5E82
330
5E6F
100
AcDbEntity
  8
0
100
AcDbLine
 10
34.56105465480973
 20
-33.33722315135278
 30
0.0
 11
19.08074886185599
 21
-24.39966443465321
 31
0.0
  0
LINE
  5
5E83
330
5E6F
100
AcDbEntity
  8
0
100
AcDbLine
 10
35.78579952620132
 20
-31.59484018975615
 30
0.0
 11
34.56105465480973
 21
-33.33722315135278
 31
0.0
  0
LINE
  5
5E84
330
5E6F
100
AcDbEntity
  8
0
100
AcDbLine
 10
37.0105443975929
 20
-34.75143671372587
 30
0.0
 11
35.78579952620132
 21
-31.59484018975615
 31
0.0
  0
LINE
  5
5E85
330
5E6F
100
AcDbEntity
  8
0
100
AcDbLine
 10
55.58478939942467
 20
-45.47528206552749
 30
0.0
 11
37.0105443975929
 21
-34.75143671372587
 31
0.0
  0
ELLIPSE
  5
5E86
330
5E6F
100
AcDbEntity
  8
0
100
AcDbEllipse
 10
55.58478939942467
 20
-43.84228890367204
 30
0.0
 11
1.0
 21
-1.732050807568876
 31
0.0
210
0.0
220
0.0
230
1.0
 40
0.5773502691896257
 41
5.497787143782137
 42
7.068583470577026
  0
LINE
  5
5E87
330
5E6F
100
AcDbEntity
  8
0
100
AcDbLine
 10
56.99900296179774
 20
4.126885225831841
 30
0.0
 11
56.99900296179776
 21
-44.65878548459976
 31
0.0
  0
ELLIPSE
  5
5E88
330
5E6F
100
AcDbEntity
  8
0
100
AcDbEllipse
 10
55.58478939942464
 20
4.943381806759563
 30
0.0
 11
0.999999999999903
 21
-1.732050807568945
 31
0.0
210
0.0
220
0.0
230
1.0
 40
0.5773502691896257
 41
0.7853981633976943
 42
2.356194490192578
  0
LINE
  5
5E89
330
5E6F
100
AcDbEntity
  8
0
100
AcDbLine
 10
38.96778004154078
 20
16.17020979451581
 30
0.0
 11
55.58478939942465
 21
6.576374968615017
 31
0.0
  0
LINE
  5
5E8A
330
5E6F
100
AcDbEntity
  8
0
100
AcDbLine
 10
57.70610974298429
 20
7.801119840006607
 30
0.0
 11
41.08910038510041
 21
17.3949546659074
 31
0.0
  0
ELLIPSE
  5
5E8B
330
5E6F
100
AcDbEntity
  8
0
100
AcDbEllipse
 10
57.70610974298428
 20
6.168126678151155
 30
0.0
 11
-1.000000000000109
 21
1.732050807568826
 31
0.0
210
0.0
220
0.0
230
1.0
 40
0.5773502691896257
 41
3.926990816987002
 42
5.497787143781889
  0
LINE
  5
5E8C
330
5E6F
100
AcDbEntity
  8
0
100
AcDbLine
 10
59.12032330535739
 20
-43.43404061320818
 30
0.0
 11
59.12032330535739
 21
5.351630097223427
 31
0.0
  0
ELLIPSE
  5
5E8D
330
5E6F
100
AcDbEntity
  8
0
100
AcDbEllipse
 10
57.70610974298429
 20
-42.61754403228045
 30
0.0
 11
1.000000000000002
 21
-1.732050807568876
 31
0.0
210
0.0
220
0.0
230
1.0
 40
0.5773502691896255
 41
0.0
 42
0.7853981633974465
  0
LINE
  5
5E8E
330
5E6F
100
AcDbEntity
  8
0
100
AcDbLine
 10
38.9594238265183
 20
-8.498619927327307
 30
0.0
 11
34.75552968640755
 21
-8.03274030641457
 31
0.0
  0
ELLIPSE
  5
5E8F
330
5E6F
100
AcDbEntity
  8
0
100
AcDbEllipse
 10
28.00762493314929
 20
-14.04016369981003
 30
0.0
 11
1.250000000000001
 21
-2.165063509461095
 31
0.0
210
0.0
220
0.0
230
0.9999999999999998
 40
0.5773502691896258
 41
5.179224632232005
 42
5.269987807084227
  0
ELLIPSE
  5
5E90
330
5E6F
100
AcDbEntity
  8
0
100
AcDbEllipse
 10
35.07869274501477
 20
-26.28761241372592
 30
0.0
 11
1.250000000000129
 21
-2.165063509461019
 31
0.0
210
0.0
220
0.0
230
1.0
 40
0.5773502691896255
 41
4.154790153685038
 42
5.2699878070841
  0
LINE
  5
5E91
330
5E6F
100
AcDbEntity
  8
0
100
AcDbLine
 10
34.56105465480973
 20
-33.33722315135278
 30
0.0
 11
36.11396892542485
 21
-32.44064767918472
 31
0.0
  0
LINE
  5
5E92
330
5E6F
100
AcDbEntity
  8
0
100
AcDbLine
 10
56.99900296179776
 20
-44.65878548459976
 30
0.0
 11
59.12032330535739
 21
-43.43404061320818
 31
0.0
  0
LINE
  5
5E93
330
5E6F
100
AcDbEntity
  8
0
100
AcDbLine
 10
56.99900296179774
 20
4.126885225831841
 30
0.0
 11
59.12032330535739
 21
5.351630097223432
 31
0.0
  0
LINE
  5
5E94
330
5E6F
100
AcDbEntity
  8
0
100
AcDbLine
 10
55.58478939942465
 20
6.576374968615017
 30
0.0
 11
57.70610974298429
 21
7.801119840006607
 31
0.0
  0
ELLIPSE
  5
5E95
330
5E6F
100
AcDbEntity
  8
0
100
AcDbEllipse
 10
47.8066148063726
 20
56.17854225997439
 30
0.0
 11
1.250000000000129
 21
-2.165063509461017
 31
0.0
210
0.0
220
0.0
230
1.0
 40
0.5773502691896261
 41
4.154790153685031
 42
5.269987807084103
  0
ELLIPSE
  5
5E96
330
5E6F
100
AcDbEntity
  8
0
100
AcDbEllipse
 10
54.87768261823809
 20
60.26102516461301
 30
0.0
 11
1.250000000000133
 21
-2.165063509461022
 31
0.0
210
0.0
220
0.0
230
1.0
 40
0.577350269189626
 41
4.154790153685034
 42
5.269987807084108
  0
ELLIPSE
  5
5E97
330
5E6F
100
AcDbEntity
  8
0
100
AcDbEllipse
 10
40.73554699450713
 20
68.42599097389026
 30
0.0
 11
1.250000000000131
 21
-2.16506350946102
 31
0.0
210
0.0
220
0.0
230
1.0
 40
0.5773502691896259
 41
4.154790153685034
 42
5.269987807084108
  0
ELLIPSE
  5
5E98
330
5E6F
100
AcDbEntity
  8
0
100
AcDbEllipse
 10
18.10812999653758
 20
86.38891575430026
 30
0.0
 11
-0.999999999999998
 21
1.732050807568871
 31
0.0
210
0.0
220
0.0
230
1.0
 40
0.577350269189626
 41
5.49778714378213
 42
6.283185307179586
  0
LINE
  5
5E99
330
5E6F
100
AcDbEntity
  8
0
100
AcDbLine
 10
36.68237499836935
 20
77.29806356435407
 30
0.0
 11
18.1081299965376
 21
88.0219089161557
 31
0.0
  0
LINE
  5
5E9A
330
5E6F
100
AcDbEntity
  8
0
100
AcDbLine
 10
37.57895047053741
 20
74.98727452981291
 30
0.0
 11
36.68237499836935
 21
77.29806356435407
 31
0.0
  0
LINE
  5
5E9B
330
5E6F
100
AcDbEntity
  8
0
100
AcDbLine
 10
57.70610974298429
 20
65.16000465017936
 30
0.0
 11
39.13186474115254
 21
75.88385000198099
 31
0.0
  0
ELLIPSE
  5
5E9C
330
5E6F
100
AcDbEntity
  8
0
100
AcDbEllipse
 10
57.70610974298429
 20
63.52701148832391
 30
0.0
 11
-1.000000000000097
 21
1.732050807568802
 31
0.0
210
0.0
220
0.0
230
1.0
 40
0.5773502691896261
 41
3.926990816986997
 42
5.497787143781895
  0
LINE
  5
5E9D
330
5E6F
100
AcDbEntity
  8
0
100
AcDbLine
 10
59.12032330535737
 20
51.01828386851117
 30
0.0
 11
59.12032330535737
 21
62.71051490739619
 31
0.0
  0
ELLIPSE
  5
5E9E
330
5E6F
100
AcDbEntity
  8
0
100
AcDbEllipse
 10
57.70610974298428
 20
51.83478044943889
 30
0.0
 11
1.000000000000043
 21
-1.732050807568943
 31
0.0
210
0.0
220
0.0
230
1.0
 40
0.5773502691896259
 41
0.0
 42
0.7853981633974323
  0
ELLIPSE
  5
5E9F
330
5E6F
100
AcDbEntity
  8
0
100
AcDbEllipse
 10
34.19480926853157
 20
49.23785919490903
 30
0.0
 11
-1.125
 21
1.948557158514982
 31
0.0
210
0.0
220
0.0
230
1.0
 40
0.577350269189626
 41
5.881759579220894
 42
7.068583470577037
  0
LINE
  5
5EA0
330
5E6F
100
AcDbEntity
  8
0
100
AcDbLine
 10
56.11456312438781
 20
48.79008568103988
 30
0.0
 11
33.59881382794801
 21
51.28530282904238
 31
0.0
  0
ELLIPSE
  5
5EA1
330
5E6F
100
AcDbEntity
  8
0
100
AcDbEllipse
 10
55.58478939942464
 20
50.6100355780473
 30
0.0
 11
1.00000000000004
 21
-1.732050807568944
 31
0.0
210
0.0
220
0.0
230
1.0
 40
0.5773502691896259
 41
5.881759579220894
 42
7.068583470577033
  0
LINE
  5
5EA2
330
5E6F
100
AcDbEntity
  8
0
100
AcDbLine
 10
56.99900296179773
 20
61.48577003600461
 30
0.0
 11
56.99900296179773
 21
49.79353899711958
 31
0.0
  0
ELLIPSE
  5
5EA3
330
5E6F
100
AcDbEntity
  8
0
100
AcDbEllipse
 10
55.58478939942464
 20
62.30226661693233
 30
0.0
 11
0.9999999999998902
 21
-1.732050807568922
 31
0.0
210
0.0
220
0.0
230
1.0
 40
0.577350269189626
 41
0.7853981633976935
 42
2.356194490192592
  0
LINE
  5
5EA4
330
5E6F
100
AcDbEntity
  8
0
100
AcDbLine
 10
37.01054439759289
 20
74.65910513058938
 30
0.0
 11
55.58478939942464
 21
63.93525977878777
 31
0.0
  0
LINE
  5
5EA5
330
5E6F
100
AcDbEntity
  8
0
100
AcDbLine
 10
35.78579952620129
 20
72.91672216899276
 30
0.0
 11
37.01054439759289
 21
74.65910513058938
 31
0.0
  0
LINE
  5
5EA6
330
5E6F
100
AcDbEntity
  8
0
100
AcDbLine
 10
34.56105465480971
 20
76.07331869296249
 30
0.0
 11
35.78579952620129
 21
72.91672216899276
 31
0.0
  0
LINE
  5
5EA7
330
5E6F
100
AcDbEntity
  8
0
100
AcDbLine
 10
15.98680965297795
 20
86.79716404476412
 30
0.0
 11
34.56105465480971
 21
76.07331869296249
 31
0.0
  0
ELLIPSE
  5
5EA8
330
5E6F
100
AcDbEntity
  8
0
100
AcDbEllipse
 10
15.98680965297794
 20
85.16417088290868
 30
0.0
 11
-0.9999999999999978
 21
1.73205080756887
 31
0.0
210
0.0
220
0.0
230
1.0
 40
0.5773502691896259
 41
5.497787143782133
 42
7.068583470577036
  0
LINE
  5
5EA9
330
5E6F
100
AcDbEntity
  8
0
100
AcDbLine
 10
14.57259609060486
 20
45.05726898629825
 30
0.0
 11
14.57259609060485
 21
85.9806674638364
 31
0.0
  0
ELLIPSE
  5
5EAA
330
5E6F
100
AcDbEntity
  8
0
100
AcDbEllipse
 10
38.6142266509475
 20
67.20124610249867
 30
0.0
 11
-1.250000000000001
 21
2.165063509461095
 31
0.0
210
0.0
220
0.0
230
0.9999999999999998
 40
0.5773502691896259
 41
0.0
 42
6.283185307179586
  0
ELLIPSE
  5
5EAB
330
5E6F
100
AcDbEntity
  8
0
100
AcDbEllipse
 10
52.75636227467844
 20
59.03628029322142
 30
0.0
 11
-1.250000000000003
 21
2.165063509461097
 31
0.0
210
0.0
220
0.0
230
1.0
 40
0.5773502691896259
 41
0.0
 42
6.283185307179586
  0
ELLIPSE
  5
5EAC
330
5E6F
100
AcDbEntity
  8
0
100
AcDbEllipse
 10
45.68529446281297
 20
54.9537973885828
 30
0.0
 11
-1.25
 21
2.165063509461091
 31
0.0
210
0.0
220
0.0
230
1.0
 40
0.5773502691896262
 41
0.0
 42
6.283185307179586
  0
LINE
  5
5EAD
330
5E6F
100
AcDbEntity
  8
0
100
AcDbLine
 10
18.1081299965376
 20
88.0219089161557
 30
0.0
 11
15.98680965297795
 21
86.79716404476412
 31
0.0
  0
LINE
  5
5EAE
330
5E6F
100
AcDbEntity
  8
0
100
AcDbLine
 10
36.68237499836935
 20
77.29806356435407
 30
0.0
 11
34.56105465480971
 21
76.07331869296249
 31
0.0
  0
LINE
  5
5EAF
330
5E6F
100
AcDbEntity
  8
0
100
AcDbLine
 10
39.13186474115254
 20
75.88385000198099
 30
0.0
 11
37.01054439759289
 21
74.65910513058938
 31
0.0
  0
LINE
  5
5EB0
330
5E6F
100
AcDbEntity
  8
0
100
AcDbLine
 10
57.70610974298429
 20
65.16000465017936
 30
0.0
 11
55.58478939942464
 21
63.93525977878777
 31
0.0
  0
LINE
  5
5EB1
330
5E6F
100
AcDbEntity
  8
0
100
AcDbLine
 10
59.12032330535737
 20
62.71051490739619
 30
0.0
 11
56.99900296179773
 21
61.48577003600461
 31
0.0
  0
LINE
  5
5EB2
330
5E6F
100
AcDbEntity
  8
0
100
AcDbLine
 10
59.12032330535737
 20
51.01828386851117
 30
0.0
 11
56.99900296179773
 21
49.79353899711958
 31
0.0
  0
LINE
  5
5EB3
330
5E6F
100
AcDbEntity
  8
0
100
AcDbLine
 10
34.7251393544215
 20
-8.068804819355221
 30
0.0
 11
-10.88972288562217
 21
-55.68522758554187
 31
0.0
  0
LINE
  5
5EB4
330
5E6F
100
AcDbEntity
  8
0
100
AcDbLine
 10
-10.88972288562217
 20
-55.68522758554187
 30
0.0
 11
-35.43285384333542
 21
-69.85521085073385
 31
0.0
  0
ELLIPSE
  5
5EB5
330
5E6F
100
AcDbEntity
  8
0
100
AcDbEllipse
 10
-37.55417418689506
 20
-66.99747281748682
 30
0.0
 11
-0.9999999999999962
 21
-1.73205080756887
 31
0.0
210
0.0
220
0.0
230
1.0
 40
0.5773502691896255
 41
5.497787143782136
 42
6.283185307179588
  0
ELLIPSE
  5
5EB6
330
5E6F
100
AcDbEntity
  8
0
100
AcDbEllipse
 10
-35.43285384333542
 20
-68.22221768887842
 30
0.0
 11
-0.9999999999999964
 21
-1.732050807568872
 31
0.0
210
0.0
220
0.0
230
1.0
 40
0.5773502691896257
 41
5.497787143782134
 42
7.068583470577034
  0
LINE
  5
5EB7
330
5E6F
100
AcDbEntity
  8
0
100
AcDbLine
 10
-36.84706740570852
 20
-69.03871426980614
 30
0.0
 11
-38.96838774926815
 21
-67.81396939841454
 31
0.0
  0
LINE
  5
5EB8
330
5E6F
100
AcDbEntity
  8
0
100
AcDbLine
 10
-38.96838774926818
 20
21.18415792270761
 30
0.0
 11
-38.96838774926815
 21
-67.81396939841453
 31
0.0
  0
LINE
  5
5EB9
330
5E6F
100
AcDbEntity
  8
0
100
AcDbLine
 10
-36.84706740570852
 20
-69.03871426980614
 30
0.0
 11
-36.84706740570852
 21
19.959413051316
 31
0.0
  0
LINE
  5
5EBA
330
5E6F
100
AcDbEntity
  8
0
100
AcDbLine
 10
-36.84706740570852
 20
19.95941305131601
 30
0.0
 11
-38.96838774926818
 21
21.18415792270761
 31
0.0
  0
ELLIPSE
  5
5EBB
330
5E6F
100
AcDbEntity
  8
0
100
AcDbEllipse
 10
-37.55417418689508
 20
22.00065450363533
 30
0.0
 11
-0.999999999999893
 21
-1.73205080756893
 31
0.0
210
0.0
220
0.0
230
1.0
 40
0.5773502691896255
 41
3.926990816987
 42
5.497787143781893
  0
ELLIPSE
  5
5EBC
330
5E6F
100
AcDbEntity
  8
0
100
AcDbEllipse
 10
-35.43285384333543
 20
20.77590963224373
 30
0.0
 11
1.000000000000099
 21
1.732050807568811
 31
0.0
210
0.0
220
0.0
230
1.0
 40
0.5773502691896257
 41
0.785398163397689
 42
2.356194490192585
  0
LINE
  5
5EBD
330
5E6F
100
AcDbEntity
  8
0
100
AcDbLine
 10
-35.43285384333542
 20
22.40890279409919
 30
0.0
 11
-37.55417418689507
 21
23.63364766549079
 31
0.0
  0
LINE
  5
5EBE
330
5E6F
100
AcDbEntity
  8
0
100
AcDbLine
 10
-33.76114639306918
 20
25.8235532832999
 30
0.0
 11
-37.55417418689507
 21
23.63364766549079
 31
0.0
  0
LINE
  5
5EBF
330
5E6F
100
AcDbEntity
  8
0
100
AcDbLine
 10
-35.43285384333542
 20
22.40890279409919
 30
0.0
 11
-31.63982604950954
 21
24.59880841190831
 31
0.0
  0
LINE
  5
5EC0
330
5E6F
100
AcDbEntity
  8
0
100
AcDbLine
 10
-31.63982604950954
 20
24.59880841190831
 30
0.0
 11
-33.76114639306918
 21
25.8235532832999
 31
0.0
  0
ELLIPSE
  5
5EC1
330
5E6F
100
AcDbEntity
  8
0
100
AcDbEllipse
 10
-33.76114639306919
 20
24.19056012144444
 30
0.0
 11
0.9999999999999753
 21
1.732050807568835
 31
0.0
210
0.0
220
0.0
230
1.0
 40
0.5773502691896257
 41
0.000000000000002
 42
0.7853981633974519
  0
ELLIPSE
  5
5EC2
330
5E6F
100
AcDbEntity
  8
0
100
AcDbEllipse
 10
-31.63982604950954
 20
22.96581525005284
 30
0.0
 11
0.9999999999999751
 21
1.732050807568835
 31
0.0
210
0.0
220
0.0
230
1.0
 40
0.5773502691896255
 41
6.038839211900379
 42
7.068583470577034
  0
LINE
  5
5EC3
330
5E6F
100
AcDbEntity
  8
0
100
AcDbLine
 10
-30.42760842763387
 20
24.50674307478248
 30
0.0
 11
-28.71533942206323
 21
22.20477864886725
 31
0.0
  0
LINE
  5
5EC4
330
5E6F
100
AcDbEntity
  8
0
100
AcDbLine
 10
-28.71533942206323
 20
22.20477864886725
 30
0.0
 11
-28.71533942206323
 21
18.12229574422861
 31
0.0
  0
ELLIPSE
  5
5EC5
330
5E6F
100
AcDbEntity
  8
0
100
AcDbEllipse
 10
-28.18500933617331
 20
16.79548880022109
 30
0.0
 11
-3.124999999999997
 21
-5.412658773652743
 31
0.0
210
0.0
220
0.0
230
1.0
 40
0.5773502691896255
 41
0.3462909271588792
 42
0.7853981633974474
  0
ELLIPSE
  5
5EC6
330
5E6F
100
AcDbEntity
  8
0
100
AcDbEllipse
 10
-26.06368899261366
 20
15.5707439288295
 30
0.0
 11
-3.124999999999999
 21
-5.412658773652742
 31
0.0
210
0.0
220
0.0
230
1.0
 40
0.5773502691896257
 41
4.570491925780528
 42
7.068583470577034
  0
LINE
  5
5EC7
330
5E6F
100
AcDbEntity
  8
0
100
AcDbLine
 10
-26.06368899261366
 20
10.46764029803121
 30
0.0
 11
-28.1850093361733
 21
11.69238516942281
 31
0.0
  0
LINE
  5
5EC8
330
5E6F
100
AcDbEntity
  8
0
100
AcDbLine
 10
-26.06368899261367
 20
12.91713004081438
 30
0.0
 11
-28.1850093361733
 21
11.69238516942281
 31
0.0
  0
LINE
  5
5EC9
330
5E6F
100
AcDbEntity
  8
0
100
AcDbLine
 10
-26.06368899261366
 20
10.46764029803121
 30
0.0
 11
-23.94236864905404
 21
11.6923851694228
 31
0.0
  0
LINE
  5
5ECA
330
5E6F
100
AcDbEntity
  8
0
100
AcDbLine
 10
-23.94236864905404
 20
11.6923851694228
 30
0.0
 11
-26.06368899261367
 21
12.91713004081438
 31
0.0
  0
ELLIPSE
  5
5ECB
330
5E6F
100
AcDbEntity
  8
0
100
AcDbEllipse
 10
-26.06368899261369
 20
18.02023367161267
 30
0.0
 11
-3.125000000000321
 21
-5.412658773652556
 31
0.0
210
0.0
220
0.0
230
0.9999999999999998
 40
0.5773502691896255
 41
0.7853981633976899
 42
2.356194490192587
  0
ELLIPSE
  5
5ECC
330
5E6F
100
AcDbEntity
  8
0
100
AcDbEllipse
 10
-23.94236864905406
 20
16.79548880022109
 30
0.0
 11
3.124999999999674
 21
5.412658773652929
 31
0.0
210
0.0
220
0.0
230
1.0
 40
0.5773502691896255
 41
3.926990816986998
 42
5.497787143781895
  0
LINE
  5
5ECD
330
5E6F
100
AcDbEntity
  8
0
100
AcDbLine
 10
-19.52295126663812
 20
19.34704061562023
 30
0.0
 11
-21.64427161019775
 21
20.57178548701182
 31
0.0
  0
LINE
  5
5ECE
330
5E6F
100
AcDbEntity
  8
0
100
AcDbLine
 10
-21.64427161019775
 20
29.5532478772168
 30
0.0
 11
-21.64427161019775
 21
20.57178548701182
 31
0.0
  0
LINE
  5
5ECF
330
5E6F
100
AcDbEntity
  8
0
100
AcDbLine
 10
-19.52295126663812
 20
19.34704061562023
 30
0.0
 11
-19.5229512666381
 21
28.32850300582521
 31
0.0
  0
LINE
  5
5ED0
330
5E6F
100
AcDbEntity
  8
0
100
AcDbLine
 10
-19.5229512666381
 20
28.32850300582521
 30
0.0
 11
-21.64427161019775
 21
29.5532478772168
 31
0.0
  0
LINE
  5
5ED1
330
5E6F
100
AcDbEntity
  8
0
100
AcDbLine
 10
-19.60303015787843
 20
34.81424208383302
 30
0.0
 11
-21.64427161019775
 21
29.5532478772168
 31
0.0
  0
LINE
  5
5ED2
330
5E6F
100
AcDbEntity
  8
0
100
AcDbLine
 10
-19.5229512666381
 20
28.32850300582521
 30
0.0
 11
-17.4817098143188
 21
33.58949721244143
 31
0.0
  0
LINE
  5
5ED3
330
5E6F
100
AcDbEntity
  8
0
100
AcDbLine
 10
-17.4817098143188
 20
33.58949721244143
 30
0.0
 11
-19.60303015787843
 21
34.81424208383302
 31
0.0
  0
ELLIPSE
  5
5ED4
330
5E6F
100
AcDbEntity
  8
0
100
AcDbEllipse
 10
-18.37828528648683
 20
34.70485228409184
 30
0.0
 11
-0.9999999999998912
 21
-1.732050807568927
 31
0.0
210
0.0
220
0.0
230
1.0
 40
0.5773502691896255
 41
3.926990816987
 42
4.974188368183715
  0
ELLIPSE
  5
5ED5
330
5E6F
100
AcDbEntity
  8
0
100
AcDbEllipse
 10
-16.2569649429272
 20
33.48010741270027
 30
0.0
 11
0.9999999999999943
 21
1.732050807568868
 31
0.0
210
0.0
220
0.0
230
1.0
 40
0.5773502691896255
 41
0.7853981633974474
 42
1.832595714594045
  0
LINE
  5
5ED6
330
5E6F
100
AcDbEntity
  8
0
100
AcDbLine
 10
-16.25696494292719
 20
35.11310057455569
 30
0.0
 11
-18.37828528648683
 21
36.33784544594728
 31
0.0
  0
LINE
  5
5ED7
330
5E6F
100
AcDbEntity
  8
0
100
AcDbLine
 10
-8.145324529816292
 20
42.24584809341791
 30
0.0
 11
-18.37828528648683
 21
36.33784544594728
 31
0.0
  0
LINE
  5
5ED8
330
5E6F
100
AcDbEntity
  8
0
100
AcDbLine
 10
-16.25696494292719
 20
35.11310057455569
 30
0.0
 11
-6.024004186256664
 21
41.02110322202631
 31
0.0
  0
LINE
  5
5ED9
330
5E6F
100
AcDbEntity
  8
0
100
AcDbLine
 10
-6.024004186256664
 20
41.02110322202631
 30
0.0
 11
-8.145324529816292
 21
42.24584809341791
 31
0.0
  0
ELLIPSE
  5
5EDA
330
5E6F
100
AcDbEntity
  8
0
100
AcDbEllipse
 10
-8.145324529816292
 20
40.61285493156247
 30
0.0
 11
-0.9999999999997953
 21
-1.732050807568762
 31
0.0
210
0.0
220
0.0
230
1.0
 40
0.5773502691896257
 41
3.543018381548055
 42
3.926990816986905
  0
ELLIPSE
  5
5EDB
330
5E6F
100
AcDbEntity
  8
0
100
AcDbEllipse
 10
-6.024004186256664
 20
39.38811006017089
 30
0.0
 11
0.9999999999998983
 21
1.732050807568701
 31
0.0
210
0.0
220
0.0
230
1.0
 40
0.5773502691896258
 41
0.401425727958694
 42
0.7853981633974483
  0
LINE
  5
5EDC
330
5E6F
100
AcDbEntity
  8
0
100
AcDbLine
 10
-5.494230461293496
 20
41.2080599571783
 30
0.0
 11
-7.615550804853126
 21
42.43280482856988
 31
0.0
  0
LINE
  5
5EDD
330
5E6F
100
AcDbEntity
  8
0
100
AcDbLine
 10
-5.480366953199999
 20
42.66942797135936
 30
0.0
 11
-7.615550804853126
 21
42.43280482856988
 31
0.0
  0
LINE
  5
5EDE
330
5E6F
100
AcDbEntity
  8
0
100
AcDbLine
 10
-5.494230461293496
 20
41.2080599571783
 30
0.0
 11
-3.35904660964037
 21
41.44468309996777
 31
0.0
  0
LINE
  5
5EDF
330
5E6F
100
AcDbEntity
  8
0
100
AcDbLine
 10
-3.35904660964037
 20
41.44468309996777
 30
0.0
 11
-5.480366953199999
 21
42.66942797135936
 31
0.0
  0
ELLIPSE
  5
5EE0
330
5E6F
100
AcDbEntity
  8
0
100
AcDbEllipse
 10
-6.010140678163167
 20
40.84947807435192
 30
0.0
 11
1.000000000000026
 21
1.732050807568925
 31
0.0
210
0.0
220
0.0
230
1.0
 40
0.5773502691896254
 41
0.0
 42
0.4014257279586948
  0
ELLIPSE
  5
5EE1
330
5E6F
100
AcDbEntity
  8
0
100
AcDbEllipse
 10
-3.888820334603537
 20
39.62473320296034
 30
0.0
 11
1.000000000000026
 21
1.732050807568924
 31
0.0
210
0.0
220
0.0
230
1.0
 40
0.5773502691896257
 41
6.021385919380431
 42
6.684611035138283
  0
LINE
  5
5EE2
330
5E6F
100
AcDbEntity
  8
0
100
AcDbLine
 10
-2.664075463211941
 20
41.1483365650746
 30
0.0
 11
-1.84528173697442
 21
39.98347989085356
 31
0.0
  0
LINE
  5
5EE3
330
5E6F
100
AcDbEntity
  8
0
100
AcDbLine
 10
-1.84528173697442
 20
39.98347989085356
 30
0.0
 11
-1.84528173697442
 21
37.09654363074684
 31
0.0
  0
ELLIPSE
  5
5EE4
330
5E6F
100
AcDbEntity
  8
0
100
AcDbEllipse
 10
-1.668505041677774
 20
37.41202746864618
 30
0.0
 11
-2.124999999999996
 21
-3.680607966083862
 31
0.0
210
0.0
220
0.0
230
1.0
 40
0.5773502691896253
 41
0.5225993223155161
 42
0.7853981633974483
  0
ELLIPSE
  5
5EE5
330
5E6F
100
AcDbEntity
  8
0
100
AcDbEllipse
 10
0.4528153018818593
 20
36.1872825972546
 30
0.0
 11
-2.124999999999996
 21
-3.680607966083861
 31
0.0
210
0.0
220
0.0
230
1.0
 40
0.5773502691896258
 41
4.797575588247844
 42
7.068583470577034
  0
LINE
  5
5EE6
330
5E6F
100
AcDbEntity
  8
0
100
AcDbLine
 10
0.4528153018818637
 20
32.71717212831176
 30
0.0
 11
-1.66850504167777
 21
33.94191699970334
 31
0.0
  0
LINE
  5
5EE7
330
5E6F
100
AcDbEntity
  8
0
100
AcDbLine
 10
-0.60784486989796
 20
34.55428943539915
 30
0.0
 11
-1.66850504167777
 21
33.94191699970334
 31
0.0
  0
LINE
  5
5EE8
330
5E6F
100
AcDbEntity
  8
0
100
AcDbLine
 10
0.4528153018818637
 20
32.71717212831176
 30
0.0
 11
1.513475473661687
 21
33.32954456400756
 31
0.0
  0
LINE
  5
5EE9
330
5E6F
100
AcDbEntity
  8
0
100
AcDbLine
 10
1.513475473661687
 20
33.32954456400756
 30
0.0
 11
-0.60784486989796
 21
34.55428943539915
 31
0.0
  0
ELLIPSE
  5
5EEA
330
5E6F
100
AcDbEntity
  8
0
100
AcDbEllipse
 10
-0.6078448698979644
 20
38.02439990434198
 30
0.0
 11
-2.125000000000222
 21
-3.680607966083745
 31
0.0
210
0.0
220
0.0
230
1.0
 40
0.5773502691896257
 41
0.7853981633976881
 42
2.356194490192583
  0
ELLIPSE
  5
5EEB
330
5E6F
100
AcDbEntity
  8
0
100
AcDbEllipse
 10
1.513475473661682
 20
36.79965503295039
 30
0.0
 11
2.124999999999782
 21
3.680607966083998
 31
0.0
210
0.0
220
0.0
230
1.0
 40
0.5773502691896255
 41
3.926990816986998
 42
5.497787143781895
  0
LINE
  5
5EEC
330
5E6F
100
AcDbEntity
  8
0
100
AcDbLine
 10
4.518679293704512
 20
38.53471026742181
 30
0.0
 11
2.397358950144865
 21
39.75945513881341
 31
0.0
  0
LINE
  5
5EED
330
5E6F
100
AcDbEntity
  8
0
100
AcDbLine
 10
2.397358950144852
 20
41.28698548864422
 30
0.0
 11
2.397358950144865
 21
39.75945513881341
 31
0.0
  0
LINE
  5
5EEE
330
5E6F
100
AcDbEntity
  8
0
100
AcDbLine
 10
4.518679293704512
 20
38.53471026742181
 30
0.0
 11
4.518679293704499
 21
40.06224061725262
 31
0.0
  0
LINE
  5
5EEF
330
5E6F
100
AcDbEntity
  8
0
100
AcDbLine
 10
4.518679293704499
 20
40.06224061725262
 30
0.0
 11
2.397358950144852
 21
41.28698548864422
 31
0.0
  0
ELLIPSE
  5
5EF0
330
5E6F
100
AcDbEntity
  8
0
100
AcDbEllipse
 10
3.811572512517957
 20
42.10348206957196
 30
0.0
 11
-0.9999999999998982
 21
-1.732050807568939
 31
0.0
210
0.0
220
0.0
230
1.0
 40
0.5773502691896255
 41
3.54301838154806
 42
5.497787143781803
  0
ELLIPSE
  5
5EF1
330
5E6F
100
AcDbEntity
  8
0
100
AcDbEllipse
 10
5.932892856077605
 20
40.87873719818035
 30
0.0
 11
1.000000000000103
 21
1.732050807568819
 31
0.0
210
0.0
220
0.0
230
1.0
 40
0.5773502691896255
 41
0.401425727959035
 42
2.356194490192587
  0
LINE
  5
5EF2
330
5E6F
100
AcDbEntity
  8
0
100
AcDbLine
 10
6.462666581040772
 20
42.69868709518781
 30
0.0
 11
4.341346237481125
 21
43.92343196657939
 31
0.0
  0
LINE
  5
5EF3
330
5E6F
100
AcDbEntity
  8
0
100
AcDbLine
 10
32.60381901086184
 20
47.05550657713851
 30
0.0
 11
4.341346237481125
 21
43.92343196657939
 31
0.0
  0
LINE
  5
5EF4
330
5E6F
100
AcDbEntity
  8
0
100
AcDbLine
 10
6.462666581040772
 20
42.69868709518781
 30
0.0
 11
34.72513935442149
 21
45.83076170574692
 31
0.0
  0
ELLIPSE
  5
5EF5
330
5E6F
100
AcDbEntity
  8
0
100
AcDbEllipse
 10
35.63137766591259
 20
18.53054403469253
 30
0.0
 11
-1.125000000000001
 21
-1.948557158514991
 31
0.0
210
0.0
220
0.0
230
1.0
 40
0.5773502691896258
 41
4.533017772515785
 42
6.462556515048492
  0
LINE
  5
5EF6
330
5E6F
100
AcDbEntity
  8
0
100
AcDbLine
 10
56.58478939942465
 20
-45.5743397112409
 30
0.0
 11
58.70610974298431
 21
-44.34959483984932
 31
0.0
  0
LINE
  5
5EF7
330
5E6F
100
AcDbEntity
  8
0
100
AcDbLine
 10
17.10812999653758
 20
88.12096656186913
 30
0.0
 11
14.98680965297794
 21
86.89622169047755
 31
0.0
  0
LINE
  5
5EF8
330
5E6F
100
AcDbEntity
  8
0
100
AcDbLine
 10
58.70610974298433
 20
50.10272964186995
 30
0.0
 11
56.58478939942468
 21
48.87798477047836
 31
0.0
  0
LINE
  5
5EF9
330
5E6F
100
AcDbEntity
  8
0
100
AcDbLine
 10
-36.43285384333543
 20
-69.95426849644729
 30
0.0
 11
-38.55417418689506
 21
-68.72952362505571
 31
0.0
  0
LINE
  5
5EFA
330
5E6F
100
AcDbEntity
  8
0
100
AcDbLine
 10
-30.63982604950958
 20
24.69786605762167
 30
0.0
 11
-32.76114639306923
 21
25.92261092901326
 31
0.0
  0
LINE
  5
5EFB
330
5E6F
100
AcDbEntity
  8
0
100
AcDbLine
 10
-2.888820334603505
 20
41.35678401052927
 30
0.0
 11
-5.010140678163135
 21
42.58152888192085
 31
0.0
  0
ELLIPSE
  5
5EFC
330
5E6F
100
AcDbEntity
  8
0
100
AcDbEllipse
 10
52.75636227467846
 20
-6.283446180996667
 30
0.0
 11
1.250000000000001
 21
-2.165063509461097
 31
0.0
210
0.0
220
0.0
230
1.0
 40
0.5773502691896257
 41
0.0
 42
6.283185307179586
  0
ELLIPSE
  5
5EFD
330
5E6F
100
AcDbEntity
  8
0
100
AcDbEllipse
 10
45.68529446281297
 20
5.964002532919221
 30
0.0
 11
1.250000000000002
 21
-2.165063509461097
 31
0.0
210
0.0
220
0.0
230
0.9999999999999998
 40
0.5773502691896257
 41
0.0
 42
6.283185307179586
  0
ELLIPSE
  5
5EFE
330
5E6F
100
AcDbEntity
  8
0
100
AcDbEllipse
 10
47.80661480637262
 20
7.188747404310813
 30
0.0
 11
1.250000000000131
 21
-2.165063509461023
 31
0.0
210
0.0
220
0.0
230
0.9999999999999998
 40
0.5773502691896257
 41
4.154790153685032
 42
5.269987807084108
  0
ELLIPSE
  5
5EFF
330
5E6F
100
AcDbEntity
  8
0
100
AcDbEllipse
 10
54.8776826182381
 20
-5.058701309605075
 30
0.0
 11
1.250000000000131
 21
-2.165063509461023
 31
0.0
210
0.0
220
0.0
230
1.0
 40
0.5773502691896254
 41
4.154790153685031
 42
5.269987807084108
  0
ELLIPSE
  5
5F00
330
5E6F
100
AcDbEntity
  8
0
100
AcDbEllipse
 10
20.93655712128378
 20
79.85694310687844
 30
0.0
 11
1.250000000000131
 21
-2.165063509461021
 31
0.0
210
0.0
220
0.0
230
1.0
 40
0.577350269189626
 41
4.154790153685027
 42
5.269987807084108
  0
ELLIPSE
  5
5F01
330
5E6F
100
AcDbEntity
  8
0
100
AcDbEllipse
 10
28.00762493314927
 20
67.60949439296256
 30
0.0
 11
1.250000000000133
 21
-2.165063509461025
 31
0.0
210
0.0
220
0.0
230
1.0
 40
0.577350269189626
 41
4.154790153685031
 42
5.269987807084106
  0
ELLIPSE
  5
5F02
330
5E6F
100
AcDbEntity
  8
0
100
AcDbEllipse
 10
25.88630458958963
 20
66.38474952157096
 30
0.0
 11
-1.250000000000004
 21
2.165063509461099
 31
0.0
210
0.0
220
0.0
230
0.9999999999999998
 40
0.577350269189626
 41
0.0
 42
6.283185307179586
  0
ELLIPSE
  5
5F03
330
5E6F
100
AcDbEntity
  8
0
100
AcDbEllipse
 10
18.81523677772414
 20
78.63219823548686
 30
0.0
 11
-1.250000000000002
 21
2.165063509461095
 31
0.0
210
0.0
220
0.0
230
1.0
 40
0.577350269189626
 41
0.0
 42
6.283185307179586
  0
ELLIPSE
  5
5F04
330
5E6F
100
AcDbEntity
  8
0
100
AcDbEllipse
 10
52.75636227467845
 20
-22.61337779955117
 30
0.0
 11
1.250000000000001
 21
-2.165063509461097
 31
0.0
210
0.0
220
0.0
230
1.0
 40
0.5773502691896257
 41
0.0
 42
6.283185307179586
  0
ELLIPSE
  5
5F05
330
5E6F
100
AcDbEntity
  8
0
100
AcDbEllipse
 10
45.68529446281298
 20
-10.36592908563529
 30
0.0
 11
1.250000000000002
 21
-2.165063509461097
 31
0.0
210
0.0
220
0.0
230
0.9999999999999998
 40
0.5773502691896257
 41
0.0
 42
6.283185307179586
  0
ELLIPSE
  5
5F06
330
5E6F
100
AcDbEntity
  8
0
100
AcDbEllipse
 10
52.75636227467846
 20
-38.94330941810569
 30
0.0
 11
1.250000000000001
 21
-2.165063509461097
 31
0.0
210
0.0
220
0.0
230
1.0
 40
0.5773502691896257
 41
0.0
 42
6.283185307179586
  0
ELLIPSE
  5
5F07
330
5E6F
100
AcDbEntity
  8
0
100
AcDbEllipse
 10
45.68529446281298
 20
-26.6958607041898
 30
0.0
 11
1.250000000000002
 21
-2.165063509461097
 31
0.0
210
0.0
220
0.0
230
0.9999999999999998
 40
0.5773502691896257
 41
0.0
 42
6.283185307179586
  0
ELLIPSE
  5
5F08
330
5E6F
100
AcDbEntity
  8
0
100
AcDbEllipse
 10
47.80661480637262
 20
-25.47111583279821
 30
0.0
 11
1.250000000000132
 21
-2.165063509461023
 31
0.0
210
0.0
220
0.0
230
0.9999999999999996
 40
0.5773502691896257
 41
4.154790153685034
 42
5.269987807084108
  0
ELLIPSE
  5
5F09
330
5E6F
100
AcDbEntity
  8
0
100
AcDbEllipse
 10
54.8776826182381
 20
-37.71856454671409
 30
0.0
 11
1.250000000000131
 21
-2.165063509461023
 31
0.0
210
0.0
220
0.0
230
0.9999999999999998
 40
0.5773502691896257
 41
4.154790153685034
 42
5.269987807084108
  0
ELLIPSE
  5
5F0A
330
5E6F
100
AcDbEntity
  8
0
100
AcDbEllipse
 10
47.80661480637263
 20
-9.141184214243697
 30
0.0
 11
1.250000000000132
 21
-2.165063509461023
 31
0.0
210
0.0
220
0.0
230
0.9999999999999996
 40
0.5773502691896257
 41
4.154790153685032
 42
5.269987807084107
  0
ELLIPSE
  5
5F0B
330
5E6F
100
AcDbEntity
  8
0
100
AcDbEllipse
 10
54.87768261823809
 20
-21.38863292815958
 30
0.0
 11
1.250000000000131
 21
-2.165063509461023
 31
0.0
210
0.0
220
0.0
230
0.9999999999999998
 40
0.5773502691896257
 41
4.154790153685034
 42
5.269987807084108
  0
ELLIPSE
  5
5F0C
330
5E6F
100
AcDbEntity
  8
0
100
AcDbEllipse
 10
20.93655712128379
 20
47.19707986976941
 30
0.0
 11
1.250000000000131
 21
-2.165063509461021
 31
0.0
210
0.0
220
0.0
230
0.9999999999999998
 40
0.577350269189626
 41
4.154790153685031
 42
5.112580607484778
  0
ELLIPSE
  5
5F0D
330
5E6F
100
AcDbEntity
  8
0
100
AcDbEllipse
 10
20.93655712128378
 20
63.52701148832392
 30
0.0
 11
1.250000000000131
 21
-2.165063509461021
 31
0.0
210
0.0
220
0.0
230
1.0
 40
0.577350269189626
 41
4.154790153685031
 42
5.269987807084111
  0
ELLIPSE
  5
5F0E
330
5E6F
100
AcDbEntity
  8
0
100
AcDbEllipse
 10
28.00762493314927
 20
51.27956277440803
 30
0.0
 11
1.250000000000132
 21
-2.165063509461023
 31
0.0
210
0.0
220
0.0
230
0.9999999999999998
 40
0.577350269189626
 41
4.154790153685031
 42
5.269987807084111
  0
ELLIPSE
  5
5F0F
330
5E6F
100
AcDbEntity
  8
0
100
AcDbEllipse
 10
25.88630458958963
 20
50.05481790301645
 30
0.0
 11
-1.250000000000004
 21
2.165063509461099
 31
0.0
210
0.0
220
0.0
230
0.9999999999999998
 40
0.577350269189626
 41
0.0
 42
6.283185307179586
  0
ELLIPSE
  5
5F10
330
5E6F
100
AcDbEntity
  8
0
100
AcDbEllipse
 10
18.81523677772414
 20
62.30226661693233
 30
0.0
 11
-1.250000000000002
 21
2.165063509461095
 31
0.0
210
0.0
220
0.0
230
1.0
 40
0.577350269189626
 41
0.0
 42
6.283185307179586
  0
ELLIPSE
  5
5F11
330
5E6F
100
AcDbEntity
  8
0
100
AcDbEllipse
 10
18.81523677772415
 20
45.97233499837781
 30
0.0
 11
-1.250000000000002
 21
2.165063509461095
 31
0.0
210
0.0
220
0.0
230
1.0
 40
0.577350269189626
 41
4.276109232815027
 42
7.794372616430637
  0
LINE
  5
5F12
330
5E6F
100
AcDbEntity
  8
0
100
AcDbLine
 10
32.60381901086184
 20
47.0555065771385
 30
0.0
 11
32.60381901086184
 21
50.15641784845272
 31
0.0
  0
LINE
  5
5F13
330
5E6F
100
AcDbEntity
  8
0
100
AcDbLine
 10
32.60381901086184
 20
50.15641784845272
 30
0.0
 11
34.40446280683318
 21
51.1960200287714
 31
0.0
  0
LINE
  5
5F14
330
5E6F
100
AcDbEntity
  8
0
100
AcDbLine
 10
34.72513935442149
 20
45.83076170574692
 30
0.0
 11
33.31024630098934
 21
46.64765059102051
 31
0.0
  0
LINE
  5
5F15
330
5E6F
100
AcDbEntity
  8
0
100
AcDbLine
 10
33.31024630098934
 20
46.64765059102051
 30
0.0
 11
32.60381901086184
 21
47.05550657713851
 31
0.0
  0
SPLINE
  5
5F16
330
5E6F
100
AcDbEntity
  8
0
100
AcDbSpline
210
0.0
220
0.0
230
1.0
 70
     8
 71
     3
 72
    10
 73
     6
 74
     0
 42
0.000000001
 43
0.0000000001
 40
0.0
 40
0.0
 40
0.0
 40
0.0
 40
0.0507000194424427
 40
0.0507000194424427
 40
0.0861016273554008
 40
0.0861016273554008
 40
0.0861016273554008
 40
0.0861016273554008
 10
34.7251393544215
 20
19.51728609565382
 30
0.0
 10
34.83369672688274
 20
19.63764832354579
 30
0.0
 10
35.06661933508453
 20
19.88818501227503
 30
0.0
 10
35.52664067780121
 20
20.38302879533124
 30
0.0
 10
35.69833299485047
 20
20.57123868391139
 30
0.0
 10
35.84565831157421
 20
20.74081700306412
 30
0.0
  0
ELLIPSE
  5
5F17
330
5E6F
100
AcDbEntity
  8
0
100
AcDbEllipse
 10
30.4824986673022
 20
22.29393415147377
 30
0.0
 11
6.000000000000001
 21
0.0000000000002243
 31
0.0
210
0.0
220
0.0
230
1.0
 40
0.5773502691896525
 41
5.818270892432478
 42
6.283185307179564
  0
SPLINE
  5
5F18
330
5E6F
100
AcDbEntity
  8
0
100
AcDbSpline
210
0.0
220
0.0
230
1.0
 70
     8
 71
     3
 72
    20
 73
    16
 74
     0
 42
0.000000001
 43
0.0000000001
 40
0.022433278837356
 40
0.022433278837356
 40
0.022433278837356
 40
0.022433278837356
 40
0.0405976442383458
 40
0.0405976442383458
 40
0.0716043848047081
 40
0.0716043848047081
 40
0.1028570667671033
 40
0.1028570667671033
 40
0.1477895630004486
 40
0.1477895630004486
 40
0.2029079031391208
 40
0.2029079031391208
 40
0.2338286432514404
 40
0.2338286432514404
 40
0.2734021259558201
 40
0.2734021259558201
 40
0.2734021259558201
 40
0.2734021259558201
 10
34.7412741265795
 20
51.158746649591
 30
0.0
 10
34.75109843772142
 20
51.08808762420403
 30
0.0
 10
34.76622587679579
 20
51.00881054169789
 30
0.0
 10
34.82728160429924
 20
50.77079787604327
 30
0.0
 10
34.88810795088364
 20
50.59367330702999
 30
0.0
 10
35.07046553895816
 20
50.18159675424326
 30
0.0
 10
35.17698191779017
 20
49.97918579872916
 30
0.0
 10
35.44264628372476
 20
49.50393667072262
 30
0.0
 10
35.6148124840038
 20
49.2213390739382
 30
0.0
 10
35.98029956813769
 20
48.5973759982169
 30
0.0
 10
36.15101040305638
 20
48.28499160223209
 30
0.0
 10
36.33856746325254
 20
47.85781340143876
 30
0.0
 10
36.39019467943251
 20
47.71726790142626
 30
0.0
 10
36.47026076476394
 20
47.43294957303991
 30
0.0
 10
36.48000732263236
 20
47.33161327544936
 30
0.0
 10
36.48206749271761
 20
47.26985621245178
 30
0.0
  0
SPLINE
  5
5F19
330
5E6F
100
AcDbEntity
  8
0
100
AcDbSpline
210
0.0
220
0.0
230
1.0
 70
     8
 71
     3
 72
    12
 73
     8
 74
     0
 42
0.000000001
 43
0.0000000001
 40
0.0
 40
0.0
 40
0.0
 40
0.0
 40
0.1239712457412893
 40
0.1239712457412893
 40
0.3101197498474652
 40
0.3101197498474652
 40
0.4962683327629611
 40
0.4962683327629611
 40
0.4962683327629611
 40
0.4962683327629611
 10
36.48206749271761
 20
47.26985621245183
 30
0.0
 10
36.48685110704355
 20
47.12723039685896
 30
0.0
 10
36.45182082146179
 20
46.9846831574409
 30
0.0
 10
36.26589682731129
 20
46.63793960176433
 30
0.0
 10
36.06674817533143
 20
46.44063465124133
 30
0.0
 10
35.50662843589944
 20
46.09249518164351
 30
0.0
 10
35.148803569482
 20
45.94362811613327
 30
0.0
 10
34.72513935442149
 20
45.83076170574693
 30
0.0
  0
LINE
  5
5F1A
330
5E6F
100
AcDbEntity
  8
0
100
AcDbLine
 10
34.7251393544215
 20
19.51728609565382
 30
0.0
 11
34.72513935442149
 21
45.83076170574692
 31
0.0
  0
SPLINE
  5
5F1B
330
5E6F
100
AcDbEntity
  8
0
100
AcDbSpline
210
0.0
220
0.0
230
1.0
 70
     8
 71
     3
 72
    10
 73
     6
 74
     0
 42
0.000000001
 43
0.0000000001
 40
0.0
 40
0.0
 40
0.0
 40
0.0
 40
0.1362998422634597
 40
0.1362998422634597
 40
0.2725996852924406
 40
0.2725996852924406
 40
0.2725996852924406
 40
0.2725996852924406
 10
32.60381901086184
 20
47.05550657713851
 30
0.0
 10
32.88666788427703
 20
47.04290923312465
 30
0.0
 10
33.11011025046043
 20
47.06307387947783
 30
0.0
 10
33.41182812420959
 20
47.13905868165659
 30
0.0
 10
33.48707851050272
 20
47.19406351684564
 30
0.0
 10
33.48228308000992
 20
47.24909184171814
 30
0.0
  0
SPLINE
  5
5F1C
330
5E6F
100
AcDbEntity
  8
0
100
AcDbSpline
210
0.0
220
0.0
230
1.0
 70
     8
 71
     3
 72
    20
 73
    16
 74
     0
 42
0.000000001
 43
0.0000000001
 40
0.0
 40
0.0
 40
0.0
 40
0.0
 40
0.0292038487375118
 40
0.0292038487375118
 40
0.1061564375241149
 40
0.1061564375241149
 40
0.2088926109145357
 40
0.2088926109145357
 40
0.3299865151909042
 40
0.3299865151909042
 40
0.4924973235132071
 40
0.4924973235132071
 40
0.5936467900789474
 40
0.5936467900789474
 40
0.7611251631567433
 40
0.7611251631567433
 40
0.7611251631567433
 40
0.7611251631567433
 10
33.4822830800099
 20
47.24909184171814
 30
0.0
 10
33.4812541749329
 20
47.26113214152987
 30
0.0
 10
33.47673350656426
 20
47.28006574865692
 30
0.0
 10
33.45336927194266
 20
47.36082895431789
 30
0.0
 10
33.42119748777317
 20
47.44577843114327
 30
0.0
 10
33.3549570705944
 20
47.61048046454987
 30
0.0
 10
33.30625691362139
 20
47.72361394116791
 30
0.0
 10
33.18564038620147
 20
48.00033413671164
 30
0.0
 10
33.11365845826985
 20
48.16408482294715
 30
0.0
 10
32.94949294450232
 20
48.56225208030402
 30
0.0
 10
32.8559042369796
 20
48.80854750684282
 30
0.0
 10
32.73206185146256
 20
49.22601039000713
 30
0.0
 10
32.6930392005847
 20
49.38469191456213
 30
0.0
 10
32.61646896037117
 20
49.79562971896216
 30
0.0
 10
32.60380243855209
 20
50.00549084052025
 30
0.0
 10
32.60381901086185
 20
50.15641784845271
 30
0.0
  0
LINE
  5
5F1D
330
5E6F
100
AcDbEntity
  8
0
100
AcDbLine
 10
33.4822830800099
 20
47.24909184171815
 30
0.0
 11
36.48206749271761
 21
47.2698562124518
 31
0.0
  0
LINE
  5
5F1E
330
5E6F
100
AcDbEntity
  8
0
100
AcDbLine
 10
36.4824986673022
 20
22.29393415147386
 30
0.0
 11
36.4824986673022
 21
47.24414311843661
 31
0.0
  0
ELLIPSE
  5
5F1F
330
5E6F
100
AcDbEntity
  8
0
100
AcDbEllipse
 10
-24.67027268851078
 20
-15.4441188437634
 30
0.0
 11
5.377621075780825
 21
9.314312927105595
 31
0.0
210
0.0
220
0.0
230
1.0
 40
0.5773502691896255
 41
2.816385777593057
 42
6.608392183176321
  0
ELLIPSE
  5
5F20
330
5E6F
100
AcDbEntity
  8
0
100
AcDbEllipse
 10
-23.94236864905403
 20
-15.86437443688797
 30
0.0
 11
-6.174999999999997
 21
-10.69541373673782
 31
0.0
210
0.0
220
0.0
230
1.0
 40
0.5773502691896257
 41
0.0
 42
6.283185307179586
  0
ELLIPSE
  5
5F21
330
5E6F
100
AcDbEntity
  8
0
100
AcDbEllipse
 10
-25.7101356020204
 20
-14.84375371072831
 30
0.0
 11
4.238508326896292
 21
7.34131177048814
 31
0.0
210
0.0
220
0.0
230
0.9999999999999998
 40
0.5773502691896257
 41
2.013279936772313
 42
7.411498023997078
  0
ELLIPSE
  5
5F22
330
5E6F
100
AcDbEntity
  8
0
100
AcDbEllipse
 10
-25.7101356020204
 20
-14.84375371072831
 30
0.0
 11
3.125000000000003
 21
5.412658773652752
 31
0.0
210
0.0
220
0.0
230
1.0
 40
0.5773502691896255
 41
0.0
 42
6.283185307179586
  0
ELLIPSE
  5
5F23
330
5E6F
100
AcDbEntity
  8
0
100
AcDbEllipse
 10
-27.83145594558004
 20
-13.61900883933672
 30
0.0
 11
3.125000000000002
 21
5.41265877365275
 31
0.0
210
0.0
220
0.0
230
1.0
 40
0.5773502691896258
 41
3.48788358074867
 42
5.936894380020707
  0
SPLINE
  5
5F24
330
5E6F
100
AcDbEntity
  8
0
100
AcDbSpline
210
0.0
220
0.0
230
1.0
 70
     8
 71
     3
 72
    24
 73
    20
 74
     0
 42
0.000000001
 43
0.0000000001
 40
2.681401366189067
 40
2.681401366189067
 40
2.681401366189067
 40
2.681401366189067
 40
3.014345191289614
 40
3.014345191289614
 40
3.307025466620229
 40
3.307025466620229
 40
3.602050720617995
 40
3.602050720617995
 40
3.90185255593128
 40
3.90185255593128
 40
4.203660984601154
 40
4.203660984601154
 40
4.504012971344563
 40
4.504012971344563
 40
4.799817405389992
 40
4.799817405389992
 40
5.092108631578061
 40
5.092108631578061
 40
5.172580267785415
 40
5.172580267785415
 40
5.172580267785415
 40
5.172580267785415
 10
-31.48419974892584
 20
-23.27822947981932
 30
0.0
 10
-31.77615610358252
 20
-22.76667964994091
 30
0.0
 10
-32.00372854216733
 20
-22.07296381475722
 30
0.0
 10
-32.19233748730511
 20
-20.47958268320834
 30
0.0
 10
-32.18220156571733
 20
-19.61913815765013
 30
0.0
 10
-31.9342591475664
 20
-17.76119782002044
 30
0.0
 10
-31.6952434323828
 20
-16.76334920005918
 30
0.0
 10
-30.99579133609358
 20
-14.73124189261173
 30
0.0
 10
-30.53213661500948
 20
-13.69692326157331
 30
0.0
 10
-29.42413062573765
 20
-11.71180308574156
 30
0.0
 10
-28.77874634731614
 20
-10.76188374623936
 30
0.0
 10
-27.38307856364653
 20
-9.05733359484814
 30
0.0
 10
-26.63338907382706
 20
-8.302177677957383
 30
0.0
 10
-25.12910212083041
 20
-7.066396578837479
 30
0.0
 10
-24.37496808449616
 20
-6.58257606134279
 30
0.0
 10
-22.96340166983016
 20
-5.9104747906294
 30
0.0
 10
-22.30693501876471
 20
-5.719924136951202
 30
0.0
 10
-21.58438821437701
 20
-5.635730451036491
 30
0.0
 10
-21.43505551062125
 20
-5.626738561477102
 30
0.0
 10
-21.29269739183603
 20
-5.626029591881769
 30
0.0
  0
ELLIPSE
  5
5F25
330
5E6F
100
AcDbEntity
  8
0
100
AcDbEllipse
 10
2.241379513118419
 20
3.719536202716762
 30
0.0
 11
4.377621075780823
 21
7.58226211953672
 31
0.0
210
0.0
220
0.0
230
0.9999999999999998
 40
0.5773502691896255
 41
5.95797843118285
 42
9.749984836766113
  0
ELLIPSE
  5
5F26
330
5E6F
100
AcDbEntity
  8
0
100
AcDbEllipse
 10
3.281242426628043
 20
3.119171069681674
 30
0.0
 11
3.238508326896294
 21
5.60926096291926
 31
0.0
210
0.0
220
0.0
230
1.0
 40
0.5773502691896255
 41
0.0
 42
6.283185307179586
  0
ELLIPSE
  5
5F27
330
5E6F
100
AcDbEntity
  8
0
100
AcDbEllipse
 10
3.281242426628043
 20
3.119171069681674
 30
0.0
 11
2.125000000000002
 21
3.68060796608387
 31
0.0
210
0.0
220
0.0
230
0.9999999999999998
 40
0.5773502691896255
 41
0.0
 42
6.283185307179586
  0
ELLIPSE
  5
5F28
330
5E6F
100
AcDbEntity
  8
0
100
AcDbEllipse
 10
1.159922083068409
 20
4.343915941073257
 30
0.0
 11
2.124999999999783
 21
3.680607966083997
 31
0.0
210
0.0
220
0.0
230
1.0
 40
0.5773502691896257
 41
3.664191975904929
 42
5.760585984863692
  0
ELLIPSE
  5
5F29
330
5E6F
100
AcDbEntity
  8
0
100
AcDbEllipse
 10
1.513475473661678
 20
4.139791795841332
 30
0.0
 11
-5.174999999999998
 21
-8.963362929168942
 31
0.0
210
0.0
220
0.0
230
1.0
 40
0.5773502691896255
 41
2.075523923473492
 42
7.349254037295889
  0
SPLINE
  5
5F2A
330
5E6F
100
AcDbEntity
  8
0
100
AcDbSpline
210
0.0
220
0.0
230
1.0
 70
     8
 71
     3
 72
    22
 73
    18
 74
     0
 42
0.000000001
 43
0.0000000001
 40
5.822994019778872
 40
5.822994019778872
 40
5.822994019778872
 40
5.822994019778872
 40
6.088087961568489
 40
6.088087961568489
 40
6.421273080242093
 40
6.421273080242093
 40
6.789766923390131
 40
6.789766923390131
 40
7.154709371790278
 40
7.154709371790278
 40
7.517479361661496
 40
7.517479361661496
 40
7.885319521951044
 40
7.885319521951044
 40
8.244512209762332
 40
8.244512209762332
 40
8.314172921375195
 40
8.314172921375195
 40
8.314172921375195
 40
8.314172921375195
 10
7.788217099508858
 20
10.09684827939878
 30
0.0
 10
8.125459629566925
 20
9.505950509484364
 30
0.0
 10
8.340105377809186
 20
8.870750950815562
 30
0.0
 10
8.616642616216939
 20
7.414519099956617
 30
0.0
 10
8.627820066947059
 20
6.583785739247121
 30
0.0
 10
8.430533262506635
 20
4.830653924432306
 30
0.0
 10
8.196824062523923
 20
3.90615525844888
 30
0.0
 10
7.522706380134862
 20
2.114118397890216
 30
0.0
 10
7.083660489899723
 20
1.246711738043493
 30
0.0
 10
6.042549740156548
 20
-0.3654539963314907
 30
0.0
 10
5.441920116909364
 20
-1.110606202573776
 30
0.0
 10
4.102170922028656
 20
-2.425264338740111
 30
0.0
 10
3.362113859981281
 20
-2.993457391445626
 30
0.0
 10
1.776361475904146
 20
-3.851591326356427
 30
0.0
 10
0.9287002428456636
 20
-4.151883487621668
 30
0.0
 10
-0.1518811634146866
 20
-4.262090479747389
 30
0.0
 10
-0.3293343337416799
 20
-4.271931730748179
 30
0.0
 10
-0.5081159599542718
 20
-4.272822096104729
 30
0.0
  0
ELLIPSE
  5
5F2B
330
5E6F
100
AcDbEntity
  8
0
100
AcDbEllipse
 10
-24.67027268851078
 20
-48.10398208087242
 30
0.0
 11
5.377621075780825
 21
9.314312927105595
 31
0.0
210
0.0
220
0.0
230
1.0
 40
0.5773502691896255
 41
2.816385777593056
 42
6.608392183176321
  0
ELLIPSE
  5
5F2C
330
5E6F
100
AcDbEntity
  8
0
100
AcDbEllipse
 10
-23.94236864905403
 20
-48.52423767399699
 30
0.0
 11
-6.174999999999997
 21
-10.69541373673782
 31
0.0
210
0.0
220
0.0
230
1.0
 40
0.5773502691896257
 41
0.0
 42
6.283185307179586
  0
ELLIPSE
  5
5F2D
330
5E6F
100
AcDbEntity
  8
0
100
AcDbEllipse
 10
-25.7101356020204
 20
-47.50361694783734
 30
0.0
 11
4.238508326896292
 21
7.34131177048814
 31
0.0
210
0.0
220
0.0
230
0.9999999999999998
 40
0.5773502691896254
 41
2.013279936772279
 42
7.411498023997102
  0
ELLIPSE
  5
5F2E
330
5E6F
100
AcDbEntity
  8
0
100
AcDbEllipse
 10
-25.7101356020204
 20
-47.50361694783734
 30
0.0
 11
3.125000000000003
 21
5.412658773652752
 31
0.0
210
0.0
220
0.0
230
1.0
 40
0.5773502691896255
 41
0.0
 42
6.283185307179586
  0
ELLIPSE
  5
5F2F
330
5E6F
100
AcDbEntity
  8
0
100
AcDbEllipse
 10
-27.83145594558004
 20
-46.27887207644575
 30
0.0
 11
3.125000000000002
 21
5.412658773652752
 31
0.0
210
0.0
220
0.0
230
0.9999999999999998
 40
0.5773502691896255
 41
3.48788358074867
 42
5.936894380020706
  0
ELLIPSE
  5
5F30
330
5E6F
100
AcDbEntity
  8
0
100
AcDbEllipse
 10
2.241379513118433
 20
-28.94032703439226
 30
0.0
 11
4.377621075780823
 21
7.58226211953672
 31
0.0
210
0.0
220
0.0
230
0.9999999999999998
 40
0.5773502691896255
 41
5.95797843118285
 42
9.749984836766113
  0
ELLIPSE
  5
5F31
330
5E6F
100
AcDbEntity
  8
0
100
AcDbEllipse
 10
3.281242426628057
 20
-29.54069216742734
 30
0.0
 11
3.238508326896294
 21
5.60926096291926
 31
0.0
210
0.0
220
0.0
230
1.0
 40
0.5773502691896255
 41
0.0
 42
6.283185307179586
  0
ELLIPSE
  5
5F32
330
5E6F
100
AcDbEntity
  8
0
100
AcDbEllipse
 10
3.281242426628057
 20
-29.54069216742734
 30
0.0
 11
2.125000000000002
 21
3.68060796608387
 31
0.0
210
0.0
220
0.0
230
0.9999999999999998
 40
0.5773502691896255
 41
0.0
 42
6.283185307179586
  0
ELLIPSE
  5
5F33
330
5E6F
100
AcDbEntity
  8
0
100
AcDbEllipse
 10
1.159922083068409
 20
-28.31594729603576
 30
0.0
 11
2.124999999999784
 21
3.680607966083997
 31
0.0
210
0.0
220
0.0
230
0.9999999999999998
 40
0.5773502691896255
 41
3.664191975904934
 42
5.760585984863689
  0
ELLIPSE
  5
5F34
330
5E6F
100
AcDbEntity
  8
0
100
AcDbEllipse
 10
1.513475473661691
 20
-28.52007144126769
 30
0.0
 11
-5.174999999999997
 21
-8.963362929168946
 31
0.0
210
0.0
220
0.0
230
0.9999999999999998
 40
0.5773502691896258
 41
2.075523923473493
 42
7.349254037295889
  0
SPLINE
  5
5F35
330
5E6F
100
AcDbEntity
  8
0
100
AcDbSpline
210
0.0
220
0.0
230
1.0
 70
     8
 71
     3
 72
    24
 73
    20
 74
     0
 42
0.000000001
 43
0.0000000001
 40
2.681401366189076
 40
2.681401366189076
 40
2.681401366189076
 40
2.681401366189076
 40
3.014345191289621
 40
3.014345191289621
 40
3.307025466620235
 40
3.307025466620235
 40
3.602050720618001
 40
3.602050720618001
 40
3.901852555931287
 40
3.901852555931287
 40
4.203660984601161
 40
4.203660984601161
 40
4.50401297134457
 40
4.50401297134457
 40
4.799817405389999
 40
4.799817405389999
 40
5.092108631578068
 40
5.092108631578068
 40
5.172580267785406
 40
5.172580267785406
 40
5.172580267785406
 40
5.172580267785406
 10
-31.48419974892588
 20
-55.9380927169283
 30
0.0
 10
-31.77615610358256
 20
-55.42654288704987
 30
0.0
 10
-32.00372854216735
 20
-54.73282705186619
 30
0.0
 10
-32.19233748730513
 20
-53.13944592031731
 30
0.0
 10
-32.18220156571733
 20
-52.27900139475909
 30
0.0
 10
-31.93425914756638
 20
-50.42106105712939
 30
0.0
 10
-31.6952434323828
 20
-49.42321243716813
 30
0.0
 10
-30.99579133609357
 20
-47.3911051297207
 30
0.0
 10
-30.53213661500946
 20
-46.35678649868228
 30
0.0
 10
-29.42413062573763
 20
-44.37166632285052
 30
0.0
 10
-28.7787463473161
 20
-43.42174698334831
 30
0.0
 10
-27.38307856364651
 20
-41.71719683195711
 30
0.0
 10
-26.63338907382702
 20
-40.96204091506635
 30
0.0
 10
-25.12910212083036
 20
-39.72625981594646
 30
0.0
 10
-24.37496808449611
 20
-39.24243929845177
 30
0.0
 10
-22.96340166983012
 20
-38.57033802773841
 30
0.0
 10
-22.30693501876468
 20
-38.37978737406022
 30
0.0
 10
-21.58438821437701
 20
-38.29559368814552
 30
0.0
 10
-21.43505551062129
 20
-38.28660179858614
 30
0.0
 10
-21.29269739183609
 20
-38.2858928289908
 30
0.0
  0
SPLINE
  5
5F36
330
5E6F
100
AcDbEntity
  8
0
100
AcDbSpline
210
0.0
220
0.0
230
1.0
 70
     8
 71
     3
 72
    22
 73
    18
 74
     0
 42
0.000000001
 43
0.0000000001
 40
5.822994019778872
 40
5.822994019778872
 40
5.822994019778872
 40
5.822994019778872
 40
6.088087961568489
 40
6.088087961568489
 40
6.421273080242093
 40
6.421273080242093
 40
6.789766923390131
 40
6.789766923390131
 40
7.154709371790278
 40
7.154709371790278
 40
7.517479361661496
 40
7.517479361661496
 40
7.885319521951044
 40
7.885319521951044
 40
8.244512209762332
 40
8.244512209762332
 40
8.314172921375195
 40
8.314172921375195
 40
8.314172921375195
 40
8.314172921375195
 10
7.788217099508871
 20
-22.56301495771024
 30
0.0
 10
8.12545962956694
 20
-23.15391272762466
 30
0.0
 10
8.340105377809198
 20
-23.78911228629346
 30
0.0
 10
8.616642616216951
 20
-25.2453441371524
 30
0.0
 10
8.627820066947071
 20
-26.0760774978619
 30
0.0
 10
8.430533262506646
 20
-27.82920931267672
 30
0.0
 10
8.196824062523937
 20
-28.75370797866013
 30
0.0
 10
7.522706380134871
 20
-30.5457448392188
 30
0.0
 10
7.083660489899736
 20
-31.41315149906553
 30
0.0
 10
6.042549740156561
 20
-33.02531723344052
 30
0.0
 10
5.441920116909377
 20
-33.7704694396828
 30
0.0
 10
4.102170922028665
 20
-35.08512757584913
 30
0.0
 10
3.362113859981294
 20
-35.65332062855464
 30
0.0
 10
1.77636147590416
 20
-36.51145456346544
 30
0.0
 10
0.9287002428456769
 20
-36.8117467247307
 30
0.0
 10
-0.1518811634146777
 20
-36.92195371685642
 30
0.0
 10
-0.3293343337416621
 20
-36.9317949678572
 30
0.0
 10
-0.508115959954254
 20
-36.93268533321374
 30
0.0
  0
ELLIPSE
  5
5F37
330
5E6F
100
AcDbEntity
  8
0
100
AcDbEllipse
 10
21.6452214792081
 20
32.5250552857405
 30
0.0
 11
1.202621075780853
 21
2.083000805505581
 31
0.0
210
0.0
220
0.0
230
0.9999999999999998
 40
0.5773502691896254
 41
5.497787143782167
 42
6.608392183176327
  0
ELLIPSE
  5
5F38
330
5E6F
100
AcDbEntity
  8
0
100
AcDbEllipse
 10
23.96411577633458
 20
34.45222736278321
 30
0.0
 11
-1.75
 21
0.0000000000001078
 31
0.0
210
0.0
220
0.0
230
1.0
 40
0.5773502691896246
 41
1.209787871990773
 42
2.356194490192589
  0
ELLIPSE
  5
5F39
330
5E6F
100
AcDbEntity
  8
0
100
AcDbEllipse
 10
22.37312551866482
 20
32.10479969261596
 30
0.0
 11
2.000000000000206
 21
3.464101615137639
 31
0.0
210
0.0
220
0.0
230
1.0
 40
0.5773502691896255
 41
5.497787143782373
 42
8.639379797372171
  0
ELLIPSE
  5
5F3A
330
5E6F
100
AcDbEntity
  8
0
100
AcDbEllipse
 10
22.46293985588521
 20
32.15665402438727
 30
0.0
 11
-2.499999999999999
 21
0.0000000000000047
 31
0.0
210
0.0
220
0.0
230
1.0
 40
0.5773502691896249
 41
4.351380525580429
 42
5.495874389475121
  0
ELLIPSE
  5
5F3B
330
5E6F
100
AcDbEntity
  8
0
100
AcDbEllipse
 10
20.60535856569845
 20
-9.332401789466118
 30
0.0
 11
-0.0635083268963221
 21
-0.109999648888123
 31
0.0
210
0.0
220
0.0
230
1.0
 40
0.5773502691896257
 41
5.497787143782142
 42
8.639379797371935
  0
LINE
  5
5F3C
330
5E6F
100
AcDbEntity
  8
0
100
AcDbLine
 10
20.69517290291884
 20
33.17359121645247
 30
0.0
 11
20.69517290291886
 21
-9.280547457694812
 31
0.0
  0
LINE
  5
5F3D
330
5E6F
100
AcDbEntity
  8
0
100
AcDbLine
 10
23.34598451497308
 20
33.50699128226723
 30
0.0
 11
23.34598451497309
 21
-8.950830925974511
 31
0.0
  0
ELLIPSE
  5
5F3E
330
5E6F
100
AcDbEntity
  8
0
100
AcDbEllipse
 10
23.9641157763346
 20
-8.00559484545853
 30
0.0
 11
-1.75
 21
0.0000000000001078
 31
0.0
210
0.0
220
0.0
230
1.0
 40
0.5773502691896246
 41
1.209787871990773
 42
2.356194490192587
  0
LINE
  5
5F3F
330
5E6F
100
AcDbEntity
  8
0
100
AcDbLine
 10
25.20155264341101
 20
33.73779285447144
 30
0.0
 11
25.20155264341104
 21
-8.720029353770307
 31
0.0
  0
ELLIPSE
  5
5F40
330
5E6F
100
AcDbEntity
  8
0
100
AcDbEllipse
 10
22.46293985588523
 20
-10.30116818385446
 30
0.0
 11
-2.499999999999999
 21
0.0000000000000047
 31
0.0
210
0.0
220
0.0
230
1.0
 40
0.5773502691896249
 41
4.351380525580429
 42
5.497787143782137
  0
ELLIPSE
  5
5F41
330
5E6F
100
AcDbEntity
  8
0
100
AcDbEllipse
 10
21.64522147920809
 20
-9.932766922501201
 30
0.0
 11
-1.202621075780973
 21
-2.083000805505501
 31
0.0
210
0.0
220
0.0
230
0.9999999999999998
 40
0.5773502691896255
 41
5.9579784311832
 42
8.639379797372177
  0
ELLIPSE
  5
5F42
330
5E6F
100
AcDbEntity
  8
0
100
AcDbEllipse
 10
22.37312551866483
 20
-10.35302251562576
 30
0.0
 11
-2.000000000000206
 21
-3.464101615137639
 31
0.0
210
0.0
220
0.0
230
1.0
 40
0.5773502691896255
 41
5.497787143782375
 42
8.639379797372171
  0
SPLINE
  5
5F43
330
5E6F
100
AcDbEntity
  8
0
100
AcDbSpline
210
0.0
220
0.0
230
1.0
 70
     8
 71
     3
 72
    24
 73
    20
 74
     0
 42
0.000000001
 43
0.0000000001
 40
3.141592653589788
 40
3.141592653589788
 40
3.141592653589788
 40
3.141592653589788
 40
3.363002096328801
 40
3.363002096328801
 40
3.600681815233278
 40
3.600681815233278
 40
3.852352465744868
 40
3.852352465744868
 40
4.110948982971205
 40
4.110948982971205
 40
4.367600266020782
 40
4.367600266020782
 40
4.613344275145482
 40
4.613344275145482
 40
4.841958289582591
 40
4.841958289582591
 40
5.056505913629748
 40
5.056505913629748
 40
5.172580267785408
 40
5.172580267785408
 40
5.172580267785408
 40
5.172580267785408
 10
20.05726152684218
 20
31.18624103907227
 30
0.0
 10
20.05726152684218
 20
31.31542915851861
 30
0.0
 10
20.07010184758617
 20
31.47040683170395
 30
0.0
 10
20.13218879607437
 20
31.82474183185459
 30
0.0
 10
20.18393098475819
 20
32.02642457979084
 30
0.0
 10
20.33093521050201
 20
32.45469373818813
 30
0.0
 10
20.42851170513985
 20
32.68201329594493
 30
0.0
 10
20.66265385619718
 20
33.13126148961777
 30
0.0
 10
20.80019668524077
 20
33.35283619062554
 30
0.0
 10
21.09607909723413
 20
33.75812610442312
 30
0.0
 10
21.25426989023367
 20
33.94204490144738
 30
0.0
 10
21.5633602111032
 20
34.24867562902136
 30
0.0
 10
21.71429661989852
 20
34.37351406153692
 30
0.0
 10
21.97993858859359
 20
34.55736292659549
 30
0.0
 10
22.0963123725377
 20
34.62012419500688
 30
0.0
 10
22.27446903056323
 20
34.69617813362139
 30
0.0
 10
22.33866062706977
 20
34.71209790767244
 30
0.0
 10
22.39055281445847
 20
34.72058402412505
 30
0.0
 10
22.39990409782494
 20
34.72071452459061
 30
0.0
 10
22.40056351234455
 20
34.72071780859611
 30
0.0
  0
SPLINE
  5
5F44
330
5E6F
100
AcDbEntity
  8
0
100
AcDbSpline
210
0.0
220
0.0
230
1.0
 70
     8
 71
     3
 72
    16
 73
    12
 74
     0
 42
0.000000001
 43
0.0000000001
 40
2.681401366189065
 40
2.681401366189065
 40
2.681401366189065
 40
2.681401366189065
 40
2.77343962366921
 40
2.77343962366921
 40
2.865477881149354
 40
2.865477881149354
 40
2.957516138629499
 40
2.957516138629499
 40
3.049554396109643
 40
3.049554396109643
 40
3.141592653589788
 40
3.141592653589788
 40
3.141592653589788
 40
3.141592653589788
 10
20.12139297284594
 20
-11.68474357317134
 30
0.0
 10
20.12113379482059
 20
-11.6842894557231
 30
0.0
 10
20.11821946492841
 20
-11.67909485518596
 30
0.0
 10
20.10930056104419
 20
-11.6575457189688
 30
0.0
 10
20.1033148148375
 20
-11.64120077246047
 30
0.0
 10
20.09065232905339
 20
-11.59691008724365
 30
0.0
 10
20.08398441790059
 20
-11.56897648224494
 30
0.0
 10
20.07206802687758
 20
-11.50195183609594
 30
0.0
 10
20.06682174372603
 20
-11.46287073748366
 30
0.0
 10
20.0594190094937
 20
-11.37453331862567
 30
0.0
 10
20.05726152684214
 20
-11.32528370892517
 30
0.0
 10
20.05726152684214
 20
-11.27158116916948
 30
0.0
  0
ELLIPSE
  5
5F45
330
5E6F
100
AcDbEntity
  8
0
100
AcDbEllipse
 10
18.30726152684215
 20
31.18624103907226
 30
0.0
 11
1.75
 21
0.0000000000000034
 31
0.0
210
0.0
220
0.0
230
1.0
 40
0.5773502691896271
 41
5.497787143782138
 42
6.283185307179587
  0
LINE
  5
5F46
330
5E6F
100
AcDbEntity
  8
0
100
AcDbLine
 10
20.51554422847806
 20
32.8481847888168
 30
0.0
 11
20.51554422847805
 21
-9.384256121237406
 31
0.0
  0
ELLIPSE
  5
5F47
330
5E6F
100
AcDbEntity
  8
0
100
AcDbEllipse
 10
18.30726152684213
 20
-11.27158116916948
 30
0.0
 11
1.75
 21
0.0000000000000034
 31
0.0
210
0.0
220
0.0
230
1.0
 40
0.5773502691896271
 41
5.497787143782136
 42
6.283185307179582
  0
ELLIPSE
  5
5F48
330
5E6F
100
AcDbEntity
  8
0
100
AcDbEllipse
 10
22.28331118144442
 20
-10.40487684739704
 30
0.0
 11
2.5
 21
-0.0000000000001464
 31
0.0
210
0.0
220
0.0
230
1.0
 40
0.5773502691896276
 41
2.356194490192667
 42
2.6690631548498
  0
LINE
  5
5F49
330
5E6F
100
AcDbEntity
  8
0
100
AcDbLine
 10
19.54469839391862
 20
-11.98601567748124
 30
0.0
 11
19.54469839391863
 21
30.47180653076051
 31
0.0
  0
LINE
  5
5F4A
330
5E6F
100
AcDbEntity
  8
0
100
AcDbLine
 10
20.05726152684214
 20
-11.27158116916948
 30
0.0
 11
20.05726152684216
 21
31.18624103907225
 31
0.0
  0
ENDBLK
  5
5E71
330
5E6F
100
AcDbEntity
  8
0
100
AcDbBlockEnd
  0
ENDSEC
  0
SECTION
  2
ENTITIES
  0
INSERT
  5
5F4B
330
1F
100
AcDbEntity
  8
0
100
AcDbBlockReference
  2
TU16-Front
 10
0.0
 20
0.0
 30
0.0
  0
INSERT
  5
5F4C
330
1F
100
AcDbEntity
  8
0
100
AcDbBlockReference
  2
TU16-Left
 10
70.20040879948654
 20
0.0
 30
0.0
  0
INSERT
  5
5F4D
330
1F
100
AcDbEntity
  8
0
100
AcDbBlockReference
  2
TU16-Right
 10
-70.2004087994864
 20
0.0
 30
0.0
  0
INSERT
  5
5F4E
330
1F
100
AcDbEntity
  8
0
100
AcDbBlockReference
  2
TU16-Top
 10
0.0
 20
-107.2
 30
0.0
  0
INSERT
  5
5F4F
330
1F
100
AcDbEntity
  8
0
100
AcDbBlockReference
  2
TU16-Bottom
 10
0.0
 20
107.2
 30
0.0
  0
INSERT
  5
5F50
330
1F
100
AcDbEntity
  8
0
100
AcDbBlockReference
  2
TU16-ISO
 10
109.1683877492683
 20
-195.4146576126508
 30
0.0
  0
MTEXT
  5
5F51
330
1F
100
AcDbEntity
  8
0
100
AcDbMText
 10
0.0
 20
-254.6183854891473
 30
0.0
 40
13.4
 41
0.0
 71
     5
 72
     5
  1
TU16
 73
     1
 44
1.0
1001
ACAD
1000
MTEXTBEGIN
1070
    73
1070
     1
1070
    44
1040
1.0
1070
    74
1070
     0
1000
MTEXTEND
  0
ENDSEC
  0
SECTION
  2
OBJECTS
  0
DICTIONARY
  5
C
330
0
100
AcDbDictionary
281
     1
  3
ACAD_CIP_PREVIOUS_PRODUCT_INFO
350
216
  3
ACAD_COLOR
350
6B
  3
ACAD_DETAILVIEWSTYLE
350
21B
  3
ACAD_GROUP
350
D
  3
ACAD_LAYOUT
350
1A
  3
ACAD_MATERIAL
350
6A
  3
ACAD_MLEADERSTYLE
350
12D
  3
ACAD_MLINESTYLE
350
17
  3
ACAD_PLOTSETTINGS
350
19
  3
ACAD_PLOTSTYLENAME
350
E
  3
ACAD_SCALELIST
350
10C
  3
ACAD_SECTIONVIEWSTYLE
350
219
  3
ACAD_TABLESTYLE
350
7E
  3
ACAD_VISUALSTYLE
350
EF
  3
ACDB_RECOMPOSE_DATA
350
6052
  3
AcDbVariableDictionary
350
5E
  3
DWGPROPS
350
6053
  0
DICTIONARY
  5
5FA2
330
8
100
AcDbDictionary
280
     1
281
     1
  0
DICTIONARY
  5
1FF
330
2
100
AcDbDictionary
280
     1
281
     1
  3
ACAD_LAYERSTATES
360
200
  0
DICTIONARY
  5
13C
330
10
100
AcDbDictionary
280
     1
281
     1
  0
DICTIONARY
  5
1CE
330
1F
100
AcDbDictionary
280
     1
281
     1
  3
ACAD_LAYOUTSELFREF
360
5FAA
  0
DICTIONARY
  5
5F55
330
D2
100
AcDbDictionary
280
     1
281
     1
  3
ACAD_LAYOUTSELFREF
360
5FB3
  0
DICTIONARY
  5
5F57
330
D6
100
AcDbDictionary
280
     1
281
     1
  3
ACAD_LAYOUTSELFREF
360
5FB6
  0
XRECORD
  5
216
102
{ACAD_REACTORS
330
C
102
}
330
C
100
AcDbXrecord
280
     1
300
ACD
300
2021
300

  0
DICTIONARY
  5
6B
102
{ACAD_REACTORS
330
C
102
}
330
C
100
AcDbDictionary
281
     1
  0
DICTIONARY
  5
21B
102
{ACAD_REACTORS
330
C
102
}
330
C
100
AcDbDictionary
281
     1
  3
Metric50
350
21C
  0
DICTIONARY
  5
D
102
{ACAD_REACTORS
330
C
102
}
330
C
100
AcDbDictionary
281
     1
  0
DICTIONARY
  5
1A
102
{ACAD_REACTORS
330
C
102
}
330
C
100
AcDbDictionary
281
     1
  3
Layout1
350
D3
  3
Layout2
350
D7
  3
Model
350
22
  0
DICTIONARY
  5
6A
102
{ACAD_REACTORS
330
C
102
}
330
C
100
AcDbDictionary
281
     1
  3
ByBlock
350
ED
  3
ByLayer
350
EC
  3
Global
350
EE
  0
DICTIONARY
  5
12D
102
{ACAD_REACTORS
330
C
102
}
330
C
100
AcDbDictionary
281
     1
  3
Standard
350
12E
  0
DICTIONARY
  5
17
102
{ACAD_REACTORS
330
C
102
}
330
C
100
AcDbDictionary
281
     1
  3
Standard
350
18
  0
DICTIONARY
  5
19
102
{ACAD_REACTORS
330
C
102
}
330
C
100
AcDbDictionary
281
     1
  0
ACDBDICTIONARYWDFLT
  5
E
102
{ACAD_REACTORS
330
C
102
}
330
C
100
AcDbDictionary
281
     1
  3
Normal
350
F
100
AcDbDictionaryWithDefault
340
F
  0
DICTIONARY
  5
10C
102
{ACAD_REACTORS
330
C
102
}
330
C
100
AcDbDictionary
281
     1
  3
A0
350
10D
  3
A1
350
1BE
  3
A2
350
1BF
  3
A3
350
1C0
  3
A4
350
1C1
  3
A5
350
1C2
  3
A6
350
1C3
  3
A7
350
1C4
  3
A8
350
1C5
  3
A9
350
1C6
  3
B0
350
1C7
  3
B1
350
1C8
  3
B2
350
1C9
  3
B3
350
1CA
  3
B4
350
1CB
  3
B5
350
1CC
  3
B6
350
1CD
  0
DICTIONARY
  5
219
102
{ACAD_REACTORS
330
C
102
}
330
C
100
AcDbDictionary
281
     1
  3
Metric50
350
21A
  0
DICTIONARY
  5
7E
102
{ACAD_REACTORS
330
C
102
}
330
C
100
AcDbDictionary
281
     1
  3
Standard
350
7F
  0
DICTIONARY
  5
EF
102
{ACAD_REACTORS
330
C
102
}
330
C
100
AcDbDictionary
281
     1
  3
2dWireframe
350
F5
  3
Basic
350
F4
  3
Brighten
350
FB
  3
ColorChange
350
FF
  3
Conceptual
350
F8
  3
Dim
350
FA
  3
EdgeColorOff
350
1E6
  3
Facepattern
350
FE
  3
Flat
350
F0
  3
FlatWithEdges
350
F1
  3
Gouraud
350
F2
  3
GouraudWithEdges
350
F3
  3
Hidden
350
F7
  3
JitterOff
350
1E4
  3
Linepattern
350
FD
  3
OverhangOff
350
1E5
  3
Realistic
350
F9
  3
Shaded
350
1F3
  3
Shaded with edges
350
1F2
  3
Shades of Gray
350
1EF
  3
Sketchy
350
1F0
  3
Thicken
350
FC
  3
Wireframe
350
F6
  3
X-Ray
350
1F1
  0
XRECORD
  5
6052
102
{ACAD_REACTORS
330
C
102
}
330
C
100
AcDbXrecord
280
     1
 90
        1
330
7F
  0
DICTIONARY
  5
5E
102
{ACAD_REACTORS
330
C
102
}
330
C
100
AcDbDictionary
281
     1
  3
CANNOSCALE
350
146
  3
CENTEREXE
350
259
  3
CENTERLTYPEFILE
350
25A
  3
CMLEADERSTYLE
350
145
  3
CTABLESTYLE
350
84
  3
CVIEWDETAILSTYLE
350
227
  3
CVIEWSECTIONSTYLE
350
228
  3
DIMASSOC
350
5F
  3
HIDETEXT
350
63
  3
INDEXCTL
350
5FFF
  3
LAYEREVAL
350
1AE
  3
LAYERNOTIFY
350
1AF
  3
LIGHTINGUNITS
350
5FFD
  3
MSLTSCALE
350
5FFC
  3
PSOLHEIGHT
350
604F
  3
PSOLWIDTH
350
604E
  3
SORTENTS
350
5FFE
  3
XCLIPFRAME
350
6050
  0
XRECORD
  5
6053
102
{ACAD_REACTORS
330
C
102
}
330
C
100
AcDbXrecord
280
     1
  1
DWGPROPS COOKIE
  2

  3

  4

  6

  7

  8
tronnguyen
  9

300
=
301
=
302
=
303
=
304
=
305
=
306
=
307
=
308
=
309
=
 40
0.0037615740740741
 41
2460367.705740741
 42
2460367.71380787
  1

 90
        0
  0
DICTIONARY
  5
200
102
{ACAD_REACTORS
330
1FF
102
}
330
1FF
100
AcDbDictionary
281
     1
  0
XRECORD
  5
5FAA
102
{ACAD_REACTORS
330
1CE
102
}
330
1CE
100
AcDbXrecord
280
     1
340
1F
  0
XRECORD
  5
5FB3
102
{ACAD_REACTORS
330
5F55
102
}
330
5F55
100
AcDbXrecord
280
     1
340
D2
  0
XRECORD
  5
5FB6
102
{ACAD_REACTORS
330
5F57
102
}
330
5F57
100
AcDbXrecord
280
     1
340
D6
  0
ACDBDETAILVIEWSTYLE
  5
21C
102
{ACAD_XDICTIONARY
360
6092
102
}
102
{ACAD_REACTORS
330
21B
102
}
330
21B
100
AcDbModelDocViewStyle
 70
     0
  3
Metric50
290
     0
100
AcDbDetailViewStyle
 70
     0
 71
     0
 90
        3
 71
     1
340
11
 40
5.0
340
0
 40
5.0
300

 40
0.0
280
     1
 71
     2
340
16
 90
       25
 71
     3
340
11
 40
5.0
 90
        0
 40
15.0
 90
        1
300
%<\AcVar ViewDetailId>% (%<\AcVar ViewScale \f "%sn">%)
 71
     4
340
16
 90
       25
340
16
 90
       25
280
     0
  0
LAYOUT
  5
D3
102
{ACAD_XDICTIONARY
360
6057
102
}
102
{ACAD_REACTORS
330
1A
102
}
330
1A
100
AcDbPlotSettings
  1

  2
C:\Documents and Settings\basas\Application Data\Autodesk\AutoCAD 2005\R16.1\enu\plotters\Default Windows System Printer.pc3
  4

  6

 40
0.0
 41
0.0
 42
0.0
 43
0.0
 44
0.0
 45
0.0
 46
0.0
 47
0.0
 48
0.0
 49
0.0
140
0.0
141
0.0
142
1.0
143
1.0
 70
   688
 72
     0
 73
     0
 74
     5
  7

 75
    16
147
1.0
148
0.0
149
0.0
100
AcDbLayout
  1
Layout1
 70
     1
 71
     1
 10
0.0
 20
0.0
 11
12.0
 21
9.0
 12
0.0
 22
0.0
 32
0.0
 14
0.0
 24
0.0
 34
0.0
 15
0.0
 25
0.0
 35
0.0
146
0.0
 13
0.0
 23
0.0
 33
0.0
 16
1.0
 26
0.0
 36
0.0
 17
0.0
 27
1.0
 37
0.0
 76
     0
330
D2
  0
LAYOUT
  5
D7
102
{ACAD_XDICTIONARY
360
6059
102
}
102
{ACAD_REACTORS
330
1A
102
}
330
1A
100
AcDbPlotSettings
  1

  2
C:\Documents and Settings\basas\Application Data\Autodesk\AutoCAD 2005\R16.1\enu\plotters\Default Windows System Printer.pc3
  4

  6

 40
0.0
 41
0.0
 42
0.0
 43
0.0
 44
0.0
 45
0.0
 46
0.0
 47
0.0
 48
0.0
 49
0.0
140
0.0
141
0.0
142
1.0
143
1.0
 70
   688
 72
     0
 73
     0
 74
     5
  7

 75
    16
147
1.0
148
0.0
149
0.0
100
AcDbLayout
  1
Layout2
 70
     1
 71
     2
 10
0.0
 20
0.0
 11
12.0
 21
9.0
 12
0.0
 22
0.0
 32
0.0
 14
0.0
 24
0.0
 34
0.0
 15
0.0
 25
0.0
 35
0.0
146
0.0
 13
0.0
 23
0.0
 33
0.0
 16
1.0
 26
0.0
 36
0.0
 17
0.0
 27
1.0
 37
0.0
 76
     0
330
D6
  0
LAYOUT
  5
22
102
{ACAD_XDICTIONARY
360
6054
102
}
102
{ACAD_REACTORS
330
1A
102
}
330
1A
100
AcDbPlotSettings
  1

  2
none_device
  4
ISO_A4_(210.00_x_297.00_MM)
  6

 40
7.5
 41
20.0
 42
7.5
 43
20.0
 44
210.0
 45
297.0
 46
11.54999923706054
 47
-13.65000009536743
 48
0.0
 49
0.0
140
0.0
141
0.0
142
1.0
143
8.704084754739808
 70
 11952
 72
     1
 73
     0
 74
     0
  7

 75
     0
147
0.1148885871608098
148
0.0
149
0.0
100
AcDbLayout
  1
Model
 70
     1
 71
     0
 10
0.0
 20
0.0
 11
12.0
 21
9.0
 12
0.0
 22
0.0
 32
0.0
 14
0.0
 24
0.0
 34
0.0
 15
0.0
 25
0.0
 35
0.0
146
0.0
 13
0.0
 23
0.0
 33
0.0
 16
1.0
 26
0.0
 36
0.0
 17
0.0
 27
1.0
 37
0.0
 76
     0
330
1F
331
EA
1001
ACAD_PSEXT
1000
None
1000
None
1000
Not applicable
1000
The layout will not be plotted unless a new plotter configuration name is selected.
1070
     0
  0
MATERIAL
  5
ED
102
{ACAD_XDICTIONARY
360
1F9
102
}
102
{ACAD_REACTORS
330
6A
102
}
330
6A
100
AcDbMaterial
  1
ByBlock
  0
MATERIAL
  5
EC
102
{ACAD_XDICTIONARY
360
1F7
102
}
102
{ACAD_REACTORS
330
6A
102
}
330
6A
100
AcDbMaterial
  1
ByLayer
  0
MATERIAL
  5
EE
102
{ACAD_XDICTIONARY
360
173
102
}
102
{ACAD_REACTORS
330
6A
102
}
330
6A
100
AcDbMaterial
  1
Global
 43
0.0007999999797903
 43
0.0
 43
0.0
 43
0.0
 43
0.0
 43
0.0007999999797903
 43
0.0
 43
0.0
 43
0.0
 43
0.0
 43
1.0
 43
0.0
 43
0.0
 43
0.0
 43
0.0
 43
1.0
 49
0.0007999999797903
 49
0.0
 49
0.0
 49
0.0
 49
0.0
 49
0.0007999999797903
 49
0.0
 49
0.0
 49
0.0
 49
0.0
 49
1.0
 49
0.0
 49
0.0
 49
0.0
 49
0.0
 49
1.0
142
0.0007999999797903
142
0.0
142
0.0
142
0.0
142
0.0
142
0.0007999999797903
142
0.0
142
0.0
142
0.0
142
0.0
142
1.0
142
0.0
142
0.0
142
0.0
142
0.0
142
1.0
144
0.0007999999797903
144
0.0
144
0.0
144
0.0
144
0.0
144
0.0007999999797903
144
0.0
144
0.0
144
0.0
144
0.0
144
1.0
144
0.0
144
0.0
144
0.0
144
0.0
144
1.0
1001
ACAD
1070
    -1
1070
     3
1070
     0
1000

1071
        0
1070
     0
  0
MLEADERSTYLE
  5
12E
102
{ACAD_XDICTIONARY
360
607E
102
}
102
{ACAD_REACTORS
330
12D
102
}
330
12D
100
AcDbMLeaderStyle
170
     2
171
     1
172
     0
 90
        2
 40
0.0
 41
0.0
173
     1
 91
-1056964608
340
14
 92
       -2
290
     1
 42
2.0
291
     1
 43
8.0
  3
Standard
 44
4.0
300

342
11
174
     1
178
     1
175
     1
176
     0
 93
-1056964608
 45
4.0
292
     0
297
     0
 46
4.0
 94
-1056964608
 47
1.0
 49
1.0
140
1.0
293
     1
141
0.0
294
     1
177
     0
142
1.0
295
     0
296
     0
143
3.75
1001
ACAD_MLEADERVER
1070
     2
  0
MLINESTYLE
  5
18
102
{ACAD_REACTORS
330
17
102
}
330
17
100
AcDbMlineStyle
  2
STANDARD
 70
     0
  3

 62
   256
 51
90.0
 52
90.0
 71
     2
 49
0.5
 62
   256
  6
BYLAYER
 49
-0.5
 62
   256
  6
BYLAYER
  0
ACDBPLACEHOLDER
  5
F
102
{ACAD_REACTORS
330
E
102
}
330
E
  0
SCALE
  5
10D
102
{ACAD_REACTORS
330
10C
102
}
330
10C
100
AcDbScale
 70
     0
300
1:1
140
1.0
141
1.0
290
     1
  0
SCALE
  5
1BE
102
{ACAD_REACTORS
330
10C
102
}
330
10C
100
AcDbScale
 70
     0
300
1:2
140
1.0
141
2.0
290
     0
  0
SCALE
  5
1BF
102
{ACAD_REACTORS
330
10C
102
}
330
10C
100
AcDbScale
 70
     0
300
1:4
140
1.0
141
4.0
290
     0
  0
SCALE
  5
1C0
102
{ACAD_REACTORS
330
10C
102
}
330
10C
100
AcDbScale
 70
     0
300
1:5
140
1.0
141
5.0
290
     0
  0
SCALE
  5
1C1
102
{ACAD_REACTORS
330
10C
102
}
330
10C
100
AcDbScale
 70
     0
300
1:8
140
1.0
141
8.0
290
     0
  0
SCALE
  5
1C2
102
{ACAD_REACTORS
330
10C
102
}
330
10C
100
AcDbScale
 70
     0
300
1:10
140
1.0
141
10.0
290
     0
  0
SCALE
  5
1C3
102
{ACAD_REACTORS
330
10C
102
}
330
10C
100
AcDbScale
 70
     0
300
1:16
140
1.0
141
16.0
290
     0
  0
SCALE
  5
1C4
102
{ACAD_REACTORS
330
10C
102
}
330
10C
100
AcDbScale
 70
     0
300
1:20
140
1.0
141
20.0
290
     0
  0
SCALE
  5
1C5
102
{ACAD_REACTORS
330
10C
102
}
330
10C
100
AcDbScale
 70
     0
300
1:30
140
1.0
141
30.0
290
     0
  0
SCALE
  5
1C6
102
{ACAD_REACTORS
330
10C
102
}
330
10C
100
AcDbScale
 70
     0
300
1:40
140
1.0
141
40.0
290
     0
  0
SCALE
  5
1C7
102
{ACAD_REACTORS
330
10C
102
}
330
10C
100
AcDbScale
 70
     0
300
1:50
140
1.0
141
50.0
290
     0
  0
SCALE
  5
1C8
102
{ACAD_REACTORS
330
10C
102
}
330
10C
100
AcDbScale
 70
     0
300
1:100
140
1.0
141
100.0
290
     0
  0
SCALE
  5
1C9
102
{ACAD_REACTORS
330
10C
102
}
330
10C
100
AcDbScale
 70
     0
300
2:1
140
2.0
141
1.0
290
     0
  0
SCALE
  5
1CA
102
{ACAD_REACTORS
330
10C
102
}
330
10C
100
AcDbScale
 70
     0
300
4:1
140
4.0
141
1.0
290
     0
  0
SCALE
  5
1CB
102
{ACAD_REACTORS
330
10C
102
}
330
10C
100
AcDbScale
 70
     0
300
8:1
140
8.0
141
1.0
290
     0
  0
SCALE
  5
1CC
102
{ACAD_REACTORS
330
10C
102
}
330
10C
100
AcDbScale
 70
     0
300
10:1
140
10.0
141
1.0
290
     0
  0
SCALE
  5
1CD
102
{ACAD_REACTORS
330
10C
102
}
330
10C
100
AcDbScale
 70
     0
300
100:1
140
100.0
141
1.0
290
     0
  0
ACDBSECTIONVIEWSTYLE
  5
21A
102
{ACAD_XDICTIONARY
360
6090
102
}
102
{ACAD_REACTORS
330
219
102
}
330
219
100
AcDbModelDocViewStyle
 70
     0
  3
Metric50
290
     0
100
AcDbSectionViewStyle
 70
     0
 71
     0
 90
      102
 71
     1
340
11
 40
5.0
340
0
340
0
 40
5.0
300
I, O, Q, S, X, Z
 40
10.0
 90
        0
 40
2.5
 90
        0
 71
     2
340
16
 90
       25
340
16
 90
       50
 40
5.0
 40
2.5
 40
5.0
 71
     3
340
11
 40
5.0
 90
        0
 40
15.0
 90
        1
300
%<\AcVar ViewSectionStartId>%-%<\AcVar ViewSectionEndId>% (%<\AcVar ViewScale \f "%sn">%)
 71
     4
300
ANSI31
 40
1.0
 90
        0
290
     0
290
     0
 90
        6
 40
0.0
 40
1.570796326794896
 40
0.2617993877991494
 40
1.308996938995747
 40
-0.2617993877991494
 40
1.832595714594046
  0
TABLESTYLE
  5
7F
102
{ACAD_XDICTIONARY
360
162
102
}
102
{ACAD_REACTORS
330
7E
102
}
330
7E
100
AcDbTableStyle
  3
Standard
 70
     0
 71
     0
 40
1.5
 41
1.5
280
     0
281
     0
  7
Standard
140
4.5
170
     2
 62
     0
 63
     7
283
     0
274
    -2
284
     1
 64
     0
275
    -2
285
     1
 65
     0
276
    -2
286
     1
 66
     0
277
    -2
287
     1
 67
     0
278
    -2
288
     1
 68
     0
279
    -2
289
     1
 69
     0
  7
Standard
140
6.0
170
     5
 62
     0
 63
     7
283
     0
274
    -2
284
     1
 64
     0
275
    -2
285
     1
 65
     0
276
    -2
286
     1
 66
     0
277
    -2
287
     1
 67
     0
278
    -2
288
     1
 68
     0
279
    -2
289
     1
 69
     0
  7
Standard
140
4.5
170
     5
 62
     0
 63
     7
283
     0
274
    -2
284
     1
 64
     0
275
    -2
285
     1
 65
     0
276
    -2
286
     1
 66
     0
277
    -2
287
     1
 67
     0
278
    -2
288
     1
 68
     0
279
    -2
289
     1
 69
     0
  0
VISUALSTYLE
  5
F5
102
{ACAD_XDICTIONARY
360
6068
102
}
102
{ACAD_REACTORS
330
EF
102
}
330
EF
100
AcDbVisualStyle
  2
2dWireframe
 70
     4
 71
     0
 72
     2
 73
     1
 90
        0
 40
-0.6
 41
-30.0
 62
     5
 63
     7
 74
     1
 91
        4
 64
     7
 65
   257
 75
     1
175
     1
 42
1.0
 92
        0
 66
   257
 43
1.0
 76
     1
 77
     6
 78
     2
 67
     7
 79
     5
170
     0
171
     0
290
     0
174
     0
 93
        1
 44
0.0
173
     0
291
     0
 45
0.0
1001
ACAD
1000
AcDbSavedByObjectVersion
1070
     0
  0
VISUALSTYLE
  5
F4
102
{ACAD_XDICTIONARY
360
6066
102
}
102
{ACAD_REACTORS
330
EF
102
}
330
EF
100
AcDbVisualStyle
  2
Basic
 70
     7
 71
     1
 72
     0
 73
     1
 90
        0
 40
-0.6
 41
-30.0
 62
     5
 63
     7
 74
     0
 91
        4
 64
     7
 65
   257
 75
     1
175
     1
 42
1.0
 92
        8
 66
     7
 43
1.0
 76
     1
 77
     6
 78
     2
 67
     7
 79
     5
170
     0
171
     0
290
     0
174
     0
 93
        1
 44
0.0
173
     0
291
     1
 45
0.0
1001
ACAD
1000
AcDbSavedByObjectVersion
1070
     0
  0
VISUALSTYLE
  5
FB
102
{ACAD_XDICTIONARY
360
6074
102
}
102
{ACAD_REACTORS
330
EF
102
}
330
EF
100
AcDbVisualStyle
  2
Brighten
 70
    12
 71
     2
 72
     2
 73
     1
 90
        0
 40
-0.6
 41
-30.0
 62
     5
 63
     7
 74
     1
 91
        4
 64
     7
 65
   257
 75
     1
175
     1
 42
1.0
 92
        8
 66
     7
 43
1.0
 76
     1
 77
     6
 78
     2
 67
     7
 79
     5
170
     0
171
     0
290
     0
174
     0
 93
        1
 44
50.0
173
     0
291
     1
 45
0.0
1001
ACAD
1000
AcDbSavedByObjectVersion
1070
     0
  0
VISUALSTYLE
  5
FF
102
{ACAD_XDICTIONARY
360
607C
102
}
102
{ACAD_REACTORS
330
EF
102
}
330
EF
100
AcDbVisualStyle
  2
ColorChange
 70
    16
 71
     2
 72
     2
 73
     3
 90
        0
 40
-0.6
 41
-30.0
 62
     5
 63
     8
 74
     1
 91
        4
 64
     7
 65
   257
 75
     1
175
     1
 42
1.0
 92
        8
 66
     8
 43
1.0
 76
     1
 77
     6
 78
     2
 67
     7
 79
     5
170
     0
171
     0
290
     0
174
     0
 93
        1
 44
0.0
173
     0
291
     1
 45
0.0
1001
ACAD
1000
AcDbSavedByObjectVersion
1070
     0
  0
VISUALSTYLE
  5
F8
102
{ACAD_XDICTIONARY
360
606E
102
}
102
{ACAD_REACTORS
330
EF
102
}
330
EF
100
AcDbVisualStyle
  2
Conceptual
 70
     9
 71
     3
 72
     2
 73
     1
 90
        0
 40
-0.6
 41
-30.0
 62
     5
 63
     7
 74
     2
 91
        2
 64
     7
 65
   257
 75
     1
175
     1
 42
40.0
 92
        8
 66
     7
 43
1.0
 76
     1
 77
     6
 78
     2
 67
     7
 79
     3
170
     0
171
     0
290
     0
174
     0
 93
        1
 44
0.0
173
     0
291
     0
 45
0.0
1001
ACAD
1000
AcDbSavedByObjectVersion
1070
     0
  0
VISUALSTYLE
  5
FA
102
{ACAD_XDICTIONARY
360
6072
102
}
102
{ACAD_REACTORS
330
EF
102
}
330
EF
100
AcDbVisualStyle
  2
Dim
 70
    11
 71
     2
 72
     2
 73
     1
 90
        0
 40
-0.6
 41
-30.0
 62
     5
 63
     7
 74
     1
 91
        4
 64
     7
 65
   257
 75
     1
175
     1
 42
1.0
 92
        8
 66
     7
 43
1.0
 76
     1
 77
     6
 78
     2
 67
     7
 79
     5
170
     0
171
     0
290
     0
174
     0
 93
        1
 44
-50.0
173
     0
291
     1
 45
0.0
1001
ACAD
1000
AcDbSavedByObjectVersion
1070
     0
  0
VISUALSTYLE
  5
1E6
102
{ACAD_XDICTIONARY
360
6084
102
}
102
{ACAD_REACTORS
330
EF
102
}
330
EF
100
AcDbVisualStyle
  2
EdgeColorOff
 70
    22
 71
     2
 72
     2
 73
     0
 90
        0
 40
-0.6
 41
-30.0
 62
     5
 63
     7
 74
     1
 91
        4
 64
     7
 65
   257
 75
     1
175
     1
 42
1.0
 92
        8
 66
     7
 43
1.0
 76
     1
 77
     6
 78
     2
 67
     7
 79
     5
170
     0
171
     0
290
     0
174
     0
 93
        1
 44
0.0
173
     0
291
     1
 45
0.0
1001
ACAD
1000
AcDbSavedByObjectVersion
1070
     0
  0
VISUALSTYLE
  5
FE
102
{ACAD_XDICTIONARY
360
607A
102
}
102
{ACAD_REACTORS
330
EF
102
}
330
EF
100
AcDbVisualStyle
  2
Facepattern
 70
    15
 71
     2
 72
     2
 73
     1
 90
        0
 40
-0.6
 41
-30.0
 62
     5
 63
     7
 74
     1
 91
        4
 64
     7
 65
   257
 75
     1
175
     1
 42
1.0
 92
        8
 66
     7
 43
1.0
 76
     1
 77
     6
 78
     2
 67
     7
 79
     5
170
     0
171
     0
290
     0
174
     0
 93
        1
 44
0.0
173
     0
291
     1
 45
0.0
1001
ACAD
1000
AcDbSavedByObjectVersion
1070
     0
  0
VISUALSTYLE
  5
F0
102
{ACAD_XDICTIONARY
360
605E
102
}
102
{ACAD_REACTORS
330
EF
102
}
330
EF
100
AcDbVisualStyle
  2
Flat
 70
     0
 71
     2
 72
     1
 73
     1
 90
        2
 40
-0.6
 41
30.0
 62
     5
 63
     7
 74
     0
 91
        0
 64
     7
 65
   257
 75
     1
175
     1
 42
1.0
 92
        8
 66
     7
 43
1.0
 76
     1
 77
     6
 78
     2
 67
     7
 79
     5
170
     0
171
     0
290
     0
174
     0
 93
       13
 44
0.0
173
     0
291
     1
 45
0.0
1001
ACAD
1000
AcDbSavedByObjectVersion
1070
     0
  0
VISUALSTYLE
  5
F1
102
{ACAD_XDICTIONARY
360
6060
102
}
102
{ACAD_REACTORS
330
EF
102
}
330
EF
100
AcDbVisualStyle
  2
FlatWithEdges
 70
     1
 71
     2
 72
     1
 73
     1
 90
        2
 40
-0.6
 41
30.0
 62
     5
 63
     7
 74
     1
 91
        0
 64
     7
 65
   257
 75
     1
175
     1
 42
1.0
 92
        0
 66
   257
 43
1.0
 76
     1
 77
     6
 78
     2
 67
     7
 79
     5
170
     0
171
     0
290
     0
174
     0
 93
       13
 44
0.0
173
     0
291
     1
 45
0.0
1001
ACAD
1000
AcDbSavedByObjectVersion
1070
     0
  0
VISUALSTYLE
  5
F2
102
{ACAD_XDICTIONARY
360
6062
102
}
102
{ACAD_REACTORS
330
EF
102
}
330
EF
100
AcDbVisualStyle
  2
Gouraud
 70
     2
 71
     2
 72
     2
 73
     1
 90
        2
 40
-0.6
 41
30.0
 62
     5
 63
     7
 74
     0
 91
        0
 64
     7
 65
   257
 75
     1
175
     1
 42
1.0
 92
        0
 66
     7
 43
1.0
 76
     1
 77
     6
 78
     2
 67
     7
 79
     5
170
     0
171
     0
290
     0
174
     0
 93
       13
 44
0.0
173
     0
291
     1
 45
0.0
1001
ACAD
1000
AcDbSavedByObjectVersion
1070
     0
  0
VISUALSTYLE
  5
F3
102
{ACAD_XDICTIONARY
360
6064
102
}
102
{ACAD_REACTORS
330
EF
102
}
330
EF
100
AcDbVisualStyle
  2
GouraudWithEdges
 70
     3
 71
     2
 72
     2
 73
     1
 90
        2
 40
-0.6
 41
30.0
 62
     5
 63
     7
 74
     1
 91
        0
 64
     7
 65
   257
 75
     1
175
     1
 42
1.0
 92
        0
 66
   257
 43
1.0
 76
     1
 77
     6
 78
     2
 67
     7
 79
     5
170
     0
171
     0
290
     0
174
     0
 93
       13
 44
0.0
173
     0
291
     1
 45
0.0
1001
ACAD
1000
AcDbSavedByObjectVersion
1070
     0
  0
VISUALSTYLE
  5
F7
102
{ACAD_XDICTIONARY
360
606C
102
}
102
{ACAD_REACTORS
330
EF
102
}
330
EF
100
AcDbVisualStyle
  2
Hidden
 70
     6
 71
     1
 72
     2
 73
     2
 90
        0
 40
-0.6
 41
-30.0
 62
     5
 63
     7
 74
     2
 91
        2
 64
     7
 65
   257
 75
     2
175
     1
 42
40.0
 92
        0
 66
   257
 43
1.0
 76
     1
 77
     6
 78
     2
 67
     7
 79
     3
170
     0
171
     0
290
     0
174
     0
 93
        1
 44
0.0
173
     0
291
     0
 45
0.0
1001
ACAD
1000
AcDbSavedByObjectVersion
1070
     0
  0
VISUALSTYLE
  5
1E4
102
{ACAD_XDICTIONARY
360
6080
102
}
102
{ACAD_REACTORS
330
EF
102
}
330
EF
100
AcDbVisualStyle
  2
JitterOff
 70
    20
 71
     2
 72
     2
 73
     0
 90
        0
 40
-0.6
 41
-30.0
 62
     5
 63
     7
 74
     1
 91
        4
 64
     7
 65
   257
 75
     1
175
     1
 42
1.0
 92
       10
 66
     7
 43
1.0
 76
     1
 77
     6
 78
     2
 67
     7
 79
     5
170
     0
171
     0
290
     0
174
     0
 93
        1
 44
0.0
173
     0
291
     1
 45
0.0
1001
ACAD
1000
AcDbSavedByObjectVersion
1070
     0
  0
VISUALSTYLE
  5
FD
102
{ACAD_XDICTIONARY
360
6078
102
}
102
{ACAD_REACTORS
330
EF
102
}
330
EF
100
AcDbVisualStyle
  2
Linepattern
 70
    14
 71
     2
 72
     2
 73
     1
 90
        0
 40
-0.6
 41
-30.0
 62
     5
 63
     7
 74
     1
 91
        4
 64
     7
 65
   257
 75
     7
175
     7
 42
1.0
 92
        8
 66
     7
 43
1.0
 76
     1
 77
     6
 78
     2
 67
     7
 79
     5
170
     0
171
     0
290
     0
174
     0
 93
        1
 44
0.0
173
     0
291
     1
 45
0.0
1001
ACAD
1000
AcDbSavedByObjectVersion
1070
     0
  0
VISUALSTYLE
  5
1E5
102
{ACAD_XDICTIONARY
360
6082
102
}
102
{ACAD_REACTORS
330
EF
102
}
330
EF
100
AcDbVisualStyle
  2
OverhangOff
 70
    21
 71
     2
 72
     2
 73
     0
 90
        0
 40
-0.6
 41
-30.0
 62
     5
 63
     7
 74
     1
 91
        4
 64
     7
 65
   257
 75
     1
175
     1
 42
1.0
 92
        9
 66
     7
 43
1.0
 76
     1
 77
     6
 78
     2
 67
     7
 79
     5
170
     0
171
     0
290
     0
174
     0
 93
        1
 44
0.0
173
     0
291
     1
 45
0.0
1001
ACAD
1000
AcDbSavedByObjectVersion
1070
     0
  0
VISUALSTYLE
  5
F9
102
{ACAD_XDICTIONARY
360
6070
102
}
102
{ACAD_REACTORS
330
EF
102
}
330
EF
100
AcDbVisualStyle
  2
Realistic
 70
     8
 71
     2
 72
     2
 73
     0
 90
        2
 40
-0.6
 41
30.0
 62
     5
 63
     7
 74
     0
 91
        0
 64
     7
 65
   257
 75
     1
175
     1
 42
1.0
 92
        8
 66
   257
 43
1.0
 76
     1
 77
     6
 78
     2
 67
     7
 79
     3
170
     0
171
     0
290
     0
174
     0
 93
       13
 44
0.0
173
     0
291
     0
 45
0.0
1001
ACAD
1000
AcDbSavedByObjectVersion
1070
     0
  0
VISUALSTYLE
  5
1F3
102
{ACAD_XDICTIONARY
360
608E
102
}
102
{ACAD_REACTORS
330
EF
102
}
330
EF
100
AcDbVisualStyle
  2
Shaded
 70
    27
 71
     2
 72
     2
 73
     1
 90
        2
 40
-0.6
 41
30.0
 62
     5
 63
     7
 74
     0
 91
        4
 64
     7
 65
   257
 75
     1
175
     1
 42
1.0
 92
        8
 66
   257
 43
1.0
 76
     1
 77
     6
 78
     2
 67
     8
 79
     3
170
     0
171
     0
290
     0
174
     0
 93
        5
 44
0.0
173
     0
291
     0
 45
0.0
1001
ACAD
1000
AcDbSavedByObjectVersion
1070
     0
  0
VISUALSTYLE
  5
1F2
102
{ACAD_XDICTIONARY
360
608C
102
}
102
{ACAD_REACTORS
330
EF
102
}
330
EF
100
AcDbVisualStyle
  2
Shaded with edges
 70
    26
 71
     2
 72
     2
 73
     1
 90
        2
 40
-0.6
 41
30.0
 62
     5
 63
     7
 74
     1
 91
        2
 64
     7
 65
   257
 75
     2
175
     1
 42
1.0
 92
        8
 66
   257
 43
1.0
 76
     1
 77
     6
 78
     2
 67
     7
 79
     3
170
     0
171
     0
290
     0
174
     0
 93
        5
 44
0.0
173
     0
291
     0
 45
0.0
1001
ACAD
1000
AcDbSavedByObjectVersion
1070
     0
  0
VISUALSTYLE
  5
1EF
102
{ACAD_XDICTIONARY
360
6086
102
}
102
{ACAD_REACTORS
330
EF
102
}
330
EF
100
AcDbVisualStyle
  2
Shades of Gray
 70
    23
 71
     2
 72
     2
 73
     3
 90
        0
 40
-0.6
 41
-30.0
 62
     5
 63
     7
 74
     2
 91
        2
 64
     7
 65
     7
 75
     1
175
     1
 42
40.0
 92
        8
 66
     7
 43
1.0
 76
     1
 77
     6
 78
     2
 67
     7
 79
     3
170
     0
171
     0
290
     0
174
     0
 93
        1
 44
0.0
173
     0
291
     0
 45
0.0
1001
ACAD
1000
AcDbSavedByObjectVersion
1070
     0
  0
VISUALSTYLE
  5
1F0
102
{ACAD_XDICTIONARY
360
6088
102
}
102
{ACAD_REACTORS
330
EF
102
}
330
EF
100
AcDbVisualStyle
  2
Sketchy
 70
    24
 71
     1
 72
     2
 73
     2
 90
        0
 40
-0.6
 41
-30.0
 62
     5
 63
     7
 74
     2
 91
        2
 64
     7
 65
     7
 75
     1
175
     1
 42
40.0
 92
       11
 66
     7
 43
1.0
 76
     1
 77
     6
 78
     2
 67
     7
 79
     6
170
     0
171
     0
290
     0
174
     0
 93
        1
 44
0.0
173
     0
291
     0
 45
0.0
1001
ACAD
1000
AcDbSavedByObjectVersion
1070
     0
  0
VISUALSTYLE
  5
FC
102
{ACAD_XDICTIONARY
360
6076
102
}
102
{ACAD_REACTORS
330
EF
102
}
330
EF
100
AcDbVisualStyle
  2
Thicken
 70
    13
 71
     2
 72
     2
 73
     1
 90
        0
 40
-0.6
 41
-30.0
 62
     5
 63
     7
 74
     1
 91
        4
 64
     7
 65
   257
 75
     1
175
     1
 42
1.0
 92
       12
 66
     7
 43
1.0
 76
     1
 77
     6
 78
     2
 67
     7
 79
     5
170
     0
171
     0
290
     0
174
     0
 93
        1
 44
0.0
173
     0
291
     1
 45
0.0
1001
ACAD
1000
AcDbSavedByObjectVersion
1070
     0
  0
VISUALSTYLE
  5
F6
102
{ACAD_XDICTIONARY
360
606A
102
}
102
{ACAD_REACTORS
330
EF
102
}
330
EF
100
AcDbVisualStyle
  2
Wireframe
 70
     5
 71
     0
 72
     2
 73
     0
 90
        0
 40
-0.6
 41
-30.0
 62
     5
 63
     7
 74
     1
 91
        4
 64
     7
 65
   257
 75
     1
175
     1
 42
1.0
 92
        0
 66
   257
 43
1.0
 76
     1
 77
     6
 78
     2
 67
     7
 79
     3
170
     0
171
     0
290
     0
174
     0
 93
        1
 44
0.0
173
     0
291
     0
 45
0.0
1001
ACAD
1000
AcDbSavedByObjectVersion
1070
     0
  0
VISUALSTYLE
  5
1F1
102
{ACAD_XDICTIONARY
360
608A
102
}
102
{ACAD_REACTORS
330
EF
102
}
330
EF
100
AcDbVisualStyle
  2
X-Ray
 70
    25
 71
     2
 72
     2
 73
     1
 90
        1
 40
0.5
 41
-30.0
 62
     5
 63
     7
 74
     1
 91
        0
 64
     7
 65
   257
 75
     1
175
     1
 42
1.0
 92
        8
 66
     7
 43
1.0
 76
     1
 77
     6
 78
     2
 67
     7
 79
     3
170
     0
171
     0
290
     0
174
     0
 93
       13
 44
0.0
173
     0
291
     0
 45
0.0
1001
ACAD
1000
AcDbSavedByObjectVersion
1070
     0
  0
DICTIONARYVAR
  5
146
102
{ACAD_REACTORS
330
5E
102
}
330
5E
100
DictionaryVariables
280
     0
  1
1:1
  0
DICTIONARYVAR
  5
259
102
{ACAD_REACTORS
330
5E
102
}
330
5E
100
DictionaryVariables
280
     0
  1
3.500000
  0
DICTIONARYVAR
  5
25A
102
{ACAD_REACTORS
330
5E
102
}
330
5E
100
DictionaryVariables
280
     0
  1
acadiso.lin
  0
DICTIONARYVAR
  5
145
102
{ACAD_REACTORS
330
5E
102
}
330
5E
100
DictionaryVariables
280
     0
  1
STANDARD
  0
DICTIONARYVAR
  5
84
102
{ACAD_REACTORS
330
5E
102
}
330
5E
100
DictionaryVariables
280
     0
  1
STANDARD
  0
DICTIONARYVAR
  5
227
102
{ACAD_REACTORS
330
5E
102
}
330
5E
100
DictionaryVariables
280
     0
  1
Metric50
  0
DICTIONARYVAR
  5
228
102
{ACAD_REACTORS
330
5E
102
}
330
5E
100
DictionaryVariables
280
     0
  1
Metric50
  0
DICTIONARYVAR
  5
5F
102
{ACAD_REACTORS
330
5E
102
}
330
5E
100
DictionaryVariables
280
     0
  1
2
  0
DICTIONARYVAR
  5
63
102
{ACAD_REACTORS
330
5E
102
}
330
5E
100
DictionaryVariables
280
     0
  1
1
  0
DICTIONARYVAR
  5
5FFF
102
{ACAD_REACTORS
330
5E
102
}
330
5E
100
DictionaryVariables
280
     0
  1
0
  0
DICTIONARYVAR
  5
1AE
102
{ACAD_REACTORS
330
5E
102
}
330
5E
100
DictionaryVariables
280
     0
  1
0
  0
DICTIONARYVAR
  5
1AF
102
{ACAD_REACTORS
330
5E
102
}
330
5E
100
DictionaryVariables
280
     0
  1
0
  0
DICTIONARYVAR
  5
5FFD
102
{ACAD_REACTORS
330
5E
102
}
330
5E
100
DictionaryVariables
280
     0
  1
2
  0
DICTIONARYVAR
  5
5FFC
102
{ACAD_REACTORS
330
5E
102
}
330
5E
100
DictionaryVariables
280
     0
  1
1
  0
DICTIONARYVAR
  5
604F
102
{ACAD_REACTORS
330
5E
102
}
330
5E
100
DictionaryVariables
280
     0
  1
80.000000
  0
DICTIONARYVAR
  5
604E
102
{ACAD_REACTORS
330
5E
102
}
330
5E
100
DictionaryVariables
280
     0
  1
5.000000
  0
DICTIONARYVAR
  5
5FFE
102
{ACAD_REACTORS
330
5E
102
}
330
5E
100
DictionaryVariables
280
     0
  1
127
  0
DICTIONARYVAR
  5
6050
102
{ACAD_REACTORS
330
5E
102
}
330
5E
100
DictionaryVariables
280
     0
  1
2
  0
DICTIONARY
  5
6092
330
21C
100
AcDbDictionary
280
     1
281
     1
  3
ACAD_XREC_ROUNDTRIP
360
6093
  0
DICTIONARY
  5
6057
330
D3
100
AcDbDictionary
280
     1
281
     1
  3
ACAD_XREC_ROUNDTRIP
360
6058
  0
DICTIONARY
  5
6059
330
D7
100
AcDbDictionary
280
     1
281
     1
  3
ACAD_XREC_ROUNDTRIP
360
605A
  0
DICTIONARY
  5
6054
330
22
100
AcDbDictionary
280
     1
281
     1
  3
ACAD_XREC_ROUNDTRIP
360
6055
  0
DICTIONARY
  5
1F9
330
ED
100
AcDbDictionary
280
     1
281
     1
  3
ACAD_XREC_ROUNDTRIP
360
605C
  3
FBXASSET
360
1FA
  0
DICTIONARY
  5
1F7
330
EC
100
AcDbDictionary
280
     1
281
     1
  3
ACAD_XREC_ROUNDTRIP
360
605B
  3
FBXASSET
360
1F8
  0
DICTIONARY
  5
173
330
EE
100
AcDbDictionary
280
     1
281
     1
  3
ACAD_XREC_ROUNDTRIP
360
605D
  3
BUMPTILE
360
175
  3
DIFFUSETILE
360
174
  3
FBXASSET
360
1FB
  3
OPACITYTILE
360
176
  3
REFLECTIONTILE
360
177
  0
DICTIONARY
  5
607E
330
12E
100
AcDbDictionary
280
     1
281
     1
  3
ACAD_XREC_ROUNDTRIP
360
607F
  0
DICTIONARY
  5
6090
330
21A
100
AcDbDictionary
280
     1
281
     1
  3
ACAD_XREC_ROUNDTRIP
360
6091
  0
DICTIONARY
  5
162
330
7F
100
AcDbDictionary
280
     1
281
     1
  3
ACAD_ROUNDTRIP_2008_TABLESTYLE_CELLSTYLEMAP
360
6051
  3
ACAD_XREC_ROUNDTRIP
360
6056
  0
DICTIONARY
  5
6068
330
F5
100
AcDbDictionary
280
     1
281
     1
  3
ACAD_XREC_ROUNDTRIP
360
6069
  0
DICTIONARY
  5
6066
330
F4
100
AcDbDictionary
280
     1
281
     1
  3
ACAD_XREC_ROUNDTRIP
360
6067
  0
DICTIONARY
  5
6074
330
FB
100
AcDbDictionary
280
     1
281
     1
  3
ACAD_XREC_ROUNDTRIP
360
6075
  0
DICTIONARY
  5
607C
330
FF
100
AcDbDictionary
280
     1
281
     1
  3
ACAD_XREC_ROUNDTRIP
360
607D
  0
DICTIONARY
  5
606E
330
F8
100
AcDbDictionary
280
     1
281
     1
  3
ACAD_XREC_ROUNDTRIP
360
606F
  0
DICTIONARY
  5
6072
330
FA
100
AcDbDictionary
280
     1
281
     1
  3
ACAD_XREC_ROUNDTRIP
360
6073
  0
DICTIONARY
  5
6084
330
1E6
100
AcDbDictionary
280
     1
281
     1
  3
ACAD_XREC_ROUNDTRIP
360
6085
  0
DICTIONARY
  5
607A
330
FE
100
AcDbDictionary
280
     1
281
     1
  3
ACAD_XREC_ROUNDTRIP
360
607B
  0
DICTIONARY
  5
605E
330
F0
100
AcDbDictionary
280
     1
281
     1
  3
ACAD_XREC_ROUNDTRIP
360
605F
  0
DICTIONARY
  5
6060
330
F1
100
AcDbDictionary
280
     1
281
     1
  3
ACAD_XREC_ROUNDTRIP
360
6061
  0
DICTIONARY
  5
6062
330
F2
100
AcDbDictionary
280
     1
281
     1
  3
ACAD_XREC_ROUNDTRIP
360
6063
  0
DICTIONARY
  5
6064
330
F3
100
AcDbDictionary
280
     1
281
     1
  3
ACAD_XREC_ROUNDTRIP
360
6065
  0
DICTIONARY
  5
606C
330
F7
100
AcDbDictionary
280
     1
281
     1
  3
ACAD_XREC_ROUNDTRIP
360
606D
  0
DICTIONARY
  5
6080
330
1E4
100
AcDbDictionary
280
     1
281
     1
  3
ACAD_XREC_ROUNDTRIP
360
6081
  0
DICTIONARY
  5
6078
330
FD
100
AcDbDictionary
280
     1
281
     1
  3
ACAD_XREC_ROUNDTRIP
360
6079
  0
DICTIONARY
  5
6082
330
1E5
100
AcDbDictionary
280
     1
281
     1
  3
ACAD_XREC_ROUNDTRIP
360
6083
  0
DICTIONARY
  5
6070
330
F9
100
AcDbDictionary
280
     1
281
     1
  3
ACAD_XREC_ROUNDTRIP
360
6071
  0
DICTIONARY
  5
608E
330
1F3
100
AcDbDictionary
280
     1
281
     1
  3
ACAD_XREC_ROUNDTRIP
360
608F
  0
DICTIONARY
  5
608C
330
1F2
100
AcDbDictionary
280
     1
281
     1
  3
ACAD_XREC_ROUNDTRIP
360
608D
  0
DICTIONARY
  5
6086
330
1EF
100
AcDbDictionary
280
     1
281
     1
  3
ACAD_XREC_ROUNDTRIP
360
6087
  0
DICTIONARY
  5
6088
330
1F0
100
AcDbDictionary
280
     1
281
     1
  3
ACAD_XREC_ROUNDTRIP
360
6089
  0
DICTIONARY
  5
6076
330
FC
100
AcDbDictionary
280
     1
281
     1
  3
ACAD_XREC_ROUNDTRIP
360
6077
  0
DICTIONARY
  5
606A
330
F6
100
AcDbDictionary
280
     1
281
     1
  3
ACAD_XREC_ROUNDTRIP
360
606B
  0
DICTIONARY
  5
608A
330
1F1
100
AcDbDictionary
280
     1
281
     1
  3
ACAD_XREC_ROUNDTRIP
360
608B
  0
XRECORD
  5
6093
102
{ACAD_REACTORS
330
6092
102
}
330
6092
100
AcDbXrecord
280
     1
102
DISPLAYNAME
  1
Metric50
102
FLAGS
 90
        0
  0
XRECORD
  5
6058
102
{ACAD_REACTORS
330
6057
102
}
330
6057
100
AcDbXrecord
280
     1
102
SHADEPLOT
 70
     0
102
SHADEPLOTRESLEVEL
 70
     2
102
SHADEPLOTCUSTOMDPI
 70
   300
  0
XRECORD
  5
605A
102
{ACAD_REACTORS
330
6059
102
}
330
6059
100
AcDbXrecord
280
     1
102
SHADEPLOT
 70
     0
102
SHADEPLOTRESLEVEL
 70
     2
102
SHADEPLOTCUSTOMDPI
 70
   300
  0
XRECORD
  5
6055
102
{ACAD_REACTORS
330
6054
102
}
330
6054
100
AcDbXrecord
280
     1
102
SHADEPLOT
 70
     0
102
SHADEPLOTRESLEVEL
 70
     2
102
SHADEPLOTCUSTOMDPI
 70
   300
  0
XRECORD
  5
605C
102
{ACAD_REACTORS
330
1F9
102
}
330
1F9
100
AcDbXrecord
280
     1
102
MATERIAL
148
0.0
149
0.0
149
0.0
 93
        0
 94
       63
282
     0
 72
     1
 77
     1
171
     1
175
     1
179
     1
273
     0
  0
XRECORD
  5
1FA
102
{ACAD_REACTORS
330
1F9
102
}
330
1F9
100
AcDbXrecord
280
     1
 70
     1
 90
429727718
  1
D62C5603-E3A1-4AEA-B7FB-FE5D8D0755AF
310
504B03040A0000080000CC70623B3DEE336E79000000790000001B0000006175746F6465736B2D64657369676E2D7061636B6167652E786D6C3C3F786D6C2076657273696F6E3D22312E302220656E636F64696E673D227574662D3822203F3E3C666F726D6174733E3C666F726D61743E687474703A2F2F736368656D612E
310
6175746F6465736B2E636F6D2F64657369676E2D7061636B6167652F323030393C2F666F726D61743E3C2F666F726D6174733E504B0304140006080800CC70623BD486FD9CA0000000F4000000130000005B436F6E74656E745F54797065735D2E786D6C7D8EC10E82300C865F65E91D8A1E8C310C0EEA1BF002731658846E
310
D98AC1B77784ABF1D8FE5FBFBF75BBCE937A534CCEB38643598122B6FEE978D0B0485F9C41B54DDD7D022595594E1A469170414C76A4D9A4D207E29CF43ECE46F218070CC6BECC4078ACAA135ACF422C856C0E68EA1BF5669944DDD7BCDE7B1F8E415D77AECB980613C2E4AC91FC167A2B244592486606FC29C8FD7F045B9A
310
EF7053A7E60B504B0304140006080800CC70623B853B8169EB0000007C01000008000000636F72652E786D6C8D90416EC3201045AF62CDB6C206821CC7C244919D9CA01740401C94182C03558F5F9C3852BBEB6A467FFE9B197D7EFC9E1EC5975982F5AE035262288C535E5B377690E21535501C055FBC8FBF6C503839990E
310
5619041F179FE64D52DE45E362569DD7661365082642A11EB9E920A89B99642953CC8E702F67A9EE7234257977194EC9EAE275C4EABCCF5EAD5940D4AC6F0E35A568B8F43562CD7046CD199FD07E60174276A7BE677B5EADB0E0D14EEFFB6A31321A0D82627C4084204C3F096B71DD52F6819B16635EADF63F509AF53FA164
310
5DDCD1EDDD17164090FCC8732078B56691CB33A85CD7DCC40F504B0304140006080800CC70623B55019EA25F0000007C00000007000000636E782E786D6C4DCB3B0E80201045D1AD90E915ED2CF8AC45050C11660C8261F98AB1B07AC9C97D42D718D865D3E909258CFD00CCE24AC6E326A164D74DC0B4128928FF32603847
310
2BA13128B1252AC747C6BAB984FC68F0B87FE8960A5C09FE86CFB69FBA01504B0304140006080800CC70623BDBABAAF470010000D40300000C0000006662782F636F72652E786D6CC553D16E823014FD95A6AF4B694182CC941A83FA05FB810A9511A125A5257EFE2E82712ECEB8A7F100CD39F7F69E734AF9FADC366850B6
310
AF8DCE7018308C942E4C59EB2AC3DE1D498AD15A706B8CFB56869196ADCAF00863C12B6B7C374385D14E6907A836A59A41D9F7CA615434B0C8705F7CAA5606D23BA8E84F41278B93AC54100640439DE0BDB320004D43C63716C7C399D30917DCFBBA9CD9BA8469F5B156168B24CED3F7248AC8769F27244EB73B92EED8862C
310
B7F13E0C179B3C8F979C8ECD82BBBABDAA2BAC924E9558448CBD9330242CFA08E3154B5651FCC6D215639C8EE5774DBE2B5F6CF2B5768B68963BB5F5588420E442FC700B1139D4CB01F450C1E918227C2E09DF070D8140C84E1E9AAB8F1340832A9CB13130A5F1376A908D57309505ECF2A0DF179C4E9D30F5B239B87E3823
310
7A79C6F31DE1A8A5AEC08474B03C7837EAE4938639B44E5932B833D2C6B6B279CDC613877FA26EE21F4A2A4C63EC7F29A2F301D1F9F7A0E37D145F504B0304140006080800CC70623B9C113CC27E0000009D0000000B0000006662782F636E782E786D6C4DCCDF0A83201C86E15B91DFB94BFB330DD428C8FB886521330DA7
310
6397BF1A1DECE883878F57749FCDA1B7892F1BBC047A23808C7F84D9FA55424E0BE6803A256208E9EF06C84F9B91703228B1C690F78B66B34CD9A5439DF5CF0BFBF65E35BCA1B8D6A5C6F540381E886698B5741C695F9503EBA150A2F8958E3DC3EA0B504B0304140006080800CC70623B7DF2F77C2A010000120200003100
310
00006662782F41393633353835312D344632462D344230382D423046372D3739314545314133324237412F636F72652E786D6C8D51DB8EC22014FC15C2939B0D2DB4B45643319AE817EC0F6041255A68B86CFCFC856D4D76DF7CE190393373060EDB3DC707F856CE6B6B7A480A0C81328395DA5C7B18C3057510EC3873D686
310
3F34088C18550F330C39BB3A1BA7051AAC09CA84841A2BD5020AEF55806078A44B0FFD7053A328440C89E1EFC52486BBB8AA8214A99D789CF9E05200300FC927E4FB4D5B375D43103D5527440FB843077C5AA3F5861C8F645F5787F59E95B390B318B55CE45AA638FAA2957BD7248B390B7A7CC51F9C124149C82B8C378810
310
84AB2F42B7B8DD56F413775B8C5999E9FF4471926F8AA236A1AE96B8B3CC434E5839373893369E1FAF30EA395917409EB7F26AF8801C171837A4A6AC9C89E9F9C9B1A58BA30FD6A5EF5DDDCF894B9AD9B6A59C957943A9FCAE2FD5BC4DFE03504B0304140006080800CC70623BAD7543B64E01000033030000300000006662
310
782F41393633353835312D344632462D344230382D423046372D3739314545314133324237412F636E782E786D6CD593CD6EC32010845F0571AD6CE3D48AD20813A9873E410FBD12D82434182C7EAAE6EDBB2424CD25871E7B41D6EC30B3FA84F9E67BB2E40B4234DE8DB46F1925E094D7C6ED479AD3AE5951B2113C789FEE
310
6C943839C1488B4C05DF079FE72A69D8C96C13AAD6B8631503449F83828872B949AC57D26200B826A308D316B4064D6E46FCDA41C05550DC9E483A00797BFD207EFB092A45DE9514C1BBD22178396BD39D891265658C238DEA00936C654E5E433CB65A26D9F6EDB5EBC14EBF49A45CB856E66048291F6939A9A81BB5C89177
310
38143CA680F4AA299D66A042CEB3354A2684DC9D8D178FE0D9B8B41CAAD720F880EE7EF93C0C18769E099ECC04D5A102C8049A8A05632F4DDF376CF1DE0F6BB65C2F8627B65A33C6BB62177CEBBDAD973006829F89F22E814B54F4BC2BE347F8AA8F681390B50FA73F804400B5F542E796F19FF974E7F78DB802FE05E20750
310
4B0304140006080800CC70623BE75B7789680500003C100000340000006662782F41393633353835312D344632462D344230382D423046372D3739314545314133324237412F6F626A656374732E786D6CAD575B8F9B3818FD2B887D06C22499CB8AA1CA655245D5B455A356FB305264C061D8018C6C3393D95FBFC7600890
310
A4CD5EF210B0B1BFEBF98E3F7B1FF6596ABC522E1296DF9BAE3D320D9A872C4AF2F8DE2CE5CEBA358D0FBEC719939D65A691938CDE9B6ADAF4BD98B3B2D05311DD91329583D9D5FC0F438434A7A611A644887B5384CF34233629258BA878B12322891DEFF6B66BD70BFB62634E8AE781D082709A4B588AF91C528CDA28B73F
310
1C998EEF39EABBEFA97FBD6A7C7E9553F9D3D79FE442923C3C523610337627CB87ABE99D359D4CC6D6E4FACAB5E6ABF9D2726FC6A3C5F56271377BB88362213924694B38DD99FE47C48627A1E7D49F5A8BB5E1A74C0A599ED3B0F21F1E56366B89112D681E218F0915D0D6F17AD41FBA2A369DCF6335D62ABBD39779D5DDD1
310
11D4D8DE3CBB96B2E04FB8202E41051754A1AA8E8F76B4C6DFE810B580B1547F4B84911149794252234D024EF8BBE963A95AE27B3D310A9D5C215C7960FAEE415ED75694C6AFB17BCACA5D99A60A9AA65F217B0BFC53292ACB92BF283FAD0D3621576592CB5BED907C2FA8E9DF794E35E97BEA31BED21FEB401ABB94C44839
310
DCACBF0E1C5DA8DA5B2F4DFFD32AD86F543D9E565E7056502E157C00AD2671CD534549AB752FCA9CDA00677A313F04E51B22FF19E57B300579E3C97EB29F682D92935CEC18CF901B7B54FD8C51F362B56FC72FE0B3C1EAE335EDCCBF5AEC39ADB17DC238973F804BA5E6F6BFE7AF1FB32E523BE9F3BD571418E3631DCA4D48
310
5250CF639223210A9446CA30052EDF057BD35F8329C1ECD84552BF0DC8D18BE7BCE23BFE6BD960AB4A7DE79923A103BEBD80F911CBAA2C60DB19B01CF164A5583B772EE6D3FFA56666CBCDA74DC97724A48F9A58967497E489C4D979006FD7A05E227A1EBDD0F737C623387A9C844D3709995625106D157315F8B8392CD4E0
310
A0B9A720C4BE9829CEF37EA1E13111214D53925356365ADA634861B52519DD27A00AEB808EAF0628E6F435519D446F45CF2C9CF5214F0A15B2F6D06B79DA3EE3CBF7F56780D2F4E7EF73A0F5E5B02A38D07DC852C6B7C1FBB6664213E0C39E3EBA7FF4E1AD23EA2829407C85E586727488B751B2DB9502BC7B228A3FD68B6E
310
A65A22397E690AA8D158D7E404EC8CDA235CC3B7D1898680131CEC2CDF2638C65196279577750F15884AEE19F94199155B92B13297978469D4F8D358DF0AEF7631E28DC8F0D9F437D5D39A83B2231A1D52D543813A824EF8D44BCFF2FA6A31BD1E8DAD87F1CCB526B3879935BF59CDADD5C37479BB1CDD4CA7B3556B516589
310
EF352754B706114D9C885EC9131DE6EFEB43D99AFE2391C2F958179413D7CFEF6B1B6DB1E7600F00DE6E5C67454A339A4BA2E0FBA85ED26F045D454F463DBFCE484C2F90F2E5E3666003662ED8F755951A7D1BECD5B30B550B2785C8E7320B7292A4838DDA71BBC863ED7613CAF659337A3354231D4FF4A182A54904C2898C
310
98B28C4AD0CE056CCF332A80986E571EE9DBC305BB5FEB7E509220A58D25CF042D712A806AC0AD0C657FDEF80D2D9CEAA2EE4D1C76F60BFE74219A06527D6F82DF6412526107381E55E353090704D085B52408A8913C4ED159D79BDA71BB4BC506F4831350EB6F975CD22D69BF7AC49B91A2C0A9DDA3D5CA36AD20FC478E37
310
E61844E2352865EBCB61A275A65283CAAA9DD27703B4102F5AF51EF5F573B75CBB5AD38BC845F7A49F82A0966A49C2E3EA5EA0ECD326CD965F1DB402C6FA8B51A4658C5C5E2EC9E214602E55810345408596591009A82E7E7FFACA19EEA299B14A0081A705CB3296EBC14CDF658DCD336EA6D1136881AAEB87B81AB9EE53D5
310
F5EB8BC8362082DA24122F98680A4E7930C01A0079749CEA14382A0783E5EBA5A10F8C098456A03D6A4AEB6BB881E2513747552A5DB22C7EDAF83BD5528081A365F7FF06504B0304140006080000CC70623B000000000000000000000000350000006662782F41393633353835312D344632462D344230382D423046372D37
310
39314545314133324237412F76657274696365732E62696E504B0304140006080800CC70623BF270F1330600000004000000360000006662782F41393633353835312D344632462D344230382D423046372D3739314545314133324237412F747269616E676C65732E62696E636660600000504B0304140006080000CC7062
310
3B000000000000000000000000370000006662782F41393633353835312D344632462D344230382D423046372D3739314545314133324237412F617474726962757465732E62696E504B0304140006080800CC70623B08DA0BD19000000041010000360000006662782F41393633353835312D344632462D344230382D4230
310
46372D3739314545314133324237412F6469726563746F72792E786D6C858F410AC3201045AF22B36F53E9A60B35CBEEBAE80D244E44489C6234F4F835464A48035D0DF398FF9F8AF63D0E6CC63039F212F8F9020C7D47C6792B21C5FE7403D62A1188E2E60C98D7234A5830286103A55745067B9D86B8A3CF9C7F90C11DE6
310
07FB144396D7B6A82D282E9A152AD114D5EF2CB866EEE831B8EEA07A7BB5A8D7D61A2BAAEB7FD5F70921FF497D00504B0304140006080800CC70623BEDD1DC58FD000000A00100003B0000006662782F41393633353835312D344632462D344230382D423046372D3739314545314133324237412F7265736F75726365732F
310
636F72652E786D6C8D504B6E833010BD0A9A6D65B00922041947112427E8052C33A156828DFCA97AFC9A40A576D7CDCCE87D344F8F9FBFE667F689CE6B6B3A6039850C8DB2A336530731DC4903D95970676DF82583CCC8193B5861107C72362E3BA4AC096842428D1D7107A5F7182053CF7474E0D507CE32973124857FE48B
310
540F3961CEF244279DE03EB81420DB9EAC1384436FA353E879B1B182C7A8C75DA3C7F453DF353A1075D537A7BA6464B8F535A99AE14A9A2BBD90E350DD183B5CFABE3AF262350B1EF4FC9351399401471025A527C218A1E53BAB5A5AB765F5469B96525EACF23FA6B88CFF34456DC2A1DCE36E360F82A5202F42F062ED2BAD
310
579969AFDD8A6F504B010214000A0000080000CC70623B3DEE336E79000000790000001B00000000000000000000000000000000006175746F6465736B2D64657369676E2D7061636B6167652E786D6C504B01021400140006080800CC70623BD486FD9CA0000000F40000001300000000000000000000000000B20000005B
310
436F6E74656E745F54797065735D2E786D6C504B01021400140006080800CC70623B853B8169EB0000007C010000080000000000000000000000000083010000636F72652E786D6C504B01021400140006080800CC70623B55019EA25F0000007C000000070000000000000000000000000094020000636E782E786D6C504B
310
01021400140006080800CC70623BDBABAAF470010000D40300000C00000000000000000000000000180300006662782F636F72652E786D6C504B01021400140006080800CC70623B9C113CC27E0000009D0000000B00000000000000000000000000B20400006662782F636E782E786D6C504B01021400140006080800CC70
310
623B7DF2F77C2A010000120200003100000000000000000000000000590500006662782F41393633353835312D344632462D344230382D423046372D3739314545314133324237412F636F72652E786D6C504B01021400140006080800CC70623BAD7543B64E010000330300003000000000000000000000000000D2060000
310
6662782F41393633353835312D344632462D344230382D423046372D3739314545314133324237412F636E782E786D6C504B01021400140006080800CC70623BE75B7789680500003C10000034000000000000000000000000006E0800006662782F41393633353835312D344632462D344230382D423046372D3739314545
310
314133324237412F6F626A656374732E786D6C504B01021400140006080000CC70623B0000000000000000000000003500000000000000000000000000280E00006662782F41393633353835312D344632462D344230382D423046372D3739314545314133324237412F76657274696365732E62696E504B01021400140006
310
080800CC70623BF270F133060000000400000036000000000000000000000000007B0E00006662782F41393633353835312D344632462D344230382D423046372D3739314545314133324237412F747269616E676C65732E62696E504B01021400140006080000CC70623B0000000000000000000000003700000000000000
310
000000000000D50E00006662782F41393633353835312D344632462D344230382D423046372D3739314545314133324237412F617474726962757465732E62696E504B01021400140006080800CC70623B08DA0BD1900000004101000036000000000000000000000000002A0F00006662782F41393633353835312D344632
310
462D344230382D423046372D3739314545314133324237412F6469726563746F72792E786D6C504B01021400140006080800CC70623BEDD1DC58FD000000A00100003B000000000000000000000000000E1000006662782F41393633353835312D344632462D344230382D423046372D3739314545314133324237412F7265
310
736F75726365732F636F72652E786D6C504B0506000000000E000E0080040000641100000000
  0
XRECORD
  5
605B
102
{ACAD_REACTORS
330
1F7
102
}
330
1F7
100
AcDbXrecord
280
     1
102
MATERIAL
148
0.0
149
0.0
149
0.0
 93
        0
 94
       63
282
     0
 72
     1
 77
     1
171
     1
175
     1
179
     1
273
     0
  0
XRECORD
  5
1F8
102
{ACAD_REACTORS
330
1F7
102
}
330
1F7
100
AcDbXrecord
280
     1
 70
     1
 90
429727718
  1
30362254-06B7-45E0-A893-8CFA70E3D6BC
310
504B03040A0000080000CC70623B3DEE336E79000000790000001B0000006175746F6465736B2D64657369676E2D7061636B6167652E786D6C3C3F786D6C2076657273696F6E3D22312E302220656E636F64696E673D227574662D3822203F3E3C666F726D6174733E3C666F726D61743E687474703A2F2F736368656D612E
310
6175746F6465736B2E636F6D2F64657369676E2D7061636B6167652F323030393C2F666F726D61743E3C2F666F726D6174733E504B0304140006080800CC70623BD486FD9CA0000000F4000000130000005B436F6E74656E745F54797065735D2E786D6C7D8EC10E82300C865F65E91D8A1E8C310C0EEA1BF002731658846E
310
D98AC1B77784ABF1D8FE5FBFBF75BBCE937A534CCEB38643598122B6FEE978D0B0485F9C41B54DDD7D022595594E1A469170414C76A4D9A4D207E29CF43ECE46F218070CC6BECC4078ACAA135ACF422C856C0E68EA1BF5669944DDD7BCDE7B1F8E415D77AECB980613C2E4AC91FC167A2B244592486606FC29C8FD7F045B9A
310
EF7053A7E60B504B0304140006080800CC70623B1EC5D7A3EB0000007C01000008000000636F72652E786D6C8D90416EC3201045AF82665B6103C6756C6122AB4D4ED00B204C5C94182C03558F5F9C3852BBEB6A467FFE9B197D71FC9E6FE8CBACC17AD7032D0820E3B41FAD9B7A48F1820F808E52ACDEC75F36404ECDA687
310
4D0629A6D5A76597B477D1B89855E747B38B2A041301E95B6E7A08FAD3CCAA50296647B8168BD2573599823EBB0CA76447F43862C7BCCF5EAC59410E4DDD9C7973C2755553CCCFA4C603E3040F1565ED3B1FDE4E432BCA0D9622DAF9795FAF464533826484B498524CD807E51D79ED187F21878E10516EF63F505AC67F42C9
310
BA58B1FDDD071640D2FCC87D2045B96591CB3DA85CB7DCE40F504B0304140006080800CC70623B55019EA25F0000007C00000007000000636E782E786D6C4DCB3B0E80201045D1AD90E915ED2CF8AC45050C11660C8261F98AB1B07AC9C97D42D718D865D3E909258CFD00CCE24AC6E326A164D74DC0B4128928FF32603847
310
2BA13128B1252AC747C6BAB984FC68F0B87FE8960A5C09FE86CFB69FBA01504B0304140006080800CC70623B8C9102E971010000D40300000C0000006662782F636F72652E786D6CC5535B6E833010BC8AE5DF0A6C08340F1947A84D4ED00B38C6A128602363A31CBFCB234A53A551FA553EC09AD9F5CE8C31DB9E9B1AF5CA
310
7695D1198E428A91D2D214952E33ECDD315861B4E5CC1AE3BE9561A445A3323CC098B3D21ADFCE9034DA29ED00D5A6503328BA4E398C640D8B0C77F253352214DE4145770A5B214FA2546114020D759C75CE8200340D19DE981F0F6746269C33EFAB6266AB02A655C74A59CCF365BADC27CB5D902ED22848F6340DF238A141
310
BE88E2F57B92BFEDF23523433367AE6A2EEAA455C2A902F398D2751045018D3FA264435F3771F242571B4A1919CA6F9A7C5B3CD9E42BED16F12C776AEB308F40C848FC700B1139D4891EF410CEC810227CC6846F8386402064270EF5C5C709A05E49676C024C61FC95EA45ED154CA5211D1FF4FB8291A913A68E9B83EBBB33
310
E2A7673CDE118E5AE8124C0807CB8377834E366998436B950D7A7746DAD846D4CFD978E0F04FD455FC5D49D2D4C6FE9722321F10997F0F32DC47FE05504B0304140006080800CC70623BFFEA85907E0000009D0000000B0000006662782F636E782E786D6C4DCCD10A83201886E15B91FFDC95D95A811AB6F23E625948A6C3
310
E9D8E5AF46073BFAE0E1E365ED67B3E8ADC3CB78C7815C7240DA3DFC64DCC221C519D7805AC182F7F1EF06C88D9BE6703008B6049F9E274D7A1E938DBB5AE3D6131B2589BA0D3D965551E0B2EA732C9B9A624AAEB41E3A557677029960D9AFB4EF11165F504B0304140006080800CC70623B4FEEA4082C0100001202000031
310
0000006662782F39464131463745442D413632322D343644302D413938332D3331353338454246344243312F636F72652E786D6C8D515B6EC32010BC0AE2AB55850DD871ED0813254D72825EC00192A2C460F1A872FC42ED48ED5F7E00CDCECCCEB26C731F6FE05B39AFADE921293004CA082BB5B9F43086336A21D870E6AC
310
0D7F68109861543DCC30E4ECE26C9C164858139409093556AA051CBC570102714B8F1E7AF1A5C6A11862480C7F2DA6415C878B2A4891CA89C7990F2E050073937C42DE1DB7E4F87ED8A36D4329AA9B3D46DBAEAD504556557BD81DEBDD0761E52CE42C462D17B996298E3E6BE59E35C962CE821E1FF18553435012728A7187
310
0841987E927A8D9B35ADDF70BBC6989599FE4F1427F9A4286A132ABAC49D651EF234CD5CE04CDA78BA3DC2A8FB645D00B9DF8B57E215725C60BCA2A463E54C4CE327C7A65E1C7DB02E7DEFCBF594B864C5CA6CDBD49C957943E9FA5D5FBAF336F90F504B0304140006080800CC70623BAD7543B64E01000033030000300000
310
006662782F39464131463745442D413632322D343644302D413938332D3331353338454246344243312F636E782E786D6CD593CD6EC32010845F0571AD6CE3D48AD20813A9873E410FBD12D82434182C7EAAE6EDBB2424CD25871E7B41D6EC30B3FA84F9E67BB2E40B4234DE8DB46F1925E094D7C6ED479AD3AE5951B2113C
310
789FEE6C943839C1488B4C05DF079FE72A69D8C96C13AAD6B8631503449F83828872B949AC57D26200B826A308D316B4064D6E46FCDA41C05550DC9E483A00797BFD207EFB092A45DE9514C1BBD22178396BD39D891265658C238DEA00936C654E5E433CB65A26D9F6EDB5EBC14EBF49A45CB856E66048291F6939A9A81BB5
310
C8917738143CA680F4AA299D66A042CEB3354A2684DC9D8D178FE0D9B8B41CAAD720F880EE7EF93C0C18769E099ECC04D5A102C8049A8A05632F4DDF376CF1DE0F6BB65C2F8627B65A33C6BB62177CEBBDAD973006829F89F22E814B54F4BC2BE347F8AA8F681390B50FA73F804400B5F542E796F19FF974E7F78DB802FE05
310
E207504B0304140006080800CC70623B16AB87BA640500003C100000340000006662782F39464131463745442D413632322D343644302D413938332D3331353338454246344243312F6F626A656374732E786D6CAD575B6FA33818FD2B887DE6924B3BED8A326A92B68A663B534DD4D13E548A0C38942D60649B369D5FBFC7
310
600890A493BDE42160637FD7F31D7FF63E6FB3D478A55C242CBF3247B66B1A340F5994E4F19559CA8D75611A9F7D8F33263BCB4C232719BD32D5B4E97B316765A1A722BA21652A07B3B7B33F0D11D29C9A46981221AE4C113ED38CD8A4942CA2E2C58E882476BCD9DA23BB5ED8171B73523C0F841684D35CC252CCE79062D4
310
468DFA43D7747CCF51DF7D4FFDEB5593E3AB9CCA9FBEFE241792E4E19EB28198C968BAB8199F5D5A67D3E9C49A9E8F47D6EC76B6B0469F26EEFC7C3EBFBCBEB98462213924694B38DD98FE1D62C393D073EA4FADC5DAF04326852CCF6958F90F0F2B9BB5C48816348F90C7840A68EB78EDF68723159BCEE7891A6B95DDE9D3
310
BCEAEEE8086A6C6F9E5D4B59F0175C10A7A0820BAA5055C7473B5AE3CFDD452D602CD5DF12616444529E90D448938013FE6EFA58AA96F85E4F8C42275708571E98FE6827AF6B2B4AE3D7D83D64E5A64C53054DD3AF90BD06FEA9149565C94FCA0F6B834DC85599E4F2423B24DF0B6AFA979E534DFA9E7A4CC6FA631D486393
310
921829879BF5D781A373557BCB85E97FB90DB62B558F8795179C15944B051F40AB495CF35451D26A4727654E6D8033BD98EF82F21D91FF8AF2DD9982BCF1643BDD4EB516C9492E368C67C88DED563FC36D5EACF66DFF057C3658BDBFA69DF9578B3DA735B64F18C7F20770A9D45CFCF7FCF563D6456A277DBEF78A02637CA2
310
43B90A490AEAB94F72244481D24819A6C0E59B606BFA4B3025981DBB48EAB701D97BF19C577CC77F2D1B6C55A9EF3C732474C0B727303F625995056C3B02963D9EAC146BE78EC5FCEC7FA999EBC5EACBAAE41B12D27B4D2C0BBA49F244E2ECDC81B76B502F113D8F5EE8FB1BE3111CDD4FC2AA9B844CAB1288B68AB90A7CDC
310
1C166AB0D3DC5310625FCC14E779BFD0709F8890A629C9292B1B2DED31A4B0DA928CEE135085754027E3018A397D4D5427D15BD1330B677DC8934285AC3DF45A9EB68FF8F2B8FC0A509AFEECFD0FF2DE25CC6047F7214B195F07EFEB9A094D800F7BFAE8FED187B78EA8A3A400F115961BCAD1215E47C966530AF0EE8128FE
310
58CEBB996A8964FFA529A046635D9353B0336A8F700DDF46271A024E70B0B37C9DE01847591E54DED53D54202AB947E4076556AC49C6CA5C9E1226B7F1A7B1BE15DEED62C41B91E1B3E9AFAAA735036547343A925075041DF0A9979E893B391F8FCFA6967B3EFB644DCF6E5CEBFAE272625DCC6FAF3FB93793C5F90CE1EF57
310
407342756B10D1C489E8953CD1617E5CEECAD6F4EF8914CE5D5D504E5C3F1F9736DA62CFC11E00BCDDB8CC8A9466349744C1F75EBDA4DF09BA8A9E8C7A7E9991989E20E5DBDD6A6003664ED8F7A04A8DBE0DF6EAD9B9AA858342E47399053949D2C146EDB85DE4B176BB0965FBAC19BD19AA918E27FA50C1D22402E144464C
310
59462568E704B6E71915404CB72B8FF4EDE184DDAF753F284990D2C6926782963815403548A70C657FDEF80D2D9CEAA2AE4C1C76F60BFE74219A06527D6582DF6412526107381E55E353090704D085B52408D0933C4ED159D79BDA71BB4BC506F4831350EB6F979CD22D69BF7AC49B91A2C0A9DDA3D5CA36AD20FC478E37E6
310
1844E2352865EBCB6EA275A652E3836BE04EFB400BF1A2556F515F1FBB35B2AB35BD889C744FFA1004B5544B121E57F70215746DD2F5E2C1412B602CBF19455AC6C8E5E9922C4E01E65215385004546899059180EAFCF7A707CE7017CD8CDB0410789AB32C63B91E5CEBBBACB17AC6CD347A022D5075FD106377347AAABA7E
310
7D11590744509B44E205134DC1290F06580320F78E537D3D73540E06CB970B431F185308AD40BBD794D6D77003C5A36E8EAA54BA64597CD8F83BD552A080A365F7FF06504B0304140006080000CC70623B000000000000000000000000350000006662782F39464131463745442D413632322D343644302D413938332D3331
310
353338454246344243312F76657274696365732E62696E504B0304140006080800CC70623BF270F1330600000004000000360000006662782F39464131463745442D413632322D343644302D413938332D3331353338454246344243312F747269616E676C65732E62696E636660600000504B0304140006080000CC70623B
310
000000000000000000000000370000006662782F39464131463745442D413632322D343644302D413938332D3331353338454246344243312F617474726962757465732E62696E504B0304140006080800CC70623B08DA0BD19000000041010000360000006662782F39464131463745442D413632322D343644302D413938
310
332D3331353338454246344243312F6469726563746F72792E786D6C858F410AC3201045AF22B36F53E9A60B35CBEEBAE80D244E44489C6234F4F835464A48035D0DF398FF9F8AF63D0E6CC63039F212F8F9020C7D47C6792B21C5FE7403D62A1188E2E60C98D7234A5830286103A55745067B9D86B8A3CF9C7F90C11DE607
310
FB144396D7B6A82D282E9A152AD114D5EF2CB866EEE831B8EEA07A7BB5A8D7D61A2BAAEB7FD5F70921FF497D00504B0304140006080800CC70623B0D6EF93BFE000000A00100003B0000006662782F39464131463745442D413632322D343644302D413938332D3331353338454246344243312F7265736F75726365732F63
310
6F72652E786D6C8D50596E833010BD0A9ADFCA60B334011947A8694ED00B586642AC041B79A97AFC9A40A5F6AF3F33A3B7689E1E3F7DCD8FEC139DD7D6F4C0720A191A65476DA61E62B892236427C19DB5E1970C322367EC618541F0C9D9B8EC90B226A009093576C41D94DE63804C3DD2D18357379C652E63480A7FCF17A9
310
EE72C29CE5894E3AC17D702940B63D59270887DE46A7D0F36263058F518FBB468FE9A7BE6A7420864373B8D4873369AA8691FA421B3294352543C5CAF65C0F6FEF43CB8BD52C78D0F34F46E550061C419494B6843142CB0F5677F4B52BEB177AEC28E5C52AFF638ACBF84F53D42654E51E77B379102C05791282176B5F693D
310
CB4C7BED567C03504B010214000A0000080000CC70623B3DEE336E79000000790000001B00000000000000000000000000000000006175746F6465736B2D64657369676E2D7061636B6167652E786D6C504B01021400140006080800CC70623BD486FD9CA0000000F40000001300000000000000000000000000B20000005B
310
436F6E74656E745F54797065735D2E786D6C504B01021400140006080800CC70623B1EC5D7A3EB0000007C010000080000000000000000000000000083010000636F72652E786D6C504B01021400140006080800CC70623B55019EA25F0000007C000000070000000000000000000000000094020000636E782E786D6C504B
310
01021400140006080800CC70623B8C9102E971010000D40300000C00000000000000000000000000180300006662782F636F72652E786D6C504B01021400140006080800CC70623BFFEA85907E0000009D0000000B00000000000000000000000000B30400006662782F636E782E786D6C504B01021400140006080800CC70
310
623B4FEEA4082C0100001202000031000000000000000000000000005A0500006662782F39464131463745442D413632322D343644302D413938332D3331353338454246344243312F636F72652E786D6C504B01021400140006080800CC70623BAD7543B64E010000330300003000000000000000000000000000D5060000
310
6662782F39464131463745442D413632322D343644302D413938332D3331353338454246344243312F636E782E786D6C504B01021400140006080800CC70623B16AB87BA640500003C1000003400000000000000000000000000710800006662782F39464131463745442D413632322D343644302D413938332D3331353338
310
454246344243312F6F626A656374732E786D6C504B01021400140006080000CC70623B0000000000000000000000003500000000000000000000000000270E00006662782F39464131463745442D413632322D343644302D413938332D3331353338454246344243312F76657274696365732E62696E504B01021400140006
310
080800CC70623BF270F133060000000400000036000000000000000000000000007A0E00006662782F39464131463745442D413632322D343644302D413938332D3331353338454246344243312F747269616E676C65732E62696E504B01021400140006080000CC70623B0000000000000000000000003700000000000000
310
000000000000D40E00006662782F39464131463745442D413632322D343644302D413938332D3331353338454246344243312F617474726962757465732E62696E504B01021400140006080800CC70623B08DA0BD190000000410100003600000000000000000000000000290F00006662782F39464131463745442D413632
310
322D343644302D413938332D3331353338454246344243312F6469726563746F72792E786D6C504B01021400140006080800CC70623B0D6EF93BFE000000A00100003B000000000000000000000000000D1000006662782F39464131463745442D413632322D343644302D413938332D3331353338454246344243312F7265
310
736F75726365732F636F72652E786D6C504B0506000000000E000E0080040000641100000000
  0
XRECORD
  5
605D
102
{ACAD_REACTORS
330
173
102
}
330
173
100
AcDbXrecord
280
     1
102
MATERIAL
148
0.0
149
0.0
149
0.0
 93
        0
 94
       63
282
     0
 72
     1
 77
     1
171
     1
175
     1
179
     1
273
     0
  0
XRECORD
  5
175
102
{ACAD_REACTORS
330
173
102
}
330
173
100
AcDbXrecord
280
     1
270
     1
271
     1
  0
XRECORD
  5
174
102
{ACAD_REACTORS
330
173
102
}
330
173
100
AcDbXrecord
280
     1
270
     1
271
     1
  0
XRECORD
  5
1FB
102
{ACAD_REACTORS
330
173
102
}
330
173
100
AcDbXrecord
280
     1
 70
     0
 90
1673772943
  1
ECE7A1D2-D628-4531-984C-D00F80459256
310
504B03040A0000080000CC70623B3DEE336E79000000790000001B0000006175746F6465736B2D64657369676E2D7061636B6167652E786D6C3C3F786D6C2076657273696F6E3D22312E302220656E636F64696E673D227574662D3822203F3E3C666F726D6174733E3C666F726D61743E687474703A2F2F736368656D612E
310
6175746F6465736B2E636F6D2F64657369676E2D7061636B6167652F323030393C2F666F726D61743E3C2F666F726D6174733E504B0304140006080800CC70623BD486FD9CA0000000F4000000130000005B436F6E74656E745F54797065735D2E786D6C7D8EC10E82300C865F65E91D8A1E8C310C0EEA1BF002731658846E
310
D98AC1B77784ABF1D8FE5FBFBF75BBCE937A534CCEB38643598122B6FEE978D0B0485F9C41B54DDD7D022595594E1A469170414C76A4D9A4D207E29CF43ECE46F218070CC6BECC4078ACAA135ACF422C856C0E68EA1BF5669944DDD7BCDE7B1F8E415D77AECB980613C2E4AC91FC167A2B244592486606FC29C8FD7F045B9A
310
EF7053A7E60B504B0304140006080800CC70623BD9DDAED0EC0000007C01000008000000636F72652E786D6C8D90416EC3201045AF82665B61836D9CD8C2444DD39CA01740405C94182C03558F5F9C3852BBEB6A467FFE9B197D7EF89E6EE8CB2CC17A37002D0820E394D7D68D03A478C17B4007C117EFE32F1B20272733C0
310
2A83E0E3E2D3BC49CABB685CCCAAF3DA6CA20CC14440EA969B0182FA34932C648AD911AEC52CD5558EA6A0CF2EC329598D1E47ACCEFBECC59A050463A7EA5833865FEBDD0E37353BE3EE8DBDE3F6786A48D375FBF6CC78B9C282473B3DEFABC5C86834888A900E538A49F5419B9EB47DD5BC907D4F082F57FB1F28CDFA9F50
310
B22ED6D5F6EE030B20687EE43E10BC5CB3C8E51E54AE6B6EE207504B0304140006080800CC70623B55019EA25F0000007C00000007000000636E782E786D6C4DCB3B0E80201045D1AD90E915ED2CF8AC45050C11660C8261F98AB1B07AC9C97D42D718D865D3E909258CFD00CCE24AC6E326A164D74DC0B4128928FF326038
310
472BA13128B1252AC747C6BAB984FC68F0B87FE8960A5C09FE86CFB69FBA01504B0304140006080800CC70623BA24EB22D72010000D40300000C0000006662782F636F72652E786D6CC5535B6E833010BC8AE5DF0A6C5E49888CA3A6694ED00B38E05014B091B1518EDFE511A5A9D228FD2A1F60CDEC7A67C6986DCE4D8D7A
310
69BA4AAB0C073EC548AA5C17952A33ECECD15B61B4E1CC686DBF9561A44423333CC098B3D268D7CE50AE9595CA02AA74216750749DB418E5352C32DCE59FB211BE70162ABA93DF8AFC244AE9073ED050C759670D0840D390E18DF9F1706664C23973AE2A66B62A605A75ACA4C13C4976E1364A12EF355A2EBD384AF65EFA96
310
BC7B8BED2EA6719AAE16FB8491A199335B351775B991C2CA02F390D2D40B028F861F41BCA68B7518BFD0D59A524686F29B26D7164F36B94AD9289CE54E6D1DE6010819891F6E21228B3AD1831EC219194284CF98F06DD01008846CC5A1BEF83801D4CBDC6A1303536877A57A513B0953A94FC707FDBE6064EA84A9E3E6E0FA
310
EE8CF0E9198F7784A316AA0413C2C2F2E0ECA0934D1AE6D05A69BCDE9E91D2A611F573361E38FC1375157F5752AE6B6DFE4B11990F88CCBF0719EE23FF02504B0304140006080800CC70623B408A7D3B7C0000009D0000000B0000006662782F636E782E786D6C4DCCD10A83201886E15B91FFDC552A92A0064DBC8F581632
310
D3703A76F9ABD1C18E3E78F878E5F0D9027ABBFCF2292AE86E2D20171F69F6715550CB827B40839639A5F2770314A7CD293819B45C73AAFB45B35BA61ACAA1C1C7E7855C58C15BC331339661262CC762340413D68D77DA5B42298546CBE6573AF60CEB2F504B0304140006080800CC70623B449FB9BD290100001202000031
310
0000006662782F36394639363044362D344446342D343946362D394244322D3234314243333846323333332F636F72652E786D6C8D515B6EC32010BC0AE22B55850D98B871848994463E412FE002495162B07854397EA176A4F62F3F2C9A9D991D587EB84F37F0AD7D30CEF6905418026DA553C65E7A98E219ED203808EE9D
310
8B7F6810D871D23D2C3014FCE25D9A57483A1BB58D19B54EE9151C43D0110279CB971E06F9A5A7B11A53CC8C70ADE6515EC78BAE4895DB992778883E0700CB907242D17643D7E2538BD869608875438BBAE38922CAC8F1BDD90DB4691A5E2F42C153326A951B95E398B3D1FE599322163C9AE9115F7A3D46ADA0A018778810
310
84E907617BDCEE297BC5BB3DC6BC2EF47FA234AB2745C9D8D8D035EE220B50105E2F0DC1954B9FB747187D9F9D8FA0CCDB042D5FA0C015C65B42DF78BD10F3F3B363CB56C7109DCFDFBBB97E662ED92EB62D13BC2E1BCAE5777DB9966D8A1F504B0304140006080800CC70623BAD7543B64E01000033030000300000006662
310
782F36394639363044362D344446342D343946362D394244322D3234314243333846323333332F636E782E786D6CD593CD6EC32010845F0571AD6CE3D48AD20813A9873E410FBD12D82434182C7EAAE6EDBB2424CD25871E7B41D6EC30B3FA84F9E67BB2E40B4234DE8DB46F1925E094D7C6ED479AD3AE5951B2113C789FEE
310
6C943839C1488B4C05DF079FE72A69D8C96C13AAD6B8631503449F83828872B949AC57D26200B826A308D316B4064D6E46FCDA41C05550DC9E483A00797BFD207EFB092A45DE9514C1BBD22178396BD39D891265658C238DEA00936C654E5E433CB65A26D9F6EDB5EBC14EBF49A45CB856E66048291F6939A9A81BB5C89177
310
38143CA680F4AA299D66A042CEB3354A2684DC9D8D178FE0D9B8B41CAAD720F880EE7EF93C0C18769E099ECC04D5A102C8049A8A05632F4DDF376CF1DE0F6BB65C2F8627B65A33C6BB62177CEBBDAD973006829F89F22E814B54F4BC2BE347F8AA8F681390B50FA73F804400B5F542E796F19FF974E7F78DB802FE05E20750
310
4B0304140006080800CC70623B8D05915C650500003B100000340000006662782F36394639363044362D344446342D343946362D394244322D3234314243333846323333332F6F626A656374732E786D6CAD575B6FA33814FE2B887D06429276DA1565D4266D158D3A339A6846FB502932E050B66023DB74D2FDF5FB190C01
310
9276B2973C046C8ECFF53B17071F77456EBD502133CEAE6CDF9DD81665314F32965ED995DA3A17B6F5310C04E7AA47665B8C14F4CAD6DB7618A48257A5D94AE89654B91AEDDEDDFC61C998326A5B714EA4BCB265FC440BE2924AF184CA6737218AB8E976E7FA6E4338649B0A523E8D98964450A6A029F619B8588D52FE7039
310
B1BD30F0F4F730D0FF866AF6369557DB33949F31A9088B0F848DD8CCFCF9F2767A76E99CCDE733677E3EF59D9BBB9BA5E37F984D16E78BC5E5F5ED25044B25C0C96822E8D60EEFE11B91C581D77CEA34368A1F5329E68CD1B8B61F16D63A1B8E092D294B10C78C4A48EB593D192E7DED9BDEE7995E1B91FDEDD3ACEA9FE831
310
6A756F9F7D4D79F4274C90A7A04248AA51D5F8C718DAE06FB2F75AC4796EBE65D22A88A22223B995679120E2D50E41AA49C260C046A35368846B0BECD0DFF3EBEB8AD4F835768F69B9ADF25C43D30E6B646F807FAA64AD59F61715C7A54127C4AACA98BA3006A9D792DAE165E0D59B61A01FB3A9F9D838D2DAE62445C86166
310
F37564E842E7DE6A69879FEEA2DD5AE7E371E1A5E025154AC307D06A03D73EB5978C58FFA4C8E9033066E0F3BD53BEC1F39F91BE7B55103791EDE6BBB991A2046172CB4581D8B893FA674DDA17A77B3B7C413D1B511FD2743BFF8A38F03A658705E3ADF8015C3A3417FF3D7E439FF591DA0B5F18BC20C1B8981957AE6392A3
310
F43C640C01D1A0B4728E2DD4F26DB4B3C3152A252A3B4E913CEC1C72F012782FF88EFF8637AA552DBEF76408E8A8DE9E50F9E1CB3A2DA0DB1B6039A893B56063DC5B3E3FFB5F72E67AB9FEB4AEC496C4F4C1149625DD662C53E89D7BF0F6151A046260D1337DFDC94502430F83B0EE07A130A224BCAD7DAE1D9FB6CD422FF6
310
920702629C4BB9AE79C12F243C6432A6794E18E5552BA56B431AAB5D91317302B2B071E86C3A42B1A02F999E24061403B5D0EB639195DA655DD3EBEAB4FB862DDF579F014AD0E73C22F99E28DA57FB98E75C6CA2D74D53086D600F4786E0FE3144B771A8A7B900F03594DB8A633CBC49B2EDB69228BB479CF863B5E807AAAB
310
23872F6DFEB4129B949CA33823F58830E86D65621E10047D9DB34D862E8EAC3C2ABC2F7B2C40D67CDFE01F5545B92105AF983AC54D93D69E56FB8E797F88913F898A9FEC705D3F9D1B54EC8426FB500D40A03BD0119B06E1B95DDC7EB8F6975367793EBD70E66733DFB9BC982F9CE564727731999F5D4ECFCE3B8D6A4DC2A0
310
6D50FD148437D110834A64C6CDDF57FBACB5C307A2A477DFE4939736CFEF2B175371E0E10CF0DD1D5C15654E0BCA14D1E87DD02FF93782A162C0A3D95F1524A52770F972BF1EE9809D13CE7DD599467F8ECE9ADD85CE85A34CD45355448C64F9E8A031DC2D596ACC6E5DD93D9B82DE2EF5CAF81363A8E47996A0DE24564A79
310
4115AACE09C55E14540231FDA13C319787134EBF34E3A022514E5B4D9E0826E25C02D5805B15ABE1BEF51B26383D445DD9E875EE33FE4C22DA16427D65A3BCA92CA6D28DD01DF5DC53330704308475351050232CCD31583787BA75774AFB06E5070DD0C8EF484E19968C5D83BA5B90B244D31E54D55A372320FE4786B7EA58
310
44E135AA5467CB7EA333A61683CC6A8C3257034C10CF46F40EF9F5BE59BE5BD30C3C72D235E95D10345C1D45445A5F0BB47E46A5EBE5570F9380B5FA629579952296A773720405982B9DE04011506178964401AA8BDF1FBF0A8EAB6861DD6580C0E38217056766716DAEB2D6FA0917D3E4116581EADB879C4E7CFFB11EFACD
310
3D641311495D92C8676CB409A72D18610D803CE8A626049E8EC1887CB5B44CC39883690DDA8399B4B9855B481E7D71D4A9D22F96E5BB73BF5793020C02137BF837504B0304140006080000CC70623B000000000000000000000000350000006662782F36394639363044362D344446342D343946362D394244322D32343142
310
43333846323333332F76657274696365732E62696E504B0304140006080800CC70623BF270F1330600000004000000360000006662782F36394639363044362D344446342D343946362D394244322D3234314243333846323333332F747269616E676C65732E62696E636660600000504B0304140006080000CC70623B0000
310
00000000000000000000370000006662782F36394639363044362D344446342D343946362D394244322D3234314243333846323333332F617474726962757465732E62696E504B0304140006080800CC70623B08DA0BD19000000041010000360000006662782F36394639363044362D344446342D343946362D394244322D
310
3234314243333846323333332F6469726563746F72792E786D6C858F410AC3201045AF22B36F53E9A60B35CBEEBAE80D244E44489C6234F4F835464A48035D0DF398FF9F8AF63D0E6CC63039F212F8F9020C7D47C6792B21C5FE7403D62A1188E2E60C98D7234A5830286103A55745067B9D86B8A3CF9C7F90C11DE607FB14
310
4396D7B6A82D282E9A152AD114D5EF2CB866EEE831B8EEA07A7BB5A8D7D61A2BAAEB7FD5F70921FF497D00504B0304140006080800CC70623BCA768048FE000000A00100003B0000006662782F36394639363044362D344446342D343946362D394244322D3234314243333846323333332F7265736F75726365732F636F72
310
652E786D6C8D50596E833010BD0A9ADFCA60D600328E9AA639412F609909B1126CE4A5EAF16B0295DABFFECC8CDEA2797AECF8353F924FB44E193D409E5248504B332A3D0D10FC95B4901C39B3C6F85F3248B49871801506CE266BC2B243D2688FDA47549B11775038871E12F988C7004EDE7016A9083E2ADC3D5D84BC8B09
310
D33C8D74D471E6BC8D0192EDC93A815B742658898E651BCB59086ADC356A8C3FD555A1055ED7E7E254D615792D0F075295F585746FF53B694EE78A565DD736979A65AB9933AFE69F8CD2A2F038022F28ED489E135A7CE4554F9BBEA85E68DB53CAB255FEC71496F19FA6A0B42F8B3DEE6673C0F318E4497096AD7DC5F52C33
310
EEB55BFE0D504B010214000A0000080000CC70623B3DEE336E79000000790000001B00000000000000000000000000000000006175746F6465736B2D64657369676E2D7061636B6167652E786D6C504B01021400140006080800CC70623BD486FD9CA0000000F40000001300000000000000000000000000B20000005B436F
310
6E74656E745F54797065735D2E786D6C504B01021400140006080800CC70623BD9DDAED0EC0000007C010000080000000000000000000000000083010000636F72652E786D6C504B01021400140006080800CC70623B55019EA25F0000007C000000070000000000000000000000000095020000636E782E786D6C504B0102
310
1400140006080800CC70623BA24EB22D72010000D40300000C00000000000000000000000000190300006662782F636F72652E786D6C504B01021400140006080800CC70623B408A7D3B7C0000009D0000000B00000000000000000000000000B50400006662782F636E782E786D6C504B01021400140006080800CC70623B
310
449FB9BD290100001202000031000000000000000000000000005A0500006662782F36394639363044362D344446342D343946362D394244322D3234314243333846323333332F636F72652E786D6C504B01021400140006080800CC70623BAD7543B64E010000330300003000000000000000000000000000D20600006662
310
782F36394639363044362D344446342D343946362D394244322D3234314243333846323333332F636E782E786D6C504B01021400140006080800CC70623B8D05915C650500003B10000034000000000000000000000000006E0800006662782F36394639363044362D344446342D343946362D394244322D32343142433338
310
46323333332F6F626A656374732E786D6C504B01021400140006080000CC70623B0000000000000000000000003500000000000000000000000000250E00006662782F36394639363044362D344446342D343946362D394244322D3234314243333846323333332F76657274696365732E62696E504B010214001400060808
310
00CC70623BF270F13306000000040000003600000000000000000000000000780E00006662782F36394639363044362D344446342D343946362D394244322D3234314243333846323333332F747269616E676C65732E62696E504B01021400140006080000CC70623B00000000000000000000000037000000000000000000
310
00000000D20E00006662782F36394639363044362D344446342D343946362D394244322D3234314243333846323333332F617474726962757465732E62696E504B01021400140006080800CC70623B08DA0BD190000000410100003600000000000000000000000000270F00006662782F36394639363044362D344446342D
310
343946362D394244322D3234314243333846323333332F6469726563746F72792E786D6C504B01021400140006080800CC70623BCA768048FE000000A00100003B000000000000000000000000000B1000006662782F36394639363044362D344446342D343946362D394244322D3234314243333846323333332F7265736F
310
75726365732F636F72652E786D6C504B0506000000000E000E0080040000621100000000
  0
XRECORD
  5
176
102
{ACAD_REACTORS
330
173
102
}
330
173
100
AcDbXrecord
280
     1
270
     1
271
     1
  0
XRECORD
  5
177
102
{ACAD_REACTORS
330
173
102
}
330
173
100
AcDbXrecord
280
     1
270
     1
271
     1
  0
XRECORD
  5
607F
102
{ACAD_REACTORS
330
607E
102
}
330
607E
100
AcDbXrecord
280
     1
102
ACAD_ROUNDTRIP_2012_MLEADER_STYLE
298
     1
  0
XRECORD
  5
6091
102
{ACAD_REACTORS
330
6090
102
}
330
6090
100
AcDbXrecord
280
     1
102
DISPLAYNAME
  1
Metric50
102
FLAGS
 90
        0
  0
CELLSTYLEMAP
  5
6051
102
{ACAD_REACTORS
330
162
102
}
330
162
100
AcDbCellStyleMap
 90
        3
300
CELLSTYLE
  1
TABLEFORMAT_BEGIN
 90
        5
170
     1
 91
        0
 92
    32768
 62
   257
 93
        1
300
CONTENTFORMAT
  1
CONTENTFORMAT_BEGIN
 90
        0
 91
        0
 92
      512
 93
        0
300

 40
0.0
140
1.0
 94
        5
 62
     0
340
11
144
6.0
309
CONTENTFORMAT_END
171
     1
301
MARGIN
  1
CELLMARGIN_BEGIN
 40
1.5
 40
1.5
 40
1.5
 40
1.5
 40
4.5
 40
4.5
309
CELLMARGIN_END
 94
        6
 95
        1
302
GRIDFORMAT
  1
GRIDFORMAT_BEGIN
 90
        0
 91
        1
 62
     0
 92
       -2
340
14
 93
        0
 40
1.125
309
GRIDFORMAT_END
 95
        2
302
GRIDFORMAT
  1
GRIDFORMAT_BEGIN
 90
        0
 91
        1
 62
     0
 92
       -2
340
14
 93
        0
 40
1.125
309
GRIDFORMAT_END
 95
        4
302
GRIDFORMAT
  1
GRIDFORMAT_BEGIN
 90
        0
 91
        1
 62
     0
 92
       -2
340
14
 93
        0
 40
1.125
309
GRIDFORMAT_END
 95
        8
302
GRIDFORMAT
  1
GRIDFORMAT_BEGIN
 90
        0
 91
        1
 62
     0
 92
       -2
340
14
 93
        0
 40
1.125
309
GRIDFORMAT_END
 95
       16
302
GRIDFORMAT
  1
GRIDFORMAT_BEGIN
 90
        0
 91
        1
 62
     0
 92
       -2
340
14
 93
        0
 40
1.125
309
GRIDFORMAT_END
 95
       32
302
GRIDFORMAT
  1
GRIDFORMAT_BEGIN
 90
        0
 91
        1
 62
     0
 92
       -2
340
14
 93
        0
 40
1.125
309
GRIDFORMAT_END
309
TABLEFORMAT_END
  1
CELLSTYLE_BEGIN
 90
        1
 91
        1
300
_TITLE
309
CELLSTYLE_END
300
CELLSTYLE
  1
TABLEFORMAT_BEGIN
 90
        5
170
     1
 91
        0
 92
        0
 62
   257
 93
        1
300
CONTENTFORMAT
  1
CONTENTFORMAT_BEGIN
 90
        0
 91
        0
 92
      512
 93
        0
300

 40
0.0
140
1.0
 94
        5
 62
     0
340
11
144
4.5
309
CONTENTFORMAT_END
171
     1
301
MARGIN
  1
CELLMARGIN_BEGIN
 40
1.5
 40
1.5
 40
1.5
 40
1.5
 40
4.5
 40
4.5
309
CELLMARGIN_END
 94
        6
 95
        1
302
GRIDFORMAT
  1
GRIDFORMAT_BEGIN
 90
        0
 91
        1
 62
     0
 92
       -2
340
14
 93
        0
 40
1.125
309
GRIDFORMAT_END
 95
        2
302
GRIDFORMAT
  1
GRIDFORMAT_BEGIN
 90
        0
 91
        1
 62
     0
 92
       -2
340
14
 93
        0
 40
1.125
309
GRIDFORMAT_END
 95
        4
302
GRIDFORMAT
  1
GRIDFORMAT_BEGIN
 90
        0
 91
        1
 62
     0
 92
       -2
340
14
 93
        0
 40
1.125
309
GRIDFORMAT_END
 95
        8
302
GRIDFORMAT
  1
GRIDFORMAT_BEGIN
 90
        0
 91
        1
 62
     0
 92
       -2
340
14
 93
        0
 40
1.125
309
GRIDFORMAT_END
 95
       16
302
GRIDFORMAT
  1
GRIDFORMAT_BEGIN
 90
        0
 91
        1
 62
     0
 92
       -2
340
14
 93
        0
 40
1.125
309
GRIDFORMAT_END
 95
       32
302
GRIDFORMAT
  1
GRIDFORMAT_BEGIN
 90
        0
 91
        1
 62
     0
 92
       -2
340
14
 93
        0
 40
1.125
309
GRIDFORMAT_END
309
TABLEFORMAT_END
  1
CELLSTYLE_BEGIN
 90
        2
 91
        1
300
_HEADER
309
CELLSTYLE_END
300
CELLSTYLE
  1
TABLEFORMAT_BEGIN
 90
        5
170
     1
 91
        0
 92
        0
 62
   257
 93
        1
300
CONTENTFORMAT
  1
CONTENTFORMAT_BEGIN
 90
        0
 91
        0
 92
      512
 93
        0
300

 40
0.0
140
1.0
 94
        2
 62
     0
340
11
144
4.5
309
CONTENTFORMAT_END
171
     1
301
MARGIN
  1
CELLMARGIN_BEGIN
 40
1.5
 40
1.5
 40
1.5
 40
1.5
 40
4.5
 40
4.5
309
CELLMARGIN_END
 94
        6
 95
        1
302
GRIDFORMAT
  1
GRIDFORMAT_BEGIN
 90
        0
 91
        1
 62
     0
 92
       -2
340
14
 93
        0
 40
1.125
309
GRIDFORMAT_END
 95
        2
302
GRIDFORMAT
  1
GRIDFORMAT_BEGIN
 90
        0
 91
        1
 62
     0
 92
       -2
340
14
 93
        0
 40
1.125
309
GRIDFORMAT_END
 95
        4
302
GRIDFORMAT
  1
GRIDFORMAT_BEGIN
 90
        0
 91
        1
 62
     0
 92
       -2
340
14
 93
        0
 40
1.125
309
GRIDFORMAT_END
 95
        8
302
GRIDFORMAT
  1
GRIDFORMAT_BEGIN
 90
        0
 91
        1
 62
     0
 92
       -2
340
14
 93
        0
 40
1.125
309
GRIDFORMAT_END
 95
       16
302
GRIDFORMAT
  1
GRIDFORMAT_BEGIN
 90
        0
 91
        1
 62
     0
 92
       -2
340
14
 93
        0
 40
1.125
309
GRIDFORMAT_END
 95
       32
302
GRIDFORMAT
  1
GRIDFORMAT_BEGIN
 90
        0
 91
        1
 62
     0
 92
       -2
340
14
 93
        0
 40
1.125
309
GRIDFORMAT_END
309
TABLEFORMAT_END
  1
CELLSTYLE_BEGIN
 90
        3
 91
        2
300
_DATA
309
CELLSTYLE_END
  0
XRECORD
  5
6056
102
{ACAD_REACTORS
330
162
102
}
330
162
100
AcDbXrecord
280
     1
102
ACAD_ROUNDTRIP_PRE2007_TABLESTYLE
 90
      512
 91
        0
  1

 92
      512
 93
        0
  2

 94
      512
 95
        0
  3

  0
XRECORD
  5
6069
102
{ACAD_REACTORS
330
6068
102
}
330
6068
100
AcDbXrecord
280
     1
102
RTVSPost2010Prop28
280
     1
102
RTVSPost2010PropOp28
 70
     1
102
RTVSPost2010Prop29
280
     1
102
RTVSPost2010PropOp29
 70
     1
102
RTVSPost2010Prop30
280
     0
102
RTVSPost2010PropOp30
 70
     1
102
RTVSPost2010Prop31
280
     0
102
RTVSPost2010PropOp31
 70
     1
102
RTVSPost2010Prop32
280
     0
102
RTVSPost2010PropOp32
 70
     1
102
RTVSPost2010Prop33
280
     0
102
RTVSPost2010PropOp33
 70
     1
102
RTVSPost2010Prop34
280
     0
102
RTVSPost2010PropOp34
 70
     1
102
RTVSPost2010Prop35
280
     0
102
RTVSPost2010PropOp35
 70
     1
102
RTVSPost2010Prop36
280
     0
102
RTVSPost2010PropOp36
 70
     1
102
RTVSPost2010Prop37
 90
       50
102
RTVSPost2010PropOp37
 70
     1
102
RTVSPost2010Prop38
140
0.0
102
RTVSPost2010PropOp38
 70
     1
102
RTVSPost2010Prop39
140
1.0
102
RTVSPost2010PropOp39
 70
     1
102
RTVSPost2010Prop40
 90
        0
102
RTVSPost2010PropOp40
 70
     1
102
RTVSPost2010Prop41ColorIndex
 90
       18
102
RTVSPost2010Prop41ColorRGB
 90
        0
102
RTVSPost2010PropOp41
 70
     1
102
RTVSPost2010Prop42
 90
       50
102
RTVSPost2010PropOp42
 70
     1
102
RTVSPost2010Prop43
 90
        3
102
RTVSPost2010PropOp43
 70
     1
102
RTVSPost2010Prop44ColorIndex
 90
        5
102
RTVSPost2010Prop44ColorRGB
 90
      255
102
RTVSPost2010PropOp44
 70
     1
102
RTVSPost2010Prop45
280
     0
102
RTVSPost2010PropOp45
 70
     1
102
RTVSPost2010Prop46
 90
       50
102
RTVSPost2010PropOp46
 70
     1
102
RTVSPost2010Prop47
 90
       50
102
RTVSPost2010PropOp47
 70
     1
102
RTVSPost2010Prop48
 90
       50
102
RTVSPost2010PropOp48
 70
     1
102
RTVSPost2010Prop49
280
     0
102
RTVSPost2010PropOp49
 70
     1
102
RTVSPost2010Prop50
 90
       50
102
RTVSPost2010PropOp50
 70
     1
102
RTVSPost2010Prop51ColorIndex
 90
      256
102
RTVSPost2010Prop51ColorRGB
 90
-16777216
102
RTVSPost2010PropOp51
 70
     0
102
RTVSPost2010Prop52
140
1.0
102
RTVSPost2010PropOp52
 70
     0
102
RTVSPost2010Prop53
 90
        2
102
RTVSPost2010PropOp53
 70
     1
102
RTVSPost2010Prop54
  1
strokes_ogs.tif
102
RTVSPost2010PropOp54
 70
     1
102
RTVSPost2010Prop55
280
     0
102
RTVSPost2010PropOp55
 70
     1
102
RTVSPost2010Prop56
140
1.0
102
RTVSPost2010PropOp56
 70
     1
102
RTVSPost2010Prop57
140
1.0
102
RTVSPost2010PropOp57
 70
     1
102
RTVSPropertyOp0
 70
     1
102
RTVSPropertyOp1
 70
     1
102
RTVSPropertyOp2
 70
     1
102
RTVSPropertyOp3
 70
     1
102
RTVSPropertyOp4
 70
     1
102
RTVSPropertyOp5
 70
     1
102
RTVSPropertyOp6
 70
     1
102
RTVSPropertyOp7
 70
     1
102
RTVSPropertyOp8
 70
     1
102
RTVSPropertyOp9
 70
     1
102
RTVSPropertyOp10
 70
     1
102
RTVSPropertyOp11
 70
     1
102
RTVSPropertyOp12
 70
     1
102
RTVSPropertyOp13
 70
     1
102
RTVSPropertyOp14
 70
     1
102
RTVSPropertyOp15
 70
     1
102
RTVSPropertyOp16
 70
     1
102
RTVSPropertyOp17
 70
     1
102
RTVSPropertyOp18
 70
     1
102
RTVSPropertyOp19
 70
     1
102
RTVSPropertyOp20
 70
     1
102
RTVSPropertyOp21
 70
     1
102
RTVSPropertyOp22
 70
     1
102
RTVSPropertyOp23
 70
     1
102
RTVSPropertyOp24
 70
     1
102
RTVSPropertyOp25
 70
     1
102
RTVSPropertyOp26
 70
     1
102
RTVSPropertyOp27
 70
     1
102
RTVSPropertyOp28
 70
     1
102
RTVSPropertyOp29
 70
     1
102
RTVSPropertyOp30
 70
     1
102
RTVSPropertyOp31
 70
     1
102
RTVSPropertyOp32
 70
     1
102
RTVSPropertyOp33
 70
     1
102
RTVSPropertyOp34
 70
     1
102
RTVSPropertyOp35
 70
     1
102
RTVSPropertyOp36
 70
     1
102
RTVSPropertyOp37
 70
     1
102
RTVSPropertyOp38
 70
     1
102
RTVSPropertyOp39
 70
     1
102
RTVSPropertyOp40
 70
     1
102
RTVSPropertyOp41
 70
     1
102
RTVSPropertyOp42
 70
     1
102
RTVSPropertyOp43
 70
     1
102
RTVSPropertyOp44
 70
     1
102
RTVSPropertyOp45
 70
     1
102
RTVSPropertyOp46
 70
     1
102
RTVSPropertyOp47
 70
     1
102
RTVSPropertyOp48
 70
     1
102
RTVSPropertyOp49
 70
     1
102
RTVSPropertyOp50
 70
     1
102
RTVSPropertyOp51
 70
     0
102
RTVSPropertyOp52
 70
     0
102
RTVSPropertyOp53
 70
     1
102
RTVSPropertyOp54
 70
     1
102
RTVSPropertyOp55
 70
     1
102
RTVSPropertyOp56
 70
     1
102
RTVSPropertyOp57
 70
     1
102
RTVSPropertyOp58
 70
     1
102
RTVSPropertyOp59
 70
     1
102
RTVSPropertyOp60
 70
     1
102
RTVSPropertyOp61
 70
     1
102
RTVSPropertyOp62
 70
     1
  0
XRECORD
  5
6067
102
{ACAD_REACTORS
330
6066
102
}
330
6066
100
AcDbXrecord
280
     1
102
RTVSPost2010Prop28
280
     0
102
RTVSPost2010PropOp28
 70
     1
102
RTVSPost2010Prop29
280
     1
102
RTVSPost2010PropOp29
 70
     1
102
RTVSPost2010Prop30
280
     1
102
RTVSPost2010PropOp30
 70
     1
102
RTVSPost2010Prop31
280
     0
102
RTVSPost2010PropOp31
 70
     1
102
RTVSPost2010Prop32
280
     0
102
RTVSPost2010PropOp32
 70
     1
102
RTVSPost2010Prop33
280
     0
102
RTVSPost2010PropOp33
 70
     1
102
RTVSPost2010Prop34
280
     0
102
RTVSPost2010PropOp34
 70
     1
102
RTVSPost2010Prop35
280
     0
102
RTVSPost2010PropOp35
 70
     1
102
RTVSPost2010Prop36
280
     0
102
RTVSPost2010PropOp36
 70
     1
102
RTVSPost2010Prop37
 90
       50
102
RTVSPost2010PropOp37
 70
     1
102
RTVSPost2010Prop38
140
0.0
102
RTVSPost2010PropOp38
 70
     1
102
RTVSPost2010Prop39
140
1.0
102
RTVSPost2010PropOp39
 70
     1
102
RTVSPost2010Prop40
 90
        0
102
RTVSPost2010PropOp40
 70
     1
102
RTVSPost2010Prop41ColorIndex
 90
       18
102
RTVSPost2010Prop41ColorRGB
 90
        0
102
RTVSPost2010PropOp41
 70
     1
102
RTVSPost2010Prop42
 90
       50
102
RTVSPost2010PropOp42
 70
     1
102
RTVSPost2010Prop43
 90
        3
102
RTVSPost2010PropOp43
 70
     1
102
RTVSPost2010Prop44ColorIndex
 90
        5
102
RTVSPost2010Prop44ColorRGB
 90
      255
102
RTVSPost2010PropOp44
 70
     1
102
RTVSPost2010Prop45
280
     0
102
RTVSPost2010PropOp45
 70
     1
102
RTVSPost2010Prop46
 90
       50
102
RTVSPost2010PropOp46
 70
     1
102
RTVSPost2010Prop47
 90
       50
102
RTVSPost2010PropOp47
 70
     1
102
RTVSPost2010Prop48
 90
       50
102
RTVSPost2010PropOp48
 70
     1
102
RTVSPost2010Prop49
280
     0
102
RTVSPost2010PropOp49
 70
     1
102
RTVSPost2010Prop50
 90
       50
102
RTVSPost2010PropOp50
 70
     1
102
RTVSPost2010Prop51ColorIndex
 90
      256
102
RTVSPost2010Prop51ColorRGB
 90
-16777216
102
RTVSPost2010PropOp51
 70
     0
102
RTVSPost2010Prop52
140
1.0
102
RTVSPost2010PropOp52
 70
     0
102
RTVSPost2010Prop53
 90
        2
102
RTVSPost2010PropOp53
 70
     1
102
RTVSPost2010Prop54
  1
strokes_ogs.tif
102
RTVSPost2010PropOp54
 70
     1
102
RTVSPost2010Prop55
280
     0
102
RTVSPost2010PropOp55
 70
     1
102
RTVSPost2010Prop56
140
1.0
102
RTVSPost2010PropOp56
 70
     1
102
RTVSPost2010Prop57
140
1.0
102
RTVSPost2010PropOp57
 70
     1
102
RTVSPropertyOp0
 70
     1
102
RTVSPropertyOp1
 70
     1
102
RTVSPropertyOp2
 70
     1
102
RTVSPropertyOp3
 70
     1
102
RTVSPropertyOp4
 70
     1
102
RTVSPropertyOp5
 70
     1
102
RTVSPropertyOp6
 70
     1
102
RTVSPropertyOp7
 70
     1
102
RTVSPropertyOp8
 70
     1
102
RTVSPropertyOp9
 70
     1
102
RTVSPropertyOp10
 70
     1
102
RTVSPropertyOp11
 70
     1
102
RTVSPropertyOp12
 70
     1
102
RTVSPropertyOp13
 70
     1
102
RTVSPropertyOp14
 70
     1
102
RTVSPropertyOp15
 70
     1
102
RTVSPropertyOp16
 70
     1
102
RTVSPropertyOp17
 70
     1
102
RTVSPropertyOp18
 70
     1
102
RTVSPropertyOp19
 70
     1
102
RTVSPropertyOp20
 70
     1
102
RTVSPropertyOp21
 70
     1
102
RTVSPropertyOp22
 70
     1
102
RTVSPropertyOp23
 70
     1
102
RTVSPropertyOp24
 70
     1
102
RTVSPropertyOp25
 70
     1
102
RTVSPropertyOp26
 70
     1
102
RTVSPropertyOp27
 70
     1
102
RTVSPropertyOp28
 70
     1
102
RTVSPropertyOp29
 70
     1
102
RTVSPropertyOp30
 70
     1
102
RTVSPropertyOp31
 70
     1
102
RTVSPropertyOp32
 70
     1
102
RTVSPropertyOp33
 70
     1
102
RTVSPropertyOp34
 70
     1
102
RTVSPropertyOp35
 70
     1
102
RTVSPropertyOp36
 70
     1
102
RTVSPropertyOp37
 70
     1
102
RTVSPropertyOp38
 70
     1
102
RTVSPropertyOp39
 70
     1
102
RTVSPropertyOp40
 70
     1
102
RTVSPropertyOp41
 70
     1
102
RTVSPropertyOp42
 70
     1
102
RTVSPropertyOp43
 70
     1
102
RTVSPropertyOp44
 70
     1
102
RTVSPropertyOp45
 70
     1
102
RTVSPropertyOp46
 70
     1
102
RTVSPropertyOp47
 70
     1
102
RTVSPropertyOp48
 70
     1
102
RTVSPropertyOp49
 70
     1
102
RTVSPropertyOp50
 70
     1
102
RTVSPropertyOp51
 70
     0
102
RTVSPropertyOp52
 70
     0
102
RTVSPropertyOp53
 70
     1
102
RTVSPropertyOp54
 70
     1
102
RTVSPropertyOp55
 70
     1
102
RTVSPropertyOp56
 70
     1
102
RTVSPropertyOp57
 70
     1
102
RTVSPropertyOp58
 70
     1
102
RTVSPropertyOp59
 70
     1
102
RTVSPropertyOp60
 70
     1
102
RTVSPropertyOp61
 70
     1
102
RTVSPropertyOp62
 70
     1
  0
XRECORD
  5
6075
102
{ACAD_REACTORS
330
6074
102
}
330
6074
100
AcDbXrecord
280
     1
102
RTVSPost2010Prop28
280
     0
102
RTVSPost2010PropOp28
 70
     1
102
RTVSPost2010Prop29
280
     1
102
RTVSPost2010PropOp29
 70
     1
102
RTVSPost2010Prop30
280
     1
102
RTVSPost2010PropOp30
 70
     1
102
RTVSPost2010Prop31
280
     0
102
RTVSPost2010PropOp31
 70
     1
102
RTVSPost2010Prop32
280
     0
102
RTVSPost2010PropOp32
 70
     1
102
RTVSPost2010Prop33
280
     0
102
RTVSPost2010PropOp33
 70
     1
102
RTVSPost2010Prop34
280
     0
102
RTVSPost2010PropOp34
 70
     1
102
RTVSPost2010Prop35
280
     0
102
RTVSPost2010PropOp35
 70
     1
102
RTVSPost2010Prop36
280
     0
102
RTVSPost2010PropOp36
 70
     1
102
RTVSPost2010Prop37
 90
       50
102
RTVSPost2010PropOp37
 70
     1
102
RTVSPost2010Prop38
140
0.0
102
RTVSPost2010PropOp38
 70
     1
102
RTVSPost2010Prop39
140
1.0
102
RTVSPost2010PropOp39
 70
     1
102
RTVSPost2010Prop40
 90
        0
102
RTVSPost2010PropOp40
 70
     1
102
RTVSPost2010Prop41ColorIndex
 90
       18
102
RTVSPost2010Prop41ColorRGB
 90
        0
102
RTVSPost2010PropOp41
 70
     1
102
RTVSPost2010Prop42
 90
       50
102
RTVSPost2010PropOp42
 70
     1
102
RTVSPost2010Prop43
 90
        3
102
RTVSPost2010PropOp43
 70
     1
102
RTVSPost2010Prop44ColorIndex
 90
        5
102
RTVSPost2010Prop44ColorRGB
 90
      255
102
RTVSPost2010PropOp44
 70
     1
102
RTVSPost2010Prop45
280
     0
102
RTVSPost2010PropOp45
 70
     1
102
RTVSPost2010Prop46
 90
       50
102
RTVSPost2010PropOp46
 70
     1
102
RTVSPost2010Prop47
 90
       50
102
RTVSPost2010PropOp47
 70
     1
102
RTVSPost2010Prop48
 90
       50
102
RTVSPost2010PropOp48
 70
     1
102
RTVSPost2010Prop49
280
     0
102
RTVSPost2010PropOp49
 70
     1
102
RTVSPost2010Prop50
 90
       50
102
RTVSPost2010PropOp50
 70
     1
102
RTVSPost2010Prop51ColorIndex
 90
      256
102
RTVSPost2010Prop51ColorRGB
 90
-16777216
102
RTVSPost2010PropOp51
 70
     0
102
RTVSPost2010Prop52
140
1.0
102
RTVSPost2010PropOp52
 70
     0
102
RTVSPost2010Prop53
 90
        2
102
RTVSPost2010PropOp53
 70
     1
102
RTVSPost2010Prop54
  1
strokes_ogs.tif
102
RTVSPost2010PropOp54
 70
     1
102
RTVSPost2010Prop55
280
     0
102
RTVSPost2010PropOp55
 70
     1
102
RTVSPost2010Prop56
140
1.0
102
RTVSPost2010PropOp56
 70
     1
102
RTVSPost2010Prop57
140
1.0
102
RTVSPost2010PropOp57
 70
     1
102
RTVSPropertyOp0
 70
     1
102
RTVSPropertyOp1
 70
     1
102
RTVSPropertyOp2
 70
     1
102
RTVSPropertyOp3
 70
     1
102
RTVSPropertyOp4
 70
     1
102
RTVSPropertyOp5
 70
     1
102
RTVSPropertyOp6
 70
     1
102
RTVSPropertyOp7
 70
     1
102
RTVSPropertyOp8
 70
     1
102
RTVSPropertyOp9
 70
     1
102
RTVSPropertyOp10
 70
     1
102
RTVSPropertyOp11
 70
     1
102
RTVSPropertyOp12
 70
     1
102
RTVSPropertyOp13
 70
     1
102
RTVSPropertyOp14
 70
     1
102
RTVSPropertyOp15
 70
     1
102
RTVSPropertyOp16
 70
     1
102
RTVSPropertyOp17
 70
     1
102
RTVSPropertyOp18
 70
     1
102
RTVSPropertyOp19
 70
     1
102
RTVSPropertyOp20
 70
     1
102
RTVSPropertyOp21
 70
     1
102
RTVSPropertyOp22
 70
     1
102
RTVSPropertyOp23
 70
     1
102
RTVSPropertyOp24
 70
     1
102
RTVSPropertyOp25
 70
     1
102
RTVSPropertyOp26
 70
     1
102
RTVSPropertyOp27
 70
     1
102
RTVSPropertyOp28
 70
     1
102
RTVSPropertyOp29
 70
     1
102
RTVSPropertyOp30
 70
     1
102
RTVSPropertyOp31
 70
     1
102
RTVSPropertyOp32
 70
     1
102
RTVSPropertyOp33
 70
     1
102
RTVSPropertyOp34
 70
     1
102
RTVSPropertyOp35
 70
     1
102
RTVSPropertyOp36
 70
     1
102
RTVSPropertyOp37
 70
     1
102
RTVSPropertyOp38
 70
     1
102
RTVSPropertyOp39
 70
     1
102
RTVSPropertyOp40
 70
     1
102
RTVSPropertyOp41
 70
     1
102
RTVSPropertyOp42
 70
     1
102
RTVSPropertyOp43
 70
     1
102
RTVSPropertyOp44
 70
     1
102
RTVSPropertyOp45
 70
     1
102
RTVSPropertyOp46
 70
     1
102
RTVSPropertyOp47
 70
     1
102
RTVSPropertyOp48
 70
     1
102
RTVSPropertyOp49
 70
     1
102
RTVSPropertyOp50
 70
     1
102
RTVSPropertyOp51
 70
     0
102
RTVSPropertyOp52
 70
     0
102
RTVSPropertyOp53
 70
     1
102
RTVSPropertyOp54
 70
     1
102
RTVSPropertyOp55
 70
     1
102
RTVSPropertyOp56
 70
     1
102
RTVSPropertyOp57
 70
     1
102
RTVSPropertyOp58
 70
     1
102
RTVSPropertyOp59
 70
     1
102
RTVSPropertyOp60
 70
     1
102
RTVSPropertyOp61
 70
     1
102
RTVSPropertyOp62
 70
     1
  0
XRECORD
  5
607D
102
{ACAD_REACTORS
330
607C
102
}
330
607C
100
AcDbXrecord
280
     1
102
RTVSPost2010Prop28
280
     0
102
RTVSPost2010PropOp28
 70
     1
102
RTVSPost2010Prop29
280
     1
102
RTVSPost2010PropOp29
 70
     1
102
RTVSPost2010Prop30
280
     1
102
RTVSPost2010PropOp30
 70
     1
102
RTVSPost2010Prop31
280
     0
102
RTVSPost2010PropOp31
 70
     1
102
RTVSPost2010Prop32
280
     0
102
RTVSPost2010PropOp32
 70
     1
102
RTVSPost2010Prop33
280
     0
102
RTVSPost2010PropOp33
 70
     1
102
RTVSPost2010Prop34
280
     0
102
RTVSPost2010PropOp34
 70
     1
102
RTVSPost2010Prop35
280
     0
102
RTVSPost2010PropOp35
 70
     1
102
RTVSPost2010Prop36
280
     0
102
RTVSPost2010PropOp36
 70
     1
102
RTVSPost2010Prop37
 90
       50
102
RTVSPost2010PropOp37
 70
     1
102
RTVSPost2010Prop38
140
0.0
102
RTVSPost2010PropOp38
 70
     1
102
RTVSPost2010Prop39
140
1.0
102
RTVSPost2010PropOp39
 70
     1
102
RTVSPost2010Prop40
 90
        0
102
RTVSPost2010PropOp40
 70
     1
102
RTVSPost2010Prop41ColorIndex
 90
       18
102
RTVSPost2010Prop41ColorRGB
 90
        0
102
RTVSPost2010PropOp41
 70
     1
102
RTVSPost2010Prop42
 90
       50
102
RTVSPost2010PropOp42
 70
     1
102
RTVSPost2010Prop43
 90
        3
102
RTVSPost2010PropOp43
 70
     1
102
RTVSPost2010Prop44ColorIndex
 90
        5
102
RTVSPost2010Prop44ColorRGB
 90
      255
102
RTVSPost2010PropOp44
 70
     1
102
RTVSPost2010Prop45
280
     0
102
RTVSPost2010PropOp45
 70
     1
102
RTVSPost2010Prop46
 90
       50
102
RTVSPost2010PropOp46
 70
     1
102
RTVSPost2010Prop47
 90
       50
102
RTVSPost2010PropOp47
 70
     1
102
RTVSPost2010Prop48
 90
       50
102
RTVSPost2010PropOp48
 70
     1
102
RTVSPost2010Prop49
280
     0
102
RTVSPost2010PropOp49
 70
     1
102
RTVSPost2010Prop50
 90
       50
102
RTVSPost2010PropOp50
 70
     1
102
RTVSPost2010Prop51ColorIndex
 90
      256
102
RTVSPost2010Prop51ColorRGB
 90
-16777216
102
RTVSPost2010PropOp51
 70
     0
102
RTVSPost2010Prop52
140
1.0
102
RTVSPost2010PropOp52
 70
     0
102
RTVSPost2010Prop53
 90
        2
102
RTVSPost2010PropOp53
 70
     1
102
RTVSPost2010Prop54
  1
strokes_ogs.tif
102
RTVSPost2010PropOp54
 70
     1
102
RTVSPost2010Prop55
280
     0
102
RTVSPost2010PropOp55
 70
     1
102
RTVSPost2010Prop56
140
1.0
102
RTVSPost2010PropOp56
 70
     1
102
RTVSPost2010Prop57
140
1.0
102
RTVSPost2010PropOp57
 70
     1
102
RTVSPropertyOp0
 70
     1
102
RTVSPropertyOp1
 70
     1
102
RTVSPropertyOp2
 70
     1
102
RTVSPropertyOp3
 70
     1
102
RTVSPropertyOp4
 70
     1
102
RTVSPropertyOp5
 70
     1
102
RTVSPropertyOp6
 70
     1
102
RTVSPropertyOp7
 70
     1
102
RTVSPropertyOp8
 70
     1
102
RTVSPropertyOp9
 70
     1
102
RTVSPropertyOp10
 70
     1
102
RTVSPropertyOp11
 70
     1
102
RTVSPropertyOp12
 70
     1
102
RTVSPropertyOp13
 70
     1
102
RTVSPropertyOp14
 70
     1
102
RTVSPropertyOp15
 70
     1
102
RTVSPropertyOp16
 70
     1
102
RTVSPropertyOp17
 70
     1
102
RTVSPropertyOp18
 70
     1
102
RTVSPropertyOp19
 70
     1
102
RTVSPropertyOp20
 70
     1
102
RTVSPropertyOp21
 70
     1
102
RTVSPropertyOp22
 70
     1
102
RTVSPropertyOp23
 70
     1
102
RTVSPropertyOp24
 70
     1
102
RTVSPropertyOp25
 70
     1
102
RTVSPropertyOp26
 70
     1
102
RTVSPropertyOp27
 70
     1
102
RTVSPropertyOp28
 70
     1
102
RTVSPropertyOp29
 70
     1
102
RTVSPropertyOp30
 70
     1
102
RTVSPropertyOp31
 70
     1
102
RTVSPropertyOp32
 70
     1
102
RTVSPropertyOp33
 70
     1
102
RTVSPropertyOp34
 70
     1
102
RTVSPropertyOp35
 70
     1
102
RTVSPropertyOp36
 70
     1
102
RTVSPropertyOp37
 70
     1
102
RTVSPropertyOp38
 70
     1
102
RTVSPropertyOp39
 70
     1
102
RTVSPropertyOp40
 70
     1
102
RTVSPropertyOp41
 70
     1
102
RTVSPropertyOp42
 70
     1
102
RTVSPropertyOp43
 70
     1
102
RTVSPropertyOp44
 70
     1
102
RTVSPropertyOp45
 70
     1
102
RTVSPropertyOp46
 70
     1
102
RTVSPropertyOp47
 70
     1
102
RTVSPropertyOp48
 70
     1
102
RTVSPropertyOp49
 70
     1
102
RTVSPropertyOp50
 70
     1
102
RTVSPropertyOp51
 70
     0
102
RTVSPropertyOp52
 70
     0
102
RTVSPropertyOp53
 70
     1
102
RTVSPropertyOp54
 70
     1
102
RTVSPropertyOp55
 70
     1
102
RTVSPropertyOp56
 70
     1
102
RTVSPropertyOp57
 70
     1
102
RTVSPropertyOp58
 70
     1
102
RTVSPropertyOp59
 70
     1
102
RTVSPropertyOp60
 70
     1
102
RTVSPropertyOp61
 70
     1
102
RTVSPropertyOp62
 70
     1
  0
XRECORD
  5
606F
102
{ACAD_REACTORS
330
606E
102
}
330
606E
100
AcDbXrecord
280
     1
102
RTVSPost2010Prop28
280
     0
102
RTVSPost2010PropOp28
 70
     1
102
RTVSPost2010Prop29
280
     1
102
RTVSPost2010PropOp29
 70
     1
102
RTVSPost2010Prop30
280
     1
102
RTVSPost2010PropOp30
 70
     1
102
RTVSPost2010Prop31
280
     0
102
RTVSPost2010PropOp31
 70
     1
102
RTVSPost2010Prop32
280
     0
102
RTVSPost2010PropOp32
 70
     1
102
RTVSPost2010Prop33
280
     0
102
RTVSPost2010PropOp33
 70
     1
102
RTVSPost2010Prop34
280
     0
102
RTVSPost2010PropOp34
 70
     1
102
RTVSPost2010Prop35
280
     0
102
RTVSPost2010PropOp35
 70
     1
102
RTVSPost2010Prop36
280
     0
102
RTVSPost2010PropOp36
 70
     1
102
RTVSPost2010Prop37
 90
       50
102
RTVSPost2010PropOp37
 70
     1
102
RTVSPost2010Prop38
140
0.0
102
RTVSPost2010PropOp38
 70
     1
102
RTVSPost2010Prop39
140
1.0
102
RTVSPost2010PropOp39
 70
     1
102
RTVSPost2010Prop40
 90
        0
102
RTVSPost2010PropOp40
 70
     1
102
RTVSPost2010Prop41ColorIndex
 90
       18
102
RTVSPost2010Prop41ColorRGB
 90
        0
102
RTVSPost2010PropOp41
 70
     1
102
RTVSPost2010Prop42
 90
       50
102
RTVSPost2010PropOp42
 70
     1
102
RTVSPost2010Prop43
 90
        3
102
RTVSPost2010PropOp43
 70
     1
102
RTVSPost2010Prop44ColorIndex
 90
        5
102
RTVSPost2010Prop44ColorRGB
 90
      255
102
RTVSPost2010PropOp44
 70
     1
102
RTVSPost2010Prop45
280
     0
102
RTVSPost2010PropOp45
 70
     1
102
RTVSPost2010Prop46
 90
       50
102
RTVSPost2010PropOp46
 70
     1
102
RTVSPost2010Prop47
 90
       50
102
RTVSPost2010PropOp47
 70
     1
102
RTVSPost2010Prop48
 90
       50
102
RTVSPost2010PropOp48
 70
     1
102
RTVSPost2010Prop49
280
     0
102
RTVSPost2010PropOp49
 70
     1
102
RTVSPost2010Prop50
 90
       50
102
RTVSPost2010PropOp50
 70
     1
102
RTVSPost2010Prop51ColorIndex
 90
      256
102
RTVSPost2010Prop51ColorRGB
 90
-16777216
102
RTVSPost2010PropOp51
 70
     0
102
RTVSPost2010Prop52
140
1.0
102
RTVSPost2010PropOp52
 70
     0
102
RTVSPost2010Prop53
 90
        2
102
RTVSPost2010PropOp53
 70
     1
102
RTVSPost2010Prop54
  1
strokes_ogs.tif
102
RTVSPost2010PropOp54
 70
     1
102
RTVSPost2010Prop55
280
     0
102
RTVSPost2010PropOp55
 70
     1
102
RTVSPost2010Prop56
140
1.0
102
RTVSPost2010PropOp56
 70
     1
102
RTVSPost2010Prop57
140
1.0
102
RTVSPost2010PropOp57
 70
     1
102
RTVSPropertyOp0
 70
     1
102
RTVSPropertyOp1
 70
     1
102
RTVSPropertyOp2
 70
     1
102
RTVSPropertyOp3
 70
     1
102
RTVSPropertyOp4
 70
     1
102
RTVSPropertyOp5
 70
     1
102
RTVSPropertyOp6
 70
     1
102
RTVSPropertyOp7
 70
     1
102
RTVSPropertyOp8
 70
     1
102
RTVSPropertyOp9
 70
     1
102
RTVSPropertyOp10
 70
     1
102
RTVSPropertyOp11
 70
     1
102
RTVSPropertyOp12
 70
     1
102
RTVSPropertyOp13
 70
     1
102
RTVSPropertyOp14
 70
     1
102
RTVSPropertyOp15
 70
     1
102
RTVSPropertyOp16
 70
     1
102
RTVSPropertyOp17
 70
     1
102
RTVSPropertyOp18
 70
     1
102
RTVSPropertyOp19
 70
     1
102
RTVSPropertyOp20
 70
     1
102
RTVSPropertyOp21
 70
     1
102
RTVSPropertyOp22
 70
     1
102
RTVSPropertyOp23
 70
     1
102
RTVSPropertyOp24
 70
     1
102
RTVSPropertyOp25
 70
     1
102
RTVSPropertyOp26
 70
     1
102
RTVSPropertyOp27
 70
     1
102
RTVSPropertyOp28
 70
     1
102
RTVSPropertyOp29
 70
     1
102
RTVSPropertyOp30
 70
     1
102
RTVSPropertyOp31
 70
     1
102
RTVSPropertyOp32
 70
     1
102
RTVSPropertyOp33
 70
     1
102
RTVSPropertyOp34
 70
     1
102
RTVSPropertyOp35
 70
     1
102
RTVSPropertyOp36
 70
     1
102
RTVSPropertyOp37
 70
     1
102
RTVSPropertyOp38
 70
     1
102
RTVSPropertyOp39
 70
     1
102
RTVSPropertyOp40
 70
     1
102
RTVSPropertyOp41
 70
     1
102
RTVSPropertyOp42
 70
     1
102
RTVSPropertyOp43
 70
     1
102
RTVSPropertyOp44
 70
     1
102
RTVSPropertyOp45
 70
     1
102
RTVSPropertyOp46
 70
     1
102
RTVSPropertyOp47
 70
     1
102
RTVSPropertyOp48
 70
     1
102
RTVSPropertyOp49
 70
     1
102
RTVSPropertyOp50
 70
     1
102
RTVSPropertyOp51
 70
     0
102
RTVSPropertyOp52
 70
     0
102
RTVSPropertyOp53
 70
     1
102
RTVSPropertyOp54
 70
     1
102
RTVSPropertyOp55
 70
     1
102
RTVSPropertyOp56
 70
     1
102
RTVSPropertyOp57
 70
     1
102
RTVSPropertyOp58
 70
     1
102
RTVSPropertyOp59
 70
     1
102
RTVSPropertyOp60
 70
     1
102
RTVSPropertyOp61
 70
     1
102
RTVSPropertyOp62
 70
     1
  0
XRECORD
  5
6073
102
{ACAD_REACTORS
330
6072
102
}
330
6072
100
AcDbXrecord
280
     1
102
RTVSPost2010Prop28
280
     0
102
RTVSPost2010PropOp28
 70
     1
102
RTVSPost2010Prop29
280
     1
102
RTVSPost2010PropOp29
 70
     1
102
RTVSPost2010Prop30
280
     1
102
RTVSPost2010PropOp30
 70
     1
102
RTVSPost2010Prop31
280
     0
102
RTVSPost2010PropOp31
 70
     1
102
RTVSPost2010Prop32
280
     0
102
RTVSPost2010PropOp32
 70
     1
102
RTVSPost2010Prop33
280
     0
102
RTVSPost2010PropOp33
 70
     1
102
RTVSPost2010Prop34
280
     0
102
RTVSPost2010PropOp34
 70
     1
102
RTVSPost2010Prop35
280
     0
102
RTVSPost2010PropOp35
 70
     1
102
RTVSPost2010Prop36
280
     0
102
RTVSPost2010PropOp36
 70
     1
102
RTVSPost2010Prop37
 90
       50
102
RTVSPost2010PropOp37
 70
     1
102
RTVSPost2010Prop38
140
0.0
102
RTVSPost2010PropOp38
 70
     1
102
RTVSPost2010Prop39
140
1.0
102
RTVSPost2010PropOp39
 70
     1
102
RTVSPost2010Prop40
 90
        0
102
RTVSPost2010PropOp40
 70
     1
102
RTVSPost2010Prop41ColorIndex
 90
       18
102
RTVSPost2010Prop41ColorRGB
 90
        0
102
RTVSPost2010PropOp41
 70
     1
102
RTVSPost2010Prop42
 90
       50
102
RTVSPost2010PropOp42
 70
     1
102
RTVSPost2010Prop43
 90
        3
102
RTVSPost2010PropOp43
 70
     1
102
RTVSPost2010Prop44ColorIndex
 90
        5
102
RTVSPost2010Prop44ColorRGB
 90
      255
102
RTVSPost2010PropOp44
 70
     1
102
RTVSPost2010Prop45
280
     0
102
RTVSPost2010PropOp45
 70
     1
102
RTVSPost2010Prop46
 90
       50
102
RTVSPost2010PropOp46
 70
     1
102
RTVSPost2010Prop47
 90
       50
102
RTVSPost2010PropOp47
 70
     1
102
RTVSPost2010Prop48
 90
       50
102
RTVSPost2010PropOp48
 70
     1
102
RTVSPost2010Prop49
280
     0
102
RTVSPost2010PropOp49
 70
     1
102
RTVSPost2010Prop50
 90
       50
102
RTVSPost2010PropOp50
 70
     1
102
RTVSPost2010Prop51ColorIndex
 90
      256
102
RTVSPost2010Prop51ColorRGB
 90
-16777216
102
RTVSPost2010PropOp51
 70
     0
102
RTVSPost2010Prop52
140
1.0
102
RTVSPost2010PropOp52
 70
     0
102
RTVSPost2010Prop53
 90
        2
102
RTVSPost2010PropOp53
 70
     1
102
RTVSPost2010Prop54
  1
strokes_ogs.tif
102
RTVSPost2010PropOp54
 70
     1
102
RTVSPost2010Prop55
280
     0
102
RTVSPost2010PropOp55
 70
     1
102
RTVSPost2010Prop56
140
1.0
102
RTVSPost2010PropOp56
 70
     1
102
RTVSPost2010Prop57
140
1.0
102
RTVSPost2010PropOp57
 70
     1
102
RTVSPropertyOp0
 70
     1
102
RTVSPropertyOp1
 70
     1
102
RTVSPropertyOp2
 70
     1
102
RTVSPropertyOp3
 70
     1
102
RTVSPropertyOp4
 70
     1
102
RTVSPropertyOp5
 70
     1
102
RTVSPropertyOp6
 70
     1
102
RTVSPropertyOp7
 70
     1
102
RTVSPropertyOp8
 70
     1
102
RTVSPropertyOp9
 70
     1
102
RTVSPropertyOp10
 70
     1
102
RTVSPropertyOp11
 70
     1
102
RTVSPropertyOp12
 70
     1
102
RTVSPropertyOp13
 70
     1
102
RTVSPropertyOp14
 70
     1
102
RTVSPropertyOp15
 70
     1
102
RTVSPropertyOp16
 70
     1
102
RTVSPropertyOp17
 70
     1
102
RTVSPropertyOp18
 70
     1
102
RTVSPropertyOp19
 70
     1
102
RTVSPropertyOp20
 70
     1
102
RTVSPropertyOp21
 70
     1
102
RTVSPropertyOp22
 70
     1
102
RTVSPropertyOp23
 70
     1
102
RTVSPropertyOp24
 70
     1
102
RTVSPropertyOp25
 70
     1
102
RTVSPropertyOp26
 70
     1
102
RTVSPropertyOp27
 70
     1
102
RTVSPropertyOp28
 70
     1
102
RTVSPropertyOp29
 70
     1
102
RTVSPropertyOp30
 70
     1
102
RTVSPropertyOp31
 70
     1
102
RTVSPropertyOp32
 70
     1
102
RTVSPropertyOp33
 70
     1
102
RTVSPropertyOp34
 70
     1
102
RTVSPropertyOp35
 70
     1
102
RTVSPropertyOp36
 70
     1
102
RTVSPropertyOp37
 70
     1
102
RTVSPropertyOp38
 70
     1
102
RTVSPropertyOp39
 70
     1
102
RTVSPropertyOp40
 70
     1
102
RTVSPropertyOp41
 70
     1
102
RTVSPropertyOp42
 70
     1
102
RTVSPropertyOp43
 70
     1
102
RTVSPropertyOp44
 70
     1
102
RTVSPropertyOp45
 70
     1
102
RTVSPropertyOp46
 70
     1
102
RTVSPropertyOp47
 70
     1
102
RTVSPropertyOp48
 70
     1
102
RTVSPropertyOp49
 70
     1
102
RTVSPropertyOp50
 70
     1
102
RTVSPropertyOp51
 70
     0
102
RTVSPropertyOp52
 70
     0
102
RTVSPropertyOp53
 70
     1
102
RTVSPropertyOp54
 70
     1
102
RTVSPropertyOp55
 70
     1
102
RTVSPropertyOp56
 70
     1
102
RTVSPropertyOp57
 70
     1
102
RTVSPropertyOp58
 70
     1
102
RTVSPropertyOp59
 70
     1
102
RTVSPropertyOp60
 70
     1
102
RTVSPropertyOp61
 70
     1
102
RTVSPropertyOp62
 70
     1
  0
XRECORD
  5
6085
102
{ACAD_REACTORS
330
6084
102
}
330
6084
100
AcDbXrecord
280
     1
102
RTVSPost2010Prop28
280
     0
102
RTVSPost2010PropOp28
 70
     1
102
RTVSPost2010Prop29
280
     1
102
RTVSPost2010PropOp29
 70
     1
102
RTVSPost2010Prop30
280
     1
102
RTVSPost2010PropOp30
 70
     1
102
RTVSPost2010Prop31
280
     0
102
RTVSPost2010PropOp31
 70
     1
102
RTVSPost2010Prop32
280
     0
102
RTVSPost2010PropOp32
 70
     1
102
RTVSPost2010Prop33
280
     0
102
RTVSPost2010PropOp33
 70
     1
102
RTVSPost2010Prop34
280
     0
102
RTVSPost2010PropOp34
 70
     1
102
RTVSPost2010Prop35
280
     0
102
RTVSPost2010PropOp35
 70
     1
102
RTVSPost2010Prop36
280
     0
102
RTVSPost2010PropOp36
 70
     1
102
RTVSPost2010Prop37
 90
       50
102
RTVSPost2010PropOp37
 70
     1
102
RTVSPost2010Prop38
140
0.0
102
RTVSPost2010PropOp38
 70
     1
102
RTVSPost2010Prop39
140
1.0
102
RTVSPost2010PropOp39
 70
     1
102
RTVSPost2010Prop40
 90
        0
102
RTVSPost2010PropOp40
 70
     1
102
RTVSPost2010Prop41ColorIndex
 90
       18
102
RTVSPost2010Prop41ColorRGB
 90
        0
102
RTVSPost2010PropOp41
 70
     1
102
RTVSPost2010Prop42
 90
       50
102
RTVSPost2010PropOp42
 70
     1
102
RTVSPost2010Prop43
 90
        3
102
RTVSPost2010PropOp43
 70
     1
102
RTVSPost2010Prop44ColorIndex
 90
        5
102
RTVSPost2010Prop44ColorRGB
 90
      255
102
RTVSPost2010PropOp44
 70
     1
102
RTVSPost2010Prop45
280
     0
102
RTVSPost2010PropOp45
 70
     1
102
RTVSPost2010Prop46
 90
       50
102
RTVSPost2010PropOp46
 70
     1
102
RTVSPost2010Prop47
 90
       50
102
RTVSPost2010PropOp47
 70
     1
102
RTVSPost2010Prop48
 90
       50
102
RTVSPost2010PropOp48
 70
     1
102
RTVSPost2010Prop49
280
     0
102
RTVSPost2010PropOp49
 70
     1
102
RTVSPost2010Prop50
 90
       50
102
RTVSPost2010PropOp50
 70
     1
102
RTVSPost2010Prop51ColorIndex
 90
      256
102
RTVSPost2010Prop51ColorRGB
 90
-16777216
102
RTVSPost2010PropOp51
 70
     0
102
RTVSPost2010Prop52
140
1.0
102
RTVSPost2010PropOp52
 70
     0
102
RTVSPost2010Prop53
 90
        2
102
RTVSPost2010PropOp53
 70
     1
102
RTVSPost2010Prop54
  1
strokes_ogs.tif
102
RTVSPost2010PropOp54
 70
     1
102
RTVSPost2010Prop55
280
     0
102
RTVSPost2010PropOp55
 70
     1
102
RTVSPost2010Prop56
140
1.0
102
RTVSPost2010PropOp56
 70
     1
102
RTVSPost2010Prop57
140
1.0
102
RTVSPost2010PropOp57
 70
     1
102
RTVSPropertyOp0
 70
     0
102
RTVSPropertyOp1
 70
     0
102
RTVSPropertyOp2
 70
     0
102
RTVSPropertyOp3
 70
     0
102
RTVSPropertyOp4
 70
     0
102
RTVSPropertyOp5
 70
     0
102
RTVSPropertyOp6
 70
     0
102
RTVSPropertyOp7
 70
     0
102
RTVSPropertyOp8
 70
     0
102
RTVSPropertyOp9
 70
     0
102
RTVSPropertyOp10
 70
     0
102
RTVSPropertyOp11
 70
     0
102
RTVSPropertyOp12
 70
     0
102
RTVSPropertyOp13
 70
     0
102
RTVSPropertyOp14
 70
     2
102
RTVSPropertyOp15
 70
     0
102
RTVSPropertyOp16
 70
     0
102
RTVSPropertyOp17
 70
     0
102
RTVSPropertyOp18
 70
     0
102
RTVSPropertyOp19
 70
     0
102
RTVSPropertyOp20
 70
     0
102
RTVSPropertyOp21
 70
     0
102
RTVSPropertyOp22
 70
     0
102
RTVSPropertyOp23
 70
     0
102
RTVSPropertyOp24
 70
     0
102
RTVSPropertyOp25
 70
     0
102
RTVSPropertyOp26
 70
     0
102
RTVSPropertyOp27
 70
     0
102
RTVSPropertyOp28
 70
     1
102
RTVSPropertyOp29
 70
     1
102
RTVSPropertyOp30
 70
     1
102
RTVSPropertyOp31
 70
     1
102
RTVSPropertyOp32
 70
     1
102
RTVSPropertyOp33
 70
     1
102
RTVSPropertyOp34
 70
     1
102
RTVSPropertyOp35
 70
     1
102
RTVSPropertyOp36
 70
     1
102
RTVSPropertyOp37
 70
     1
102
RTVSPropertyOp38
 70
     1
102
RTVSPropertyOp39
 70
     1
102
RTVSPropertyOp40
 70
     1
102
RTVSPropertyOp41
 70
     1
102
RTVSPropertyOp42
 70
     1
102
RTVSPropertyOp43
 70
     1
102
RTVSPropertyOp44
 70
     1
102
RTVSPropertyOp45
 70
     1
102
RTVSPropertyOp46
 70
     1
102
RTVSPropertyOp47
 70
     1
102
RTVSPropertyOp48
 70
     1
102
RTVSPropertyOp49
 70
     1
102
RTVSPropertyOp50
 70
     1
102
RTVSPropertyOp51
 70
     0
102
RTVSPropertyOp52
 70
     0
102
RTVSPropertyOp53
 70
     1
102
RTVSPropertyOp54
 70
     1
102
RTVSPropertyOp55
 70
     1
102
RTVSPropertyOp56
 70
     1
102
RTVSPropertyOp57
 70
     1
102
RTVSPropertyOp58
 70
     1
102
RTVSPropertyOp59
 70
     1
102
RTVSPropertyOp60
 70
     1
102
RTVSPropertyOp61
 70
     1
102
RTVSPropertyOp62
 70
     1
  0
XRECORD
  5
607B
102
{ACAD_REACTORS
330
607A
102
}
330
607A
100
AcDbXrecord
280
     1
102
RTVSPost2010Prop28
280
     0
102
RTVSPost2010PropOp28
 70
     1
102
RTVSPost2010Prop29
280
     1
102
RTVSPost2010PropOp29
 70
     1
102
RTVSPost2010Prop30
280
     1
102
RTVSPost2010PropOp30
 70
     1
102
RTVSPost2010Prop31
280
     0
102
RTVSPost2010PropOp31
 70
     1
102
RTVSPost2010Prop32
280
     0
102
RTVSPost2010PropOp32
 70
     1
102
RTVSPost2010Prop33
280
     0
102
RTVSPost2010PropOp33
 70
     1
102
RTVSPost2010Prop34
280
     0
102
RTVSPost2010PropOp34
 70
     1
102
RTVSPost2010Prop35
280
     0
102
RTVSPost2010PropOp35
 70
     1
102
RTVSPost2010Prop36
280
     0
102
RTVSPost2010PropOp36
 70
     1
102
RTVSPost2010Prop37
 90
       50
102
RTVSPost2010PropOp37
 70
     1
102
RTVSPost2010Prop38
140
0.0
102
RTVSPost2010PropOp38
 70
     1
102
RTVSPost2010Prop39
140
1.0
102
RTVSPost2010PropOp39
 70
     1
102
RTVSPost2010Prop40
 90
        0
102
RTVSPost2010PropOp40
 70
     1
102
RTVSPost2010Prop41ColorIndex
 90
       18
102
RTVSPost2010Prop41ColorRGB
 90
        0
102
RTVSPost2010PropOp41
 70
     1
102
RTVSPost2010Prop42
 90
       50
102
RTVSPost2010PropOp42
 70
     1
102
RTVSPost2010Prop43
 90
        3
102
RTVSPost2010PropOp43
 70
     1
102
RTVSPost2010Prop44ColorIndex
 90
        5
102
RTVSPost2010Prop44ColorRGB
 90
      255
102
RTVSPost2010PropOp44
 70
     1
102
RTVSPost2010Prop45
280
     0
102
RTVSPost2010PropOp45
 70
     1
102
RTVSPost2010Prop46
 90
       50
102
RTVSPost2010PropOp46
 70
     1
102
RTVSPost2010Prop47
 90
       50
102
RTVSPost2010PropOp47
 70
     1
102
RTVSPost2010Prop48
 90
       50
102
RTVSPost2010PropOp48
 70
     1
102
RTVSPost2010Prop49
280
     0
102
RTVSPost2010PropOp49
 70
     1
102
RTVSPost2010Prop50
 90
       50
102
RTVSPost2010PropOp50
 70
     1
102
RTVSPost2010Prop51ColorIndex
 90
      256
102
RTVSPost2010Prop51ColorRGB
 90
-16777216
102
RTVSPost2010PropOp51
 70
     0
102
RTVSPost2010Prop52
140
1.0
102
RTVSPost2010PropOp52
 70
     0
102
RTVSPost2010Prop53
 90
        2
102
RTVSPost2010PropOp53
 70
     1
102
RTVSPost2010Prop54
  1
strokes_ogs.tif
102
RTVSPost2010PropOp54
 70
     1
102
RTVSPost2010Prop55
280
     0
102
RTVSPost2010PropOp55
 70
     1
102
RTVSPost2010Prop56
140
1.0
102
RTVSPost2010PropOp56
 70
     1
102
RTVSPost2010Prop57
140
1.0
102
RTVSPost2010PropOp57
 70
     1
102
RTVSPropertyOp0
 70
     1
102
RTVSPropertyOp1
 70
     1
102
RTVSPropertyOp2
 70
     1
102
RTVSPropertyOp3
 70
     1
102
RTVSPropertyOp4
 70
     1
102
RTVSPropertyOp5
 70
     1
102
RTVSPropertyOp6
 70
     1
102
RTVSPropertyOp7
 70
     1
102
RTVSPropertyOp8
 70
     1
102
RTVSPropertyOp9
 70
     1
102
RTVSPropertyOp10
 70
     1
102
RTVSPropertyOp11
 70
     1
102
RTVSPropertyOp12
 70
     1
102
RTVSPropertyOp13
 70
     1
102
RTVSPropertyOp14
 70
     1
102
RTVSPropertyOp15
 70
     1
102
RTVSPropertyOp16
 70
     1
102
RTVSPropertyOp17
 70
     1
102
RTVSPropertyOp18
 70
     1
102
RTVSPropertyOp19
 70
     1
102
RTVSPropertyOp20
 70
     1
102
RTVSPropertyOp21
 70
     1
102
RTVSPropertyOp22
 70
     1
102
RTVSPropertyOp23
 70
     1
102
RTVSPropertyOp24
 70
     1
102
RTVSPropertyOp25
 70
     1
102
RTVSPropertyOp26
 70
     1
102
RTVSPropertyOp27
 70
     1
102
RTVSPropertyOp28
 70
     1
102
RTVSPropertyOp29
 70
     1
102
RTVSPropertyOp30
 70
     1
102
RTVSPropertyOp31
 70
     1
102
RTVSPropertyOp32
 70
     1
102
RTVSPropertyOp33
 70
     1
102
RTVSPropertyOp34
 70
     1
102
RTVSPropertyOp35
 70
     1
102
RTVSPropertyOp36
 70
     1
102
RTVSPropertyOp37
 70
     1
102
RTVSPropertyOp38
 70
     1
102
RTVSPropertyOp39
 70
     1
102
RTVSPropertyOp40
 70
     1
102
RTVSPropertyOp41
 70
     1
102
RTVSPropertyOp42
 70
     1
102
RTVSPropertyOp43
 70
     1
102
RTVSPropertyOp44
 70
     1
102
RTVSPropertyOp45
 70
     1
102
RTVSPropertyOp46
 70
     1
102
RTVSPropertyOp47
 70
     1
102
RTVSPropertyOp48
 70
     1
102
RTVSPropertyOp49
 70
     1
102
RTVSPropertyOp50
 70
     1
102
RTVSPropertyOp51
 70
     0
102
RTVSPropertyOp52
 70
     0
102
RTVSPropertyOp53
 70
     1
102
RTVSPropertyOp54
 70
     1
102
RTVSPropertyOp55
 70
     1
102
RTVSPropertyOp56
 70
     1
102
RTVSPropertyOp57
 70
     1
102
RTVSPropertyOp58
 70
     1
102
RTVSPropertyOp59
 70
     1
102
RTVSPropertyOp60
 70
     1
102
RTVSPropertyOp61
 70
     1
102
RTVSPropertyOp62
 70
     1
  0
XRECORD
  5
605F
102
{ACAD_REACTORS
330
605E
102
}
330
605E
100
AcDbXrecord
280
     1
102
RTVSPost2010Prop28
280
     0
102
RTVSPost2010PropOp28
 70
     1
102
RTVSPost2010Prop29
280
     1
102
RTVSPost2010PropOp29
 70
     1
102
RTVSPost2010Prop30
280
     1
102
RTVSPost2010PropOp30
 70
     1
102
RTVSPost2010Prop31
280
     0
102
RTVSPost2010PropOp31
 70
     1
102
RTVSPost2010Prop32
280
     0
102
RTVSPost2010PropOp32
 70
     1
102
RTVSPost2010Prop33
280
     0
102
RTVSPost2010PropOp33
 70
     1
102
RTVSPost2010Prop34
280
     0
102
RTVSPost2010PropOp34
 70
     1
102
RTVSPost2010Prop35
280
     0
102
RTVSPost2010PropOp35
 70
     1
102
RTVSPost2010Prop36
280
     0
102
RTVSPost2010PropOp36
 70
     1
102
RTVSPost2010Prop37
 90
       50
102
RTVSPost2010PropOp37
 70
     1
102
RTVSPost2010Prop38
140
0.0
102
RTVSPost2010PropOp38
 70
     1
102
RTVSPost2010Prop39
140
1.0
102
RTVSPost2010PropOp39
 70
     1
102
RTVSPost2010Prop40
 90
        0
102
RTVSPost2010PropOp40
 70
     1
102
RTVSPost2010Prop41ColorIndex
 90
       18
102
RTVSPost2010Prop41ColorRGB
 90
        0
102
RTVSPost2010PropOp41
 70
     1
102
RTVSPost2010Prop42
 90
       50
102
RTVSPost2010PropOp42
 70
     1
102
RTVSPost2010Prop43
 90
        3
102
RTVSPost2010PropOp43
 70
     1
102
RTVSPost2010Prop44ColorIndex
 90
        5
102
RTVSPost2010Prop44ColorRGB
 90
      255
102
RTVSPost2010PropOp44
 70
     1
102
RTVSPost2010Prop45
280
     0
102
RTVSPost2010PropOp45
 70
     1
102
RTVSPost2010Prop46
 90
       50
102
RTVSPost2010PropOp46
 70
     1
102
RTVSPost2010Prop47
 90
       50
102
RTVSPost2010PropOp47
 70
     1
102
RTVSPost2010Prop48
 90
       50
102
RTVSPost2010PropOp48
 70
     1
102
RTVSPost2010Prop49
280
     0
102
RTVSPost2010PropOp49
 70
     1
102
RTVSPost2010Prop50
 90
       50
102
RTVSPost2010PropOp50
 70
     1
102
RTVSPost2010Prop51ColorIndex
 90
      256
102
RTVSPost2010Prop51ColorRGB
 90
-16777216
102
RTVSPost2010PropOp51
 70
     0
102
RTVSPost2010Prop52
140
1.0
102
RTVSPost2010PropOp52
 70
     0
102
RTVSPost2010Prop53
 90
        2
102
RTVSPost2010PropOp53
 70
     1
102
RTVSPost2010Prop54
  1
strokes_ogs.tif
102
RTVSPost2010PropOp54
 70
     1
102
RTVSPost2010Prop55
280
     0
102
RTVSPost2010PropOp55
 70
     1
102
RTVSPost2010Prop56
140
1.0
102
RTVSPost2010PropOp56
 70
     1
102
RTVSPost2010Prop57
140
1.0
102
RTVSPost2010PropOp57
 70
     1
102
RTVSPropertyOp0
 70
     1
102
RTVSPropertyOp1
 70
     1
102
RTVSPropertyOp2
 70
     1
102
RTVSPropertyOp3
 70
     1
102
RTVSPropertyOp4
 70
     1
102
RTVSPropertyOp5
 70
     1
102
RTVSPropertyOp6
 70
     1
102
RTVSPropertyOp7
 70
     1
102
RTVSPropertyOp8
 70
     1
102
RTVSPropertyOp9
 70
     1
102
RTVSPropertyOp10
 70
     1
102
RTVSPropertyOp11
 70
     1
102
RTVSPropertyOp12
 70
     1
102
RTVSPropertyOp13
 70
     1
102
RTVSPropertyOp14
 70
     1
102
RTVSPropertyOp15
 70
     1
102
RTVSPropertyOp16
 70
     1
102
RTVSPropertyOp17
 70
     1
102
RTVSPropertyOp18
 70
     1
102
RTVSPropertyOp19
 70
     1
102
RTVSPropertyOp20
 70
     1
102
RTVSPropertyOp21
 70
     1
102
RTVSPropertyOp22
 70
     1
102
RTVSPropertyOp23
 70
     1
102
RTVSPropertyOp24
 70
     1
102
RTVSPropertyOp25
 70
     1
102
RTVSPropertyOp26
 70
     1
102
RTVSPropertyOp27
 70
     1
102
RTVSPropertyOp28
 70
     1
102
RTVSPropertyOp29
 70
     1
102
RTVSPropertyOp30
 70
     1
102
RTVSPropertyOp31
 70
     1
102
RTVSPropertyOp32
 70
     1
102
RTVSPropertyOp33
 70
     1
102
RTVSPropertyOp34
 70
     1
102
RTVSPropertyOp35
 70
     1
102
RTVSPropertyOp36
 70
     1
102
RTVSPropertyOp37
 70
     1
102
RTVSPropertyOp38
 70
     1
102
RTVSPropertyOp39
 70
     1
102
RTVSPropertyOp40
 70
     1
102
RTVSPropertyOp41
 70
     1
102
RTVSPropertyOp42
 70
     1
102
RTVSPropertyOp43
 70
     1
102
RTVSPropertyOp44
 70
     1
102
RTVSPropertyOp45
 70
     1
102
RTVSPropertyOp46
 70
     1
102
RTVSPropertyOp47
 70
     1
102
RTVSPropertyOp48
 70
     1
102
RTVSPropertyOp49
 70
     1
102
RTVSPropertyOp50
 70
     1
102
RTVSPropertyOp51
 70
     0
102
RTVSPropertyOp52
 70
     0
102
RTVSPropertyOp53
 70
     1
102
RTVSPropertyOp54
 70
     1
102
RTVSPropertyOp55
 70
     1
102
RTVSPropertyOp56
 70
     1
102
RTVSPropertyOp57
 70
     1
102
RTVSPropertyOp58
 70
     1
102
RTVSPropertyOp59
 70
     1
102
RTVSPropertyOp60
 70
     1
102
RTVSPropertyOp61
 70
     1
102
RTVSPropertyOp62
 70
     1
  0
XRECORD
  5
6061
102
{ACAD_REACTORS
330
6060
102
}
330
6060
100
AcDbXrecord
280
     1
102
RTVSPost2010Prop28
280
     0
102
RTVSPost2010PropOp28
 70
     1
102
RTVSPost2010Prop29
280
     1
102
RTVSPost2010PropOp29
 70
     1
102
RTVSPost2010Prop30
280
     1
102
RTVSPost2010PropOp30
 70
     1
102
RTVSPost2010Prop31
280
     0
102
RTVSPost2010PropOp31
 70
     1
102
RTVSPost2010Prop32
280
     0
102
RTVSPost2010PropOp32
 70
     1
102
RTVSPost2010Prop33
280
     0
102
RTVSPost2010PropOp33
 70
     1
102
RTVSPost2010Prop34
280
     0
102
RTVSPost2010PropOp34
 70
     1
102
RTVSPost2010Prop35
280
     0
102
RTVSPost2010PropOp35
 70
     1
102
RTVSPost2010Prop36
280
     0
102
RTVSPost2010PropOp36
 70
     1
102
RTVSPost2010Prop37
 90
       50
102
RTVSPost2010PropOp37
 70
     1
102
RTVSPost2010Prop38
140
0.0
102
RTVSPost2010PropOp38
 70
     1
102
RTVSPost2010Prop39
140
1.0
102
RTVSPost2010PropOp39
 70
     1
102
RTVSPost2010Prop40
 90
        0
102
RTVSPost2010PropOp40
 70
     1
102
RTVSPost2010Prop41ColorIndex
 90
       18
102
RTVSPost2010Prop41ColorRGB
 90
        0
102
RTVSPost2010PropOp41
 70
     1
102
RTVSPost2010Prop42
 90
       50
102
RTVSPost2010PropOp42
 70
     1
102
RTVSPost2010Prop43
 90
        3
102
RTVSPost2010PropOp43
 70
     1
102
RTVSPost2010Prop44ColorIndex
 90
        5
102
RTVSPost2010Prop44ColorRGB
 90
      255
102
RTVSPost2010PropOp44
 70
     1
102
RTVSPost2010Prop45
280
     0
102
RTVSPost2010PropOp45
 70
     1
102
RTVSPost2010Prop46
 90
       50
102
RTVSPost2010PropOp46
 70
     1
102
RTVSPost2010Prop47
 90
       50
102
RTVSPost2010PropOp47
 70
     1
102
RTVSPost2010Prop48
 90
       50
102
RTVSPost2010PropOp48
 70
     1
102
RTVSPost2010Prop49
280
     0
102
RTVSPost2010PropOp49
 70
     1
102
RTVSPost2010Prop50
 90
       50
102
RTVSPost2010PropOp50
 70
     1
102
RTVSPost2010Prop51ColorIndex
 90
      256
102
RTVSPost2010Prop51ColorRGB
 90
-16777216
102
RTVSPost2010PropOp51
 70
     0
102
RTVSPost2010Prop52
140
1.0
102
RTVSPost2010PropOp52
 70
     0
102
RTVSPost2010Prop53
 90
        2
102
RTVSPost2010PropOp53
 70
     1
102
RTVSPost2010Prop54
  1
strokes_ogs.tif
102
RTVSPost2010PropOp54
 70
     1
102
RTVSPost2010Prop55
280
     0
102
RTVSPost2010PropOp55
 70
     1
102
RTVSPost2010Prop56
140
1.0
102
RTVSPost2010PropOp56
 70
     1
102
RTVSPost2010Prop57
140
1.0
102
RTVSPost2010PropOp57
 70
     1
102
RTVSPropertyOp0
 70
     1
102
RTVSPropertyOp1
 70
     1
102
RTVSPropertyOp2
 70
     1
102
RTVSPropertyOp3
 70
     1
102
RTVSPropertyOp4
 70
     1
102
RTVSPropertyOp5
 70
     1
102
RTVSPropertyOp6
 70
     1
102
RTVSPropertyOp7
 70
     1
102
RTVSPropertyOp8
 70
     1
102
RTVSPropertyOp9
 70
     1
102
RTVSPropertyOp10
 70
     1
102
RTVSPropertyOp11
 70
     1
102
RTVSPropertyOp12
 70
     1
102
RTVSPropertyOp13
 70
     1
102
RTVSPropertyOp14
 70
     1
102
RTVSPropertyOp15
 70
     1
102
RTVSPropertyOp16
 70
     1
102
RTVSPropertyOp17
 70
     1
102
RTVSPropertyOp18
 70
     1
102
RTVSPropertyOp19
 70
     1
102
RTVSPropertyOp20
 70
     1
102
RTVSPropertyOp21
 70
     1
102
RTVSPropertyOp22
 70
     1
102
RTVSPropertyOp23
 70
     1
102
RTVSPropertyOp24
 70
     1
102
RTVSPropertyOp25
 70
     1
102
RTVSPropertyOp26
 70
     1
102
RTVSPropertyOp27
 70
     1
102
RTVSPropertyOp28
 70
     1
102
RTVSPropertyOp29
 70
     1
102
RTVSPropertyOp30
 70
     1
102
RTVSPropertyOp31
 70
     1
102
RTVSPropertyOp32
 70
     1
102
RTVSPropertyOp33
 70
     1
102
RTVSPropertyOp34
 70
     1
102
RTVSPropertyOp35
 70
     1
102
RTVSPropertyOp36
 70
     1
102
RTVSPropertyOp37
 70
     1
102
RTVSPropertyOp38
 70
     1
102
RTVSPropertyOp39
 70
     1
102
RTVSPropertyOp40
 70
     1
102
RTVSPropertyOp41
 70
     1
102
RTVSPropertyOp42
 70
     1
102
RTVSPropertyOp43
 70
     1
102
RTVSPropertyOp44
 70
     1
102
RTVSPropertyOp45
 70
     1
102
RTVSPropertyOp46
 70
     1
102
RTVSPropertyOp47
 70
     1
102
RTVSPropertyOp48
 70
     1
102
RTVSPropertyOp49
 70
     1
102
RTVSPropertyOp50
 70
     1
102
RTVSPropertyOp51
 70
     0
102
RTVSPropertyOp52
 70
     0
102
RTVSPropertyOp53
 70
     1
102
RTVSPropertyOp54
 70
     1
102
RTVSPropertyOp55
 70
     1
102
RTVSPropertyOp56
 70
     1
102
RTVSPropertyOp57
 70
     1
102
RTVSPropertyOp58
 70
     1
102
RTVSPropertyOp59
 70
     1
102
RTVSPropertyOp60
 70
     1
102
RTVSPropertyOp61
 70
     1
102
RTVSPropertyOp62
 70
     1
  0
XRECORD
  5
6063
102
{ACAD_REACTORS
330
6062
102
}
330
6062
100
AcDbXrecord
280
     1
102
RTVSPost2010Prop28
280
     0
102
RTVSPost2010PropOp28
 70
     1
102
RTVSPost2010Prop29
280
     1
102
RTVSPost2010PropOp29
 70
     1
102
RTVSPost2010Prop30
280
     1
102
RTVSPost2010PropOp30
 70
     1
102
RTVSPost2010Prop31
280
     0
102
RTVSPost2010PropOp31
 70
     1
102
RTVSPost2010Prop32
280
     0
102
RTVSPost2010PropOp32
 70
     1
102
RTVSPost2010Prop33
280
     0
102
RTVSPost2010PropOp33
 70
     1
102
RTVSPost2010Prop34
280
     0
102
RTVSPost2010PropOp34
 70
     1
102
RTVSPost2010Prop35
280
     0
102
RTVSPost2010PropOp35
 70
     1
102
RTVSPost2010Prop36
280
     0
102
RTVSPost2010PropOp36
 70
     1
102
RTVSPost2010Prop37
 90
       50
102
RTVSPost2010PropOp37
 70
     1
102
RTVSPost2010Prop38
140
0.0
102
RTVSPost2010PropOp38
 70
     1
102
RTVSPost2010Prop39
140
1.0
102
RTVSPost2010PropOp39
 70
     1
102
RTVSPost2010Prop40
 90
        0
102
RTVSPost2010PropOp40
 70
     1
102
RTVSPost2010Prop41ColorIndex
 90
       18
102
RTVSPost2010Prop41ColorRGB
 90
        0
102
RTVSPost2010PropOp41
 70
     1
102
RTVSPost2010Prop42
 90
       50
102
RTVSPost2010PropOp42
 70
     1
102
RTVSPost2010Prop43
 90
        3
102
RTVSPost2010PropOp43
 70
     1
102
RTVSPost2010Prop44ColorIndex
 90
        5
102
RTVSPost2010Prop44ColorRGB
 90
      255
102
RTVSPost2010PropOp44
 70
     1
102
RTVSPost2010Prop45
280
     0
102
RTVSPost2010PropOp45
 70
     1
102
RTVSPost2010Prop46
 90
       50
102
RTVSPost2010PropOp46
 70
     1
102
RTVSPost2010Prop47
 90
       50
102
RTVSPost2010PropOp47
 70
     1
102
RTVSPost2010Prop48
 90
       50
102
RTVSPost2010PropOp48
 70
     1
102
RTVSPost2010Prop49
280
     0
102
RTVSPost2010PropOp49
 70
     1
102
RTVSPost2010Prop50
 90
       50
102
RTVSPost2010PropOp50
 70
     1
102
RTVSPost2010Prop51ColorIndex
 90
      256
102
RTVSPost2010Prop51ColorRGB
 90
-16777216
102
RTVSPost2010PropOp51
 70
     0
102
RTVSPost2010Prop52
140
1.0
102
RTVSPost2010PropOp52
 70
     0
102
RTVSPost2010Prop53
 90
        2
102
RTVSPost2010PropOp53
 70
     1
102
RTVSPost2010Prop54
  1
strokes_ogs.tif
102
RTVSPost2010PropOp54
 70
     1
102
RTVSPost2010Prop55
280
     0
102
RTVSPost2010PropOp55
 70
     1
102
RTVSPost2010Prop56
140
1.0
102
RTVSPost2010PropOp56
 70
     1
102
RTVSPost2010Prop57
140
1.0
102
RTVSPost2010PropOp57
 70
     1
102
RTVSPropertyOp0
 70
     1
102
RTVSPropertyOp1
 70
     1
102
RTVSPropertyOp2
 70
     1
102
RTVSPropertyOp3
 70
     1
102
RTVSPropertyOp4
 70
     1
102
RTVSPropertyOp5
 70
     1
102
RTVSPropertyOp6
 70
     1
102
RTVSPropertyOp7
 70
     1
102
RTVSPropertyOp8
 70
     1
102
RTVSPropertyOp9
 70
     1
102
RTVSPropertyOp10
 70
     1
102
RTVSPropertyOp11
 70
     1
102
RTVSPropertyOp12
 70
     1
102
RTVSPropertyOp13
 70
     1
102
RTVSPropertyOp14
 70
     1
102
RTVSPropertyOp15
 70
     1
102
RTVSPropertyOp16
 70
     1
102
RTVSPropertyOp17
 70
     1
102
RTVSPropertyOp18
 70
     1
102
RTVSPropertyOp19
 70
     1
102
RTVSPropertyOp20
 70
     1
102
RTVSPropertyOp21
 70
     1
102
RTVSPropertyOp22
 70
     1
102
RTVSPropertyOp23
 70
     1
102
RTVSPropertyOp24
 70
     1
102
RTVSPropertyOp25
 70
     1
102
RTVSPropertyOp26
 70
     1
102
RTVSPropertyOp27
 70
     1
102
RTVSPropertyOp28
 70
     1
102
RTVSPropertyOp29
 70
     1
102
RTVSPropertyOp30
 70
     1
102
RTVSPropertyOp31
 70
     1
102
RTVSPropertyOp32
 70
     1
102
RTVSPropertyOp33
 70
     1
102
RTVSPropertyOp34
 70
     1
102
RTVSPropertyOp35
 70
     1
102
RTVSPropertyOp36
 70
     1
102
RTVSPropertyOp37
 70
     1
102
RTVSPropertyOp38
 70
     1
102
RTVSPropertyOp39
 70
     1
102
RTVSPropertyOp40
 70
     1
102
RTVSPropertyOp41
 70
     1
102
RTVSPropertyOp42
 70
     1
102
RTVSPropertyOp43
 70
     1
102
RTVSPropertyOp44
 70
     1
102
RTVSPropertyOp45
 70
     1
102
RTVSPropertyOp46
 70
     1
102
RTVSPropertyOp47
 70
     1
102
RTVSPropertyOp48
 70
     1
102
RTVSPropertyOp49
 70
     1
102
RTVSPropertyOp50
 70
     1
102
RTVSPropertyOp51
 70
     0
102
RTVSPropertyOp52
 70
     0
102
RTVSPropertyOp53
 70
     1
102
RTVSPropertyOp54
 70
     1
102
RTVSPropertyOp55
 70
     1
102
RTVSPropertyOp56
 70
     1
102
RTVSPropertyOp57
 70
     1
102
RTVSPropertyOp58
 70
     1
102
RTVSPropertyOp59
 70
     1
102
RTVSPropertyOp60
 70
     1
102
RTVSPropertyOp61
 70
     1
102
RTVSPropertyOp62
 70
     1
  0
XRECORD
  5
6065
102
{ACAD_REACTORS
330
6064
102
}
330
6064
100
AcDbXrecord
280
     1
102
RTVSPost2010Prop28
280
     0
102
RTVSPost2010PropOp28
 70
     1
102
RTVSPost2010Prop29
280
     1
102
RTVSPost2010PropOp29
 70
     1
102
RTVSPost2010Prop30
280
     1
102
RTVSPost2010PropOp30
 70
     1
102
RTVSPost2010Prop31
280
     0
102
RTVSPost2010PropOp31
 70
     1
102
RTVSPost2010Prop32
280
     0
102
RTVSPost2010PropOp32
 70
     1
102
RTVSPost2010Prop33
280
     0
102
RTVSPost2010PropOp33
 70
     1
102
RTVSPost2010Prop34
280
     0
102
RTVSPost2010PropOp34
 70
     1
102
RTVSPost2010Prop35
280
     0
102
RTVSPost2010PropOp35
 70
     1
102
RTVSPost2010Prop36
280
     0
102
RTVSPost2010PropOp36
 70
     1
102
RTVSPost2010Prop37
 90
       50
102
RTVSPost2010PropOp37
 70
     1
102
RTVSPost2010Prop38
140
0.0
102
RTVSPost2010PropOp38
 70
     1
102
RTVSPost2010Prop39
140
1.0
102
RTVSPost2010PropOp39
 70
     1
102
RTVSPost2010Prop40
 90
        0
102
RTVSPost2010PropOp40
 70
     1
102
RTVSPost2010Prop41ColorIndex
 90
       18
102
RTVSPost2010Prop41ColorRGB
 90
        0
102
RTVSPost2010PropOp41
 70
     1
102
RTVSPost2010Prop42
 90
       50
102
RTVSPost2010PropOp42
 70
     1
102
RTVSPost2010Prop43
 90
        3
102
RTVSPost2010PropOp43
 70
     1
102
RTVSPost2010Prop44ColorIndex
 90
        5
102
RTVSPost2010Prop44ColorRGB
 90
      255
102
RTVSPost2010PropOp44
 70
     1
102
RTVSPost2010Prop45
280
     0
102
RTVSPost2010PropOp45
 70
     1
102
RTVSPost2010Prop46
 90
       50
102
RTVSPost2010PropOp46
 70
     1
102
RTVSPost2010Prop47
 90
       50
102
RTVSPost2010PropOp47
 70
     1
102
RTVSPost2010Prop48
 90
       50
102
RTVSPost2010PropOp48
 70
     1
102
RTVSPost2010Prop49
280
     0
102
RTVSPost2010PropOp49
 70
     1
102
RTVSPost2010Prop50
 90
       50
102
RTVSPost2010PropOp50
 70
     1
102
RTVSPost2010Prop51ColorIndex
 90
      256
102
RTVSPost2010Prop51ColorRGB
 90
-16777216
102
RTVSPost2010PropOp51
 70
     0
102
RTVSPost2010Prop52
140
1.0
102
RTVSPost2010PropOp52
 70
     0
102
RTVSPost2010Prop53
 90
        2
102
RTVSPost2010PropOp53
 70
     1
102
RTVSPost2010Prop54
  1
strokes_ogs.tif
102
RTVSPost2010PropOp54
 70
     1
102
RTVSPost2010Prop55
280
     0
102
RTVSPost2010PropOp55
 70
     1
102
RTVSPost2010Prop56
140
1.0
102
RTVSPost2010PropOp56
 70
     1
102
RTVSPost2010Prop57
140
1.0
102
RTVSPost2010PropOp57
 70
     1
102
RTVSPropertyOp0
 70
     1
102
RTVSPropertyOp1
 70
     1
102
RTVSPropertyOp2
 70
     1
102
RTVSPropertyOp3
 70
     1
102
RTVSPropertyOp4
 70
     1
102
RTVSPropertyOp5
 70
     1
102
RTVSPropertyOp6
 70
     1
102
RTVSPropertyOp7
 70
     1
102
RTVSPropertyOp8
 70
     1
102
RTVSPropertyOp9
 70
     1
102
RTVSPropertyOp10
 70
     1
102
RTVSPropertyOp11
 70
     1
102
RTVSPropertyOp12
 70
     1
102
RTVSPropertyOp13
 70
     1
102
RTVSPropertyOp14
 70
     1
102
RTVSPropertyOp15
 70
     1
102
RTVSPropertyOp16
 70
     1
102
RTVSPropertyOp17
 70
     1
102
RTVSPropertyOp18
 70
     1
102
RTVSPropertyOp19
 70
     1
102
RTVSPropertyOp20
 70
     1
102
RTVSPropertyOp21
 70
     1
102
RTVSPropertyOp22
 70
     1
102
RTVSPropertyOp23
 70
     1
102
RTVSPropertyOp24
 70
     1
102
RTVSPropertyOp25
 70
     1
102
RTVSPropertyOp26
 70
     1
102
RTVSPropertyOp27
 70
     1
102
RTVSPropertyOp28
 70
     1
102
RTVSPropertyOp29
 70
     1
102
RTVSPropertyOp30
 70
     1
102
RTVSPropertyOp31
 70
     1
102
RTVSPropertyOp32
 70
     1
102
RTVSPropertyOp33
 70
     1
102
RTVSPropertyOp34
 70
     1
102
RTVSPropertyOp35
 70
     1
102
RTVSPropertyOp36
 70
     1
102
RTVSPropertyOp37
 70
     1
102
RTVSPropertyOp38
 70
     1
102
RTVSPropertyOp39
 70
     1
102
RTVSPropertyOp40
 70
     1
102
RTVSPropertyOp41
 70
     1
102
RTVSPropertyOp42
 70
     1
102
RTVSPropertyOp43
 70
     1
102
RTVSPropertyOp44
 70
     1
102
RTVSPropertyOp45
 70
     1
102
RTVSPropertyOp46
 70
     1
102
RTVSPropertyOp47
 70
     1
102
RTVSPropertyOp48
 70
     1
102
RTVSPropertyOp49
 70
     1
102
RTVSPropertyOp50
 70
     1
102
RTVSPropertyOp51
 70
     0
102
RTVSPropertyOp52
 70
     0
102
RTVSPropertyOp53
 70
     1
102
RTVSPropertyOp54
 70
     1
102
RTVSPropertyOp55
 70
     1
102
RTVSPropertyOp56
 70
     1
102
RTVSPropertyOp57
 70
     1
102
RTVSPropertyOp58
 70
     1
102
RTVSPropertyOp59
 70
     1
102
RTVSPropertyOp60
 70
     1
102
RTVSPropertyOp61
 70
     1
102
RTVSPropertyOp62
 70
     1
  0
XRECORD
  5
606D
102
{ACAD_REACTORS
330
606C
102
}
330
606C
100
AcDbXrecord
280
     1
102
RTVSPost2010Prop28
280
     0
102
RTVSPost2010PropOp28
 70
     1
102
RTVSPost2010Prop29
280
     1
102
RTVSPost2010PropOp29
 70
     1
102
RTVSPost2010Prop30
280
     1
102
RTVSPost2010PropOp30
 70
     1
102
RTVSPost2010Prop31
280
     0
102
RTVSPost2010PropOp31
 70
     1
102
RTVSPost2010Prop32
280
     0
102
RTVSPost2010PropOp32
 70
     1
102
RTVSPost2010Prop33
280
     0
102
RTVSPost2010PropOp33
 70
     1
102
RTVSPost2010Prop34
280
     0
102
RTVSPost2010PropOp34
 70
     1
102
RTVSPost2010Prop35
280
     0
102
RTVSPost2010PropOp35
 70
     1
102
RTVSPost2010Prop36
280
     0
102
RTVSPost2010PropOp36
 70
     1
102
RTVSPost2010Prop37
 90
       50
102
RTVSPost2010PropOp37
 70
     1
102
RTVSPost2010Prop38
140
0.0
102
RTVSPost2010PropOp38
 70
     1
102
RTVSPost2010Prop39
140
1.0
102
RTVSPost2010PropOp39
 70
     1
102
RTVSPost2010Prop40
 90
        0
102
RTVSPost2010PropOp40
 70
     1
102
RTVSPost2010Prop41ColorIndex
 90
       18
102
RTVSPost2010Prop41ColorRGB
 90
        0
102
RTVSPost2010PropOp41
 70
     1
102
RTVSPost2010Prop42
 90
       50
102
RTVSPost2010PropOp42
 70
     1
102
RTVSPost2010Prop43
 90
        3
102
RTVSPost2010PropOp43
 70
     1
102
RTVSPost2010Prop44ColorIndex
 90
        5
102
RTVSPost2010Prop44ColorRGB
 90
      255
102
RTVSPost2010PropOp44
 70
     1
102
RTVSPost2010Prop45
280
     0
102
RTVSPost2010PropOp45
 70
     1
102
RTVSPost2010Prop46
 90
       50
102
RTVSPost2010PropOp46
 70
     1
102
RTVSPost2010Prop47
 90
       50
102
RTVSPost2010PropOp47
 70
     1
102
RTVSPost2010Prop48
 90
       50
102
RTVSPost2010PropOp48
 70
     1
102
RTVSPost2010Prop49
280
     0
102
RTVSPost2010PropOp49
 70
     1
102
RTVSPost2010Prop50
 90
       50
102
RTVSPost2010PropOp50
 70
     1
102
RTVSPost2010Prop51ColorIndex
 90
      256
102
RTVSPost2010Prop51ColorRGB
 90
-16777216
102
RTVSPost2010PropOp51
 70
     0
102
RTVSPost2010Prop52
140
1.0
102
RTVSPost2010PropOp52
 70
     0
102
RTVSPost2010Prop53
 90
        2
102
RTVSPost2010PropOp53
 70
     1
102
RTVSPost2010Prop54
  1
strokes_ogs.tif
102
RTVSPost2010PropOp54
 70
     1
102
RTVSPost2010Prop55
280
     0
102
RTVSPost2010PropOp55
 70
     1
102
RTVSPost2010Prop56
140
1.0
102
RTVSPost2010PropOp56
 70
     1
102
RTVSPost2010Prop57
140
1.0
102
RTVSPost2010PropOp57
 70
     1
102
RTVSPropertyOp0
 70
     1
102
RTVSPropertyOp1
 70
     1
102
RTVSPropertyOp2
 70
     1
102
RTVSPropertyOp3
 70
     1
102
RTVSPropertyOp4
 70
     1
102
RTVSPropertyOp5
 70
     1
102
RTVSPropertyOp6
 70
     1
102
RTVSPropertyOp7
 70
     1
102
RTVSPropertyOp8
 70
     1
102
RTVSPropertyOp9
 70
     1
102
RTVSPropertyOp10
 70
     1
102
RTVSPropertyOp11
 70
     1
102
RTVSPropertyOp12
 70
     1
102
RTVSPropertyOp13
 70
     1
102
RTVSPropertyOp14
 70
     1
102
RTVSPropertyOp15
 70
     1
102
RTVSPropertyOp16
 70
     1
102
RTVSPropertyOp17
 70
     1
102
RTVSPropertyOp18
 70
     1
102
RTVSPropertyOp19
 70
     1
102
RTVSPropertyOp20
 70
     1
102
RTVSPropertyOp21
 70
     1
102
RTVSPropertyOp22
 70
     1
102
RTVSPropertyOp23
 70
     1
102
RTVSPropertyOp24
 70
     1
102
RTVSPropertyOp25
 70
     1
102
RTVSPropertyOp26
 70
     1
102
RTVSPropertyOp27
 70
     1
102
RTVSPropertyOp28
 70
     1
102
RTVSPropertyOp29
 70
     1
102
RTVSPropertyOp30
 70
     1
102
RTVSPropertyOp31
 70
     1
102
RTVSPropertyOp32
 70
     1
102
RTVSPropertyOp33
 70
     1
102
RTVSPropertyOp34
 70
     1
102
RTVSPropertyOp35
 70
     1
102
RTVSPropertyOp36
 70
     1
102
RTVSPropertyOp37
 70
     1
102
RTVSPropertyOp38
 70
     1
102
RTVSPropertyOp39
 70
     1
102
RTVSPropertyOp40
 70
     1
102
RTVSPropertyOp41
 70
     1
102
RTVSPropertyOp42
 70
     1
102
RTVSPropertyOp43
 70
     1
102
RTVSPropertyOp44
 70
     1
102
RTVSPropertyOp45
 70
     1
102
RTVSPropertyOp46
 70
     1
102
RTVSPropertyOp47
 70
     1
102
RTVSPropertyOp48
 70
     1
102
RTVSPropertyOp49
 70
     1
102
RTVSPropertyOp50
 70
     1
102
RTVSPropertyOp51
 70
     0
102
RTVSPropertyOp52
 70
     0
102
RTVSPropertyOp53
 70
     1
102
RTVSPropertyOp54
 70
     1
102
RTVSPropertyOp55
 70
     1
102
RTVSPropertyOp56
 70
     1
102
RTVSPropertyOp57
 70
     1
102
RTVSPropertyOp58
 70
     1
102
RTVSPropertyOp59
 70
     1
102
RTVSPropertyOp60
 70
     1
102
RTVSPropertyOp61
 70
     1
102
RTVSPropertyOp62
 70
     1
  0
XRECORD
  5
6081
102
{ACAD_REACTORS
330
6080
102
}
330
6080
100
AcDbXrecord
280
     1
102
RTVSPost2010Prop28
280
     0
102
RTVSPost2010PropOp28
 70
     1
102
RTVSPost2010Prop29
280
     1
102
RTVSPost2010PropOp29
 70
     1
102
RTVSPost2010Prop30
280
     1
102
RTVSPost2010PropOp30
 70
     1
102
RTVSPost2010Prop31
280
     0
102
RTVSPost2010PropOp31
 70
     1
102
RTVSPost2010Prop32
280
     0
102
RTVSPost2010PropOp32
 70
     1
102
RTVSPost2010Prop33
280
     0
102
RTVSPost2010PropOp33
 70
     1
102
RTVSPost2010Prop34
280
     0
102
RTVSPost2010PropOp34
 70
     1
102
RTVSPost2010Prop35
280
     0
102
RTVSPost2010PropOp35
 70
     1
102
RTVSPost2010Prop36
280
     0
102
RTVSPost2010PropOp36
 70
     1
102
RTVSPost2010Prop37
 90
       50
102
RTVSPost2010PropOp37
 70
     1
102
RTVSPost2010Prop38
140
0.0
102
RTVSPost2010PropOp38
 70
     1
102
RTVSPost2010Prop39
140
1.0
102
RTVSPost2010PropOp39
 70
     1
102
RTVSPost2010Prop40
 90
        0
102
RTVSPost2010PropOp40
 70
     1
102
RTVSPost2010Prop41ColorIndex
 90
       18
102
RTVSPost2010Prop41ColorRGB
 90
        0
102
RTVSPost2010PropOp41
 70
     1
102
RTVSPost2010Prop42
 90
       50
102
RTVSPost2010PropOp42
 70
     1
102
RTVSPost2010Prop43
 90
        3
102
RTVSPost2010PropOp43
 70
     1
102
RTVSPost2010Prop44ColorIndex
 90
        5
102
RTVSPost2010Prop44ColorRGB
 90
      255
102
RTVSPost2010PropOp44
 70
     1
102
RTVSPost2010Prop45
280
     0
102
RTVSPost2010PropOp45
 70
     1
102
RTVSPost2010Prop46
 90
       50
102
RTVSPost2010PropOp46
 70
     1
102
RTVSPost2010Prop47
 90
       50
102
RTVSPost2010PropOp47
 70
     1
102
RTVSPost2010Prop48
 90
       50
102
RTVSPost2010PropOp48
 70
     1
102
RTVSPost2010Prop49
280
     0
102
RTVSPost2010PropOp49
 70
     1
102
RTVSPost2010Prop50
 90
       50
102
RTVSPost2010PropOp50
 70
     1
102
RTVSPost2010Prop51ColorIndex
 90
      256
102
RTVSPost2010Prop51ColorRGB
 90
-16777216
102
RTVSPost2010PropOp51
 70
     0
102
RTVSPost2010Prop52
140
1.0
102
RTVSPost2010PropOp52
 70
     0
102
RTVSPost2010Prop53
 90
        2
102
RTVSPost2010PropOp53
 70
     1
102
RTVSPost2010Prop54
  1
strokes_ogs.tif
102
RTVSPost2010PropOp54
 70
     1
102
RTVSPost2010Prop55
280
     0
102
RTVSPost2010PropOp55
 70
     1
102
RTVSPost2010Prop56
140
1.0
102
RTVSPost2010PropOp56
 70
     1
102
RTVSPost2010Prop57
140
1.0
102
RTVSPost2010PropOp57
 70
     1
102
RTVSPropertyOp0
 70
     0
102
RTVSPropertyOp1
 70
     0
102
RTVSPropertyOp2
 70
     0
102
RTVSPropertyOp3
 70
     0
102
RTVSPropertyOp4
 70
     0
102
RTVSPropertyOp5
 70
     0
102
RTVSPropertyOp6
 70
     0
102
RTVSPropertyOp7
 70
     0
102
RTVSPropertyOp8
 70
     0
102
RTVSPropertyOp9
 70
     0
102
RTVSPropertyOp10
 70
     0
102
RTVSPropertyOp11
 70
     0
102
RTVSPropertyOp12
 70
     0
102
RTVSPropertyOp13
 70
     0
102
RTVSPropertyOp14
 70
     2
102
RTVSPropertyOp15
 70
     0
102
RTVSPropertyOp16
 70
     0
102
RTVSPropertyOp17
 70
     0
102
RTVSPropertyOp18
 70
     0
102
RTVSPropertyOp19
 70
     0
102
RTVSPropertyOp20
 70
     0
102
RTVSPropertyOp21
 70
     0
102
RTVSPropertyOp22
 70
     0
102
RTVSPropertyOp23
 70
     0
102
RTVSPropertyOp24
 70
     0
102
RTVSPropertyOp25
 70
     0
102
RTVSPropertyOp26
 70
     0
102
RTVSPropertyOp27
 70
     0
102
RTVSPropertyOp28
 70
     1
102
RTVSPropertyOp29
 70
     1
102
RTVSPropertyOp30
 70
     1
102
RTVSPropertyOp31
 70
     1
102
RTVSPropertyOp32
 70
     1
102
RTVSPropertyOp33
 70
     1
102
RTVSPropertyOp34
 70
     1
102
RTVSPropertyOp35
 70
     1
102
RTVSPropertyOp36
 70
     1
102
RTVSPropertyOp37
 70
     1
102
RTVSPropertyOp38
 70
     1
102
RTVSPropertyOp39
 70
     1
102
RTVSPropertyOp40
 70
     1
102
RTVSPropertyOp41
 70
     1
102
RTVSPropertyOp42
 70
     1
102
RTVSPropertyOp43
 70
     1
102
RTVSPropertyOp44
 70
     1
102
RTVSPropertyOp45
 70
     1
102
RTVSPropertyOp46
 70
     1
102
RTVSPropertyOp47
 70
     1
102
RTVSPropertyOp48
 70
     1
102
RTVSPropertyOp49
 70
     1
102
RTVSPropertyOp50
 70
     1
102
RTVSPropertyOp51
 70
     0
102
RTVSPropertyOp52
 70
     0
102
RTVSPropertyOp53
 70
     1
102
RTVSPropertyOp54
 70
     1
102
RTVSPropertyOp55
 70
     1
102
RTVSPropertyOp56
 70
     1
102
RTVSPropertyOp57
 70
     1
102
RTVSPropertyOp58
 70
     1
102
RTVSPropertyOp59
 70
     1
102
RTVSPropertyOp60
 70
     1
102
RTVSPropertyOp61
 70
     1
102
RTVSPropertyOp62
 70
     1
  0
XRECORD
  5
6079
102
{ACAD_REACTORS
330
6078
102
}
330
6078
100
AcDbXrecord
280
     1
102
RTVSPost2010Prop28
280
     0
102
RTVSPost2010PropOp28
 70
     1
102
RTVSPost2010Prop29
280
     1
102
RTVSPost2010PropOp29
 70
     1
102
RTVSPost2010Prop30
280
     1
102
RTVSPost2010PropOp30
 70
     1
102
RTVSPost2010Prop31
280
     0
102
RTVSPost2010PropOp31
 70
     1
102
RTVSPost2010Prop32
280
     0
102
RTVSPost2010PropOp32
 70
     1
102
RTVSPost2010Prop33
280
     0
102
RTVSPost2010PropOp33
 70
     1
102
RTVSPost2010Prop34
280
     0
102
RTVSPost2010PropOp34
 70
     1
102
RTVSPost2010Prop35
280
     0
102
RTVSPost2010PropOp35
 70
     1
102
RTVSPost2010Prop36
280
     0
102
RTVSPost2010PropOp36
 70
     1
102
RTVSPost2010Prop37
 90
       50
102
RTVSPost2010PropOp37
 70
     1
102
RTVSPost2010Prop38
140
0.0
102
RTVSPost2010PropOp38
 70
     1
102
RTVSPost2010Prop39
140
1.0
102
RTVSPost2010PropOp39
 70
     1
102
RTVSPost2010Prop40
 90
        0
102
RTVSPost2010PropOp40
 70
     1
102
RTVSPost2010Prop41ColorIndex
 90
       18
102
RTVSPost2010Prop41ColorRGB
 90
        0
102
RTVSPost2010PropOp41
 70
     1
102
RTVSPost2010Prop42
 90
       50
102
RTVSPost2010PropOp42
 70
     1
102
RTVSPost2010Prop43
 90
        3
102
RTVSPost2010PropOp43
 70
     1
102
RTVSPost2010Prop44ColorIndex
 90
        5
102
RTVSPost2010Prop44ColorRGB
 90
      255
102
RTVSPost2010PropOp44
 70
     1
102
RTVSPost2010Prop45
280
     0
102
RTVSPost2010PropOp45
 70
     1
102
RTVSPost2010Prop46
 90
       50
102
RTVSPost2010PropOp46
 70
     1
102
RTVSPost2010Prop47
 90
       50
102
RTVSPost2010PropOp47
 70
     1
102
RTVSPost2010Prop48
 90
       50
102
RTVSPost2010PropOp48
 70
     1
102
RTVSPost2010Prop49
280
     0
102
RTVSPost2010PropOp49
 70
     1
102
RTVSPost2010Prop50
 90
       50
102
RTVSPost2010PropOp50
 70
     1
102
RTVSPost2010Prop51ColorIndex
 90
      256
102
RTVSPost2010Prop51ColorRGB
 90
-16777216
102
RTVSPost2010PropOp51
 70
     0
102
RTVSPost2010Prop52
140
1.0
102
RTVSPost2010PropOp52
 70
     0
102
RTVSPost2010Prop53
 90
        2
102
RTVSPost2010PropOp53
 70
     1
102
RTVSPost2010Prop54
  1
strokes_ogs.tif
102
RTVSPost2010PropOp54
 70
     1
102
RTVSPost2010Prop55
280
     0
102
RTVSPost2010PropOp55
 70
     1
102
RTVSPost2010Prop56
140
1.0
102
RTVSPost2010PropOp56
 70
     1
102
RTVSPost2010Prop57
140
1.0
102
RTVSPost2010PropOp57
 70
     1
102
RTVSPropertyOp0
 70
     1
102
RTVSPropertyOp1
 70
     1
102
RTVSPropertyOp2
 70
     1
102
RTVSPropertyOp3
 70
     1
102
RTVSPropertyOp4
 70
     1
102
RTVSPropertyOp5
 70
     1
102
RTVSPropertyOp6
 70
     1
102
RTVSPropertyOp7
 70
     1
102
RTVSPropertyOp8
 70
     1
102
RTVSPropertyOp9
 70
     1
102
RTVSPropertyOp10
 70
     1
102
RTVSPropertyOp11
 70
     1
102
RTVSPropertyOp12
 70
     1
102
RTVSPropertyOp13
 70
     1
102
RTVSPropertyOp14
 70
     1
102
RTVSPropertyOp15
 70
     1
102
RTVSPropertyOp16
 70
     1
102
RTVSPropertyOp17
 70
     1
102
RTVSPropertyOp18
 70
     1
102
RTVSPropertyOp19
 70
     1
102
RTVSPropertyOp20
 70
     1
102
RTVSPropertyOp21
 70
     1
102
RTVSPropertyOp22
 70
     1
102
RTVSPropertyOp23
 70
     1
102
RTVSPropertyOp24
 70
     1
102
RTVSPropertyOp25
 70
     1
102
RTVSPropertyOp26
 70
     1
102
RTVSPropertyOp27
 70
     1
102
RTVSPropertyOp28
 70
     1
102
RTVSPropertyOp29
 70
     1
102
RTVSPropertyOp30
 70
     1
102
RTVSPropertyOp31
 70
     1
102
RTVSPropertyOp32
 70
     1
102
RTVSPropertyOp33
 70
     1
102
RTVSPropertyOp34
 70
     1
102
RTVSPropertyOp35
 70
     1
102
RTVSPropertyOp36
 70
     1
102
RTVSPropertyOp37
 70
     1
102
RTVSPropertyOp38
 70
     1
102
RTVSPropertyOp39
 70
     1
102
RTVSPropertyOp40
 70
     1
102
RTVSPropertyOp41
 70
     1
102
RTVSPropertyOp42
 70
     1
102
RTVSPropertyOp43
 70
     1
102
RTVSPropertyOp44
 70
     1
102
RTVSPropertyOp45
 70
     1
102
RTVSPropertyOp46
 70
     1
102
RTVSPropertyOp47
 70
     1
102
RTVSPropertyOp48
 70
     1
102
RTVSPropertyOp49
 70
     1
102
RTVSPropertyOp50
 70
     1
102
RTVSPropertyOp51
 70
     0
102
RTVSPropertyOp52
 70
     0
102
RTVSPropertyOp53
 70
     1
102
RTVSPropertyOp54
 70
     1
102
RTVSPropertyOp55
 70
     1
102
RTVSPropertyOp56
 70
     1
102
RTVSPropertyOp57
 70
     1
102
RTVSPropertyOp58
 70
     1
102
RTVSPropertyOp59
 70
     1
102
RTVSPropertyOp60
 70
     1
102
RTVSPropertyOp61
 70
     1
102
RTVSPropertyOp62
 70
     1
  0
XRECORD
  5
6083
102
{ACAD_REACTORS
330
6082
102
}
330
6082
100
AcDbXrecord
280
     1
102
RTVSPost2010Prop28
280
     0
102
RTVSPost2010PropOp28
 70
     1
102
RTVSPost2010Prop29
280
     1
102
RTVSPost2010PropOp29
 70
     1
102
RTVSPost2010Prop30
280
     1
102
RTVSPost2010PropOp30
 70
     1
102
RTVSPost2010Prop31
280
     0
102
RTVSPost2010PropOp31
 70
     1
102
RTVSPost2010Prop32
280
     0
102
RTVSPost2010PropOp32
 70
     1
102
RTVSPost2010Prop33
280
     0
102
RTVSPost2010PropOp33
 70
     1
102
RTVSPost2010Prop34
280
     0
102
RTVSPost2010PropOp34
 70
     1
102
RTVSPost2010Prop35
280
     0
102
RTVSPost2010PropOp35
 70
     1
102
RTVSPost2010Prop36
280
     0
102
RTVSPost2010PropOp36
 70
     1
102
RTVSPost2010Prop37
 90
       50
102
RTVSPost2010PropOp37
 70
     1
102
RTVSPost2010Prop38
140
0.0
102
RTVSPost2010PropOp38
 70
     1
102
RTVSPost2010Prop39
140
1.0
102
RTVSPost2010PropOp39
 70
     1
102
RTVSPost2010Prop40
 90
        0
102
RTVSPost2010PropOp40
 70
     1
102
RTVSPost2010Prop41ColorIndex
 90
       18
102
RTVSPost2010Prop41ColorRGB
 90
        0
102
RTVSPost2010PropOp41
 70
     1
102
RTVSPost2010Prop42
 90
       50
102
RTVSPost2010PropOp42
 70
     1
102
RTVSPost2010Prop43
 90
        3
102
RTVSPost2010PropOp43
 70
     1
102
RTVSPost2010Prop44ColorIndex
 90
        5
102
RTVSPost2010Prop44ColorRGB
 90
      255
102
RTVSPost2010PropOp44
 70
     1
102
RTVSPost2010Prop45
280
     0
102
RTVSPost2010PropOp45
 70
     1
102
RTVSPost2010Prop46
 90
       50
102
RTVSPost2010PropOp46
 70
     1
102
RTVSPost2010Prop47
 90
       50
102
RTVSPost2010PropOp47
 70
     1
102
RTVSPost2010Prop48
 90
       50
102
RTVSPost2010PropOp48
 70
     1
102
RTVSPost2010Prop49
280
     0
102
RTVSPost2010PropOp49
 70
     1
102
RTVSPost2010Prop50
 90
       50
102
RTVSPost2010PropOp50
 70
     1
102
RTVSPost2010Prop51ColorIndex
 90
      256
102
RTVSPost2010Prop51ColorRGB
 90
-16777216
102
RTVSPost2010PropOp51
 70
     0
102
RTVSPost2010Prop52
140
1.0
102
RTVSPost2010PropOp52
 70
     0
102
RTVSPost2010Prop53
 90
        2
102
RTVSPost2010PropOp53
 70
     1
102
RTVSPost2010Prop54
  1
strokes_ogs.tif
102
RTVSPost2010PropOp54
 70
     1
102
RTVSPost2010Prop55
280
     0
102
RTVSPost2010PropOp55
 70
     1
102
RTVSPost2010Prop56
140
1.0
102
RTVSPost2010PropOp56
 70
     1
102
RTVSPost2010Prop57
140
1.0
102
RTVSPost2010PropOp57
 70
     1
102
RTVSPropertyOp0
 70
     0
102
RTVSPropertyOp1
 70
     0
102
RTVSPropertyOp2
 70
     0
102
RTVSPropertyOp3
 70
     0
102
RTVSPropertyOp4
 70
     0
102
RTVSPropertyOp5
 70
     0
102
RTVSPropertyOp6
 70
     0
102
RTVSPropertyOp7
 70
     0
102
RTVSPropertyOp8
 70
     0
102
RTVSPropertyOp9
 70
     0
102
RTVSPropertyOp10
 70
     0
102
RTVSPropertyOp11
 70
     0
102
RTVSPropertyOp12
 70
     0
102
RTVSPropertyOp13
 70
     0
102
RTVSPropertyOp14
 70
     2
102
RTVSPropertyOp15
 70
     0
102
RTVSPropertyOp16
 70
     0
102
RTVSPropertyOp17
 70
     0
102
RTVSPropertyOp18
 70
     0
102
RTVSPropertyOp19
 70
     0
102
RTVSPropertyOp20
 70
     0
102
RTVSPropertyOp21
 70
     0
102
RTVSPropertyOp22
 70
     0
102
RTVSPropertyOp23
 70
     0
102
RTVSPropertyOp24
 70
     0
102
RTVSPropertyOp25
 70
     0
102
RTVSPropertyOp26
 70
     0
102
RTVSPropertyOp27
 70
     0
102
RTVSPropertyOp28
 70
     1
102
RTVSPropertyOp29
 70
     1
102
RTVSPropertyOp30
 70
     1
102
RTVSPropertyOp31
 70
     1
102
RTVSPropertyOp32
 70
     1
102
RTVSPropertyOp33
 70
     1
102
RTVSPropertyOp34
 70
     1
102
RTVSPropertyOp35
 70
     1
102
RTVSPropertyOp36
 70
     1
102
RTVSPropertyOp37
 70
     1
102
RTVSPropertyOp38
 70
     1
102
RTVSPropertyOp39
 70
     1
102
RTVSPropertyOp40
 70
     1
102
RTVSPropertyOp41
 70
     1
102
RTVSPropertyOp42
 70
     1
102
RTVSPropertyOp43
 70
     1
102
RTVSPropertyOp44
 70
     1
102
RTVSPropertyOp45
 70
     1
102
RTVSPropertyOp46
 70
     1
102
RTVSPropertyOp47
 70
     1
102
RTVSPropertyOp48
 70
     1
102
RTVSPropertyOp49
 70
     1
102
RTVSPropertyOp50
 70
     1
102
RTVSPropertyOp51
 70
     0
102
RTVSPropertyOp52
 70
     0
102
RTVSPropertyOp53
 70
     1
102
RTVSPropertyOp54
 70
     1
102
RTVSPropertyOp55
 70
     1
102
RTVSPropertyOp56
 70
     1
102
RTVSPropertyOp57
 70
     1
102
RTVSPropertyOp58
 70
     1
102
RTVSPropertyOp59
 70
     1
102
RTVSPropertyOp60
 70
     1
102
RTVSPropertyOp61
 70
     1
102
RTVSPropertyOp62
 70
     1
  0
XRECORD
  5
6071
102
{ACAD_REACTORS
330
6070
102
}
330
6070
100
AcDbXrecord
280
     1
102
RTVSPost2010Prop28
280
     0
102
RTVSPost2010PropOp28
 70
     1
102
RTVSPost2010Prop29
280
     1
102
RTVSPost2010PropOp29
 70
     1
102
RTVSPost2010Prop30
280
     1
102
RTVSPost2010PropOp30
 70
     1
102
RTVSPost2010Prop31
280
     0
102
RTVSPost2010PropOp31
 70
     1
102
RTVSPost2010Prop32
280
     0
102
RTVSPost2010PropOp32
 70
     1
102
RTVSPost2010Prop33
280
     0
102
RTVSPost2010PropOp33
 70
     1
102
RTVSPost2010Prop34
280
     0
102
RTVSPost2010PropOp34
 70
     1
102
RTVSPost2010Prop35
280
     0
102
RTVSPost2010PropOp35
 70
     1
102
RTVSPost2010Prop36
280
     0
102
RTVSPost2010PropOp36
 70
     1
102
RTVSPost2010Prop37
 90
       50
102
RTVSPost2010PropOp37
 70
     1
102
RTVSPost2010Prop38
140
0.0
102
RTVSPost2010PropOp38
 70
     1
102
RTVSPost2010Prop39
140
1.0
102
RTVSPost2010PropOp39
 70
     1
102
RTVSPost2010Prop40
 90
        0
102
RTVSPost2010PropOp40
 70
     1
102
RTVSPost2010Prop41ColorIndex
 90
       18
102
RTVSPost2010Prop41ColorRGB
 90
        0
102
RTVSPost2010PropOp41
 70
     1
102
RTVSPost2010Prop42
 90
       50
102
RTVSPost2010PropOp42
 70
     1
102
RTVSPost2010Prop43
 90
        3
102
RTVSPost2010PropOp43
 70
     1
102
RTVSPost2010Prop44ColorIndex
 90
        5
102
RTVSPost2010Prop44ColorRGB
 90
      255
102
RTVSPost2010PropOp44
 70
     1
102
RTVSPost2010Prop45
280
     0
102
RTVSPost2010PropOp45
 70
     1
102
RTVSPost2010Prop46
 90
       50
102
RTVSPost2010PropOp46
 70
     1
102
RTVSPost2010Prop47
 90
       50
102
RTVSPost2010PropOp47
 70
     1
102
RTVSPost2010Prop48
 90
       50
102
RTVSPost2010PropOp48
 70
     1
102
RTVSPost2010Prop49
280
     0
102
RTVSPost2010PropOp49
 70
     1
102
RTVSPost2010Prop50
 90
       50
102
RTVSPost2010PropOp50
 70
     1
102
RTVSPost2010Prop51ColorIndex
 90
      256
102
RTVSPost2010Prop51ColorRGB
 90
-16777216
102
RTVSPost2010PropOp51
 70
     0
102
RTVSPost2010Prop52
140
1.0
102
RTVSPost2010PropOp52
 70
     0
102
RTVSPost2010Prop53
 90
        2
102
RTVSPost2010PropOp53
 70
     1
102
RTVSPost2010Prop54
  1
strokes_ogs.tif
102
RTVSPost2010PropOp54
 70
     1
102
RTVSPost2010Prop55
280
     0
102
RTVSPost2010PropOp55
 70
     1
102
RTVSPost2010Prop56
140
1.0
102
RTVSPost2010PropOp56
 70
     1
102
RTVSPost2010Prop57
140
1.0
102
RTVSPost2010PropOp57
 70
     1
102
RTVSPropertyOp0
 70
     1
102
RTVSPropertyOp1
 70
     1
102
RTVSPropertyOp2
 70
     1
102
RTVSPropertyOp3
 70
     1
102
RTVSPropertyOp4
 70
     1
102
RTVSPropertyOp5
 70
     1
102
RTVSPropertyOp6
 70
     1
102
RTVSPropertyOp7
 70
     1
102
RTVSPropertyOp8
 70
     1
102
RTVSPropertyOp9
 70
     1
102
RTVSPropertyOp10
 70
     1
102
RTVSPropertyOp11
 70
     1
102
RTVSPropertyOp12
 70
     1
102
RTVSPropertyOp13
 70
     1
102
RTVSPropertyOp14
 70
     1
102
RTVSPropertyOp15
 70
     1
102
RTVSPropertyOp16
 70
     1
102
RTVSPropertyOp17
 70
     1
102
RTVSPropertyOp18
 70
     1
102
RTVSPropertyOp19
 70
     1
102
RTVSPropertyOp20
 70
     1
102
RTVSPropertyOp21
 70
     1
102
RTVSPropertyOp22
 70
     1
102
RTVSPropertyOp23
 70
     1
102
RTVSPropertyOp24
 70
     1
102
RTVSPropertyOp25
 70
     1
102
RTVSPropertyOp26
 70
     1
102
RTVSPropertyOp27
 70
     1
102
RTVSPropertyOp28
 70
     1
102
RTVSPropertyOp29
 70
     1
102
RTVSPropertyOp30
 70
     1
102
RTVSPropertyOp31
 70
     1
102
RTVSPropertyOp32
 70
     1
102
RTVSPropertyOp33
 70
     1
102
RTVSPropertyOp34
 70
     1
102
RTVSPropertyOp35
 70
     1
102
RTVSPropertyOp36
 70
     1
102
RTVSPropertyOp37
 70
     1
102
RTVSPropertyOp38
 70
     1
102
RTVSPropertyOp39
 70
     1
102
RTVSPropertyOp40
 70
     1
102
RTVSPropertyOp41
 70
     1
102
RTVSPropertyOp42
 70
     1
102
RTVSPropertyOp43
 70
     1
102
RTVSPropertyOp44
 70
     1
102
RTVSPropertyOp45
 70
     1
102
RTVSPropertyOp46
 70
     1
102
RTVSPropertyOp47
 70
     1
102
RTVSPropertyOp48
 70
     1
102
RTVSPropertyOp49
 70
     1
102
RTVSPropertyOp50
 70
     1
102
RTVSPropertyOp51
 70
     0
102
RTVSPropertyOp52
 70
     0
102
RTVSPropertyOp53
 70
     1
102
RTVSPropertyOp54
 70
     1
102
RTVSPropertyOp55
 70
     1
102
RTVSPropertyOp56
 70
     1
102
RTVSPropertyOp57
 70
     1
102
RTVSPropertyOp58
 70
     1
102
RTVSPropertyOp59
 70
     1
102
RTVSPropertyOp60
 70
     1
102
RTVSPropertyOp61
 70
     1
102
RTVSPropertyOp62
 70
     1
  0
XRECORD
  5
608F
102
{ACAD_REACTORS
330
608E
102
}
330
608E
100
AcDbXrecord
280
     1
102
RTVSPost2010Prop28
280
     0
102
RTVSPost2010PropOp28
 70
     1
102
RTVSPost2010Prop29
280
     1
102
RTVSPost2010PropOp29
 70
     1
102
RTVSPost2010Prop30
280
     1
102
RTVSPost2010PropOp30
 70
     1
102
RTVSPost2010Prop31
280
     0
102
RTVSPost2010PropOp31
 70
     1
102
RTVSPost2010Prop32
280
     0
102
RTVSPost2010PropOp32
 70
     1
102
RTVSPost2010Prop33
280
     0
102
RTVSPost2010PropOp33
 70
     1
102
RTVSPost2010Prop34
280
     0
102
RTVSPost2010PropOp34
 70
     1
102
RTVSPost2010Prop35
280
     0
102
RTVSPost2010PropOp35
 70
     1
102
RTVSPost2010Prop36
280
     0
102
RTVSPost2010PropOp36
 70
     1
102
RTVSPost2010Prop37
 90
       50
102
RTVSPost2010PropOp37
 70
     1
102
RTVSPost2010Prop38
140
0.0
102
RTVSPost2010PropOp38
 70
     1
102
RTVSPost2010Prop39
140
1.0
102
RTVSPost2010PropOp39
 70
     1
102
RTVSPost2010Prop40
 90
        0
102
RTVSPost2010PropOp40
 70
     1
102
RTVSPost2010Prop41ColorIndex
 90
       18
102
RTVSPost2010Prop41ColorRGB
 90
        0
102
RTVSPost2010PropOp41
 70
     1
102
RTVSPost2010Prop42
 90
       50
102
RTVSPost2010PropOp42
 70
     1
102
RTVSPost2010Prop43
 90
        3
102
RTVSPost2010PropOp43
 70
     1
102
RTVSPost2010Prop44ColorIndex
 90
        5
102
RTVSPost2010Prop44ColorRGB
 90
      255
102
RTVSPost2010PropOp44
 70
     1
102
RTVSPost2010Prop45
280
     0
102
RTVSPost2010PropOp45
 70
     1
102
RTVSPost2010Prop46
 90
       50
102
RTVSPost2010PropOp46
 70
     1
102
RTVSPost2010Prop47
 90
       50
102
RTVSPost2010PropOp47
 70
     1
102
RTVSPost2010Prop48
 90
       50
102
RTVSPost2010PropOp48
 70
     1
102
RTVSPost2010Prop49
280
     0
102
RTVSPost2010PropOp49
 70
     1
102
RTVSPost2010Prop50
 90
       50
102
RTVSPost2010PropOp50
 70
     1
102
RTVSPost2010Prop51ColorIndex
 90
      256
102
RTVSPost2010Prop51ColorRGB
 90
-16777216
102
RTVSPost2010PropOp51
 70
     0
102
RTVSPost2010Prop52
140
1.0
102
RTVSPost2010PropOp52
 70
     0
102
RTVSPost2010Prop53
 90
        2
102
RTVSPost2010PropOp53
 70
     1
102
RTVSPost2010Prop54
  1
strokes_ogs.tif
102
RTVSPost2010PropOp54
 70
     1
102
RTVSPost2010Prop55
280
     0
102
RTVSPost2010PropOp55
 70
     1
102
RTVSPost2010Prop56
140
1.0
102
RTVSPost2010PropOp56
 70
     1
102
RTVSPost2010Prop57
140
1.0
102
RTVSPost2010PropOp57
 70
     1
102
RTVSPropertyOp0
 70
     1
102
RTVSPropertyOp1
 70
     1
102
RTVSPropertyOp2
 70
     1
102
RTVSPropertyOp3
 70
     1
102
RTVSPropertyOp4
 70
     1
102
RTVSPropertyOp5
 70
     1
102
RTVSPropertyOp6
 70
     1
102
RTVSPropertyOp7
 70
     1
102
RTVSPropertyOp8
 70
     1
102
RTVSPropertyOp9
 70
     1
102
RTVSPropertyOp10
 70
     1
102
RTVSPropertyOp11
 70
     1
102
RTVSPropertyOp12
 70
     1
102
RTVSPropertyOp13
 70
     1
102
RTVSPropertyOp14
 70
     1
102
RTVSPropertyOp15
 70
     1
102
RTVSPropertyOp16
 70
     1
102
RTVSPropertyOp17
 70
     1
102
RTVSPropertyOp18
 70
     1
102
RTVSPropertyOp19
 70
     1
102
RTVSPropertyOp20
 70
     1
102
RTVSPropertyOp21
 70
     1
102
RTVSPropertyOp22
 70
     1
102
RTVSPropertyOp23
 70
     1
102
RTVSPropertyOp24
 70
     1
102
RTVSPropertyOp25
 70
     1
102
RTVSPropertyOp26
 70
     1
102
RTVSPropertyOp27
 70
     1
102
RTVSPropertyOp28
 70
     1
102
RTVSPropertyOp29
 70
     1
102
RTVSPropertyOp30
 70
     1
102
RTVSPropertyOp31
 70
     1
102
RTVSPropertyOp32
 70
     1
102
RTVSPropertyOp33
 70
     1
102
RTVSPropertyOp34
 70
     1
102
RTVSPropertyOp35
 70
     1
102
RTVSPropertyOp36
 70
     1
102
RTVSPropertyOp37
 70
     1
102
RTVSPropertyOp38
 70
     1
102
RTVSPropertyOp39
 70
     1
102
RTVSPropertyOp40
 70
     1
102
RTVSPropertyOp41
 70
     1
102
RTVSPropertyOp42
 70
     1
102
RTVSPropertyOp43
 70
     1
102
RTVSPropertyOp44
 70
     1
102
RTVSPropertyOp45
 70
     1
102
RTVSPropertyOp46
 70
     1
102
RTVSPropertyOp47
 70
     1
102
RTVSPropertyOp48
 70
     1
102
RTVSPropertyOp49
 70
     1
102
RTVSPropertyOp50
 70
     1
102
RTVSPropertyOp51
 70
     0
102
RTVSPropertyOp52
 70
     0
102
RTVSPropertyOp53
 70
     1
102
RTVSPropertyOp54
 70
     1
102
RTVSPropertyOp55
 70
     1
102
RTVSPropertyOp56
 70
     1
102
RTVSPropertyOp57
 70
     1
102
RTVSPropertyOp58
 70
     1
102
RTVSPropertyOp59
 70
     1
102
RTVSPropertyOp60
 70
     1
102
RTVSPropertyOp61
 70
     1
102
RTVSPropertyOp62
 70
     1
  0
XRECORD
  5
608D
102
{ACAD_REACTORS
330
608C
102
}
330
608C
100
AcDbXrecord
280
     1
102
RTVSPost2010Prop28
280
     0
102
RTVSPost2010PropOp28
 70
     1
102
RTVSPost2010Prop29
280
     1
102
RTVSPost2010PropOp29
 70
     1
102
RTVSPost2010Prop30
280
     1
102
RTVSPost2010PropOp30
 70
     1
102
RTVSPost2010Prop31
280
     0
102
RTVSPost2010PropOp31
 70
     1
102
RTVSPost2010Prop32
280
     0
102
RTVSPost2010PropOp32
 70
     1
102
RTVSPost2010Prop33
280
     0
102
RTVSPost2010PropOp33
 70
     1
102
RTVSPost2010Prop34
280
     0
102
RTVSPost2010PropOp34
 70
     1
102
RTVSPost2010Prop35
280
     0
102
RTVSPost2010PropOp35
 70
     1
102
RTVSPost2010Prop36
280
     0
102
RTVSPost2010PropOp36
 70
     1
102
RTVSPost2010Prop37
 90
       50
102
RTVSPost2010PropOp37
 70
     1
102
RTVSPost2010Prop38
140
0.0
102
RTVSPost2010PropOp38
 70
     1
102
RTVSPost2010Prop39
140
1.0
102
RTVSPost2010PropOp39
 70
     1
102
RTVSPost2010Prop40
 90
        0
102
RTVSPost2010PropOp40
 70
     1
102
RTVSPost2010Prop41ColorIndex
 90
       18
102
RTVSPost2010Prop41ColorRGB
 90
        0
102
RTVSPost2010PropOp41
 70
     1
102
RTVSPost2010Prop42
 90
       50
102
RTVSPost2010PropOp42
 70
     1
102
RTVSPost2010Prop43
 90
        3
102
RTVSPost2010PropOp43
 70
     1
102
RTVSPost2010Prop44ColorIndex
 90
        5
102
RTVSPost2010Prop44ColorRGB
 90
      255
102
RTVSPost2010PropOp44
 70
     1
102
RTVSPost2010Prop45
280
     0
102
RTVSPost2010PropOp45
 70
     1
102
RTVSPost2010Prop46
 90
       50
102
RTVSPost2010PropOp46
 70
     1
102
RTVSPost2010Prop47
 90
       50
102
RTVSPost2010PropOp47
 70
     1
102
RTVSPost2010Prop48
 90
       50
102
RTVSPost2010PropOp48
 70
     1
102
RTVSPost2010Prop49
280
     0
102
RTVSPost2010PropOp49
 70
     1
102
RTVSPost2010Prop50
 90
       50
102
RTVSPost2010PropOp50
 70
     1
102
RTVSPost2010Prop51ColorIndex
 90
      256
102
RTVSPost2010Prop51ColorRGB
 90
-16777216
102
RTVSPost2010PropOp51
 70
     0
102
RTVSPost2010Prop52
140
1.0
102
RTVSPost2010PropOp52
 70
     0
102
RTVSPost2010Prop53
 90
        2
102
RTVSPost2010PropOp53
 70
     1
102
RTVSPost2010Prop54
  1
strokes_ogs.tif
102
RTVSPost2010PropOp54
 70
     1
102
RTVSPost2010Prop55
280
     0
102
RTVSPost2010PropOp55
 70
     1
102
RTVSPost2010Prop56
140
1.0
102
RTVSPost2010PropOp56
 70
     1
102
RTVSPost2010Prop57
140
1.0
102
RTVSPost2010PropOp57
 70
     1
102
RTVSPropertyOp0
 70
     1
102
RTVSPropertyOp1
 70
     1
102
RTVSPropertyOp2
 70
     1
102
RTVSPropertyOp3
 70
     1
102
RTVSPropertyOp4
 70
     1
102
RTVSPropertyOp5
 70
     1
102
RTVSPropertyOp6
 70
     1
102
RTVSPropertyOp7
 70
     1
102
RTVSPropertyOp8
 70
     1
102
RTVSPropertyOp9
 70
     1
102
RTVSPropertyOp10
 70
     1
102
RTVSPropertyOp11
 70
     1
102
RTVSPropertyOp12
 70
     1
102
RTVSPropertyOp13
 70
     1
102
RTVSPropertyOp14
 70
     1
102
RTVSPropertyOp15
 70
     1
102
RTVSPropertyOp16
 70
     1
102
RTVSPropertyOp17
 70
     1
102
RTVSPropertyOp18
 70
     1
102
RTVSPropertyOp19
 70
     1
102
RTVSPropertyOp20
 70
     1
102
RTVSPropertyOp21
 70
     1
102
RTVSPropertyOp22
 70
     1
102
RTVSPropertyOp23
 70
     1
102
RTVSPropertyOp24
 70
     1
102
RTVSPropertyOp25
 70
     1
102
RTVSPropertyOp26
 70
     1
102
RTVSPropertyOp27
 70
     1
102
RTVSPropertyOp28
 70
     1
102
RTVSPropertyOp29
 70
     1
102
RTVSPropertyOp30
 70
     1
102
RTVSPropertyOp31
 70
     1
102
RTVSPropertyOp32
 70
     1
102
RTVSPropertyOp33
 70
     1
102
RTVSPropertyOp34
 70
     1
102
RTVSPropertyOp35
 70
     1
102
RTVSPropertyOp36
 70
     1
102
RTVSPropertyOp37
 70
     1
102
RTVSPropertyOp38
 70
     1
102
RTVSPropertyOp39
 70
     1
102
RTVSPropertyOp40
 70
     1
102
RTVSPropertyOp41
 70
     1
102
RTVSPropertyOp42
 70
     1
102
RTVSPropertyOp43
 70
     1
102
RTVSPropertyOp44
 70
     1
102
RTVSPropertyOp45
 70
     1
102
RTVSPropertyOp46
 70
     1
102
RTVSPropertyOp47
 70
     1
102
RTVSPropertyOp48
 70
     1
102
RTVSPropertyOp49
 70
     1
102
RTVSPropertyOp50
 70
     1
102
RTVSPropertyOp51
 70
     0
102
RTVSPropertyOp52
 70
     0
102
RTVSPropertyOp53
 70
     1
102
RTVSPropertyOp54
 70
     1
102
RTVSPropertyOp55
 70
     1
102
RTVSPropertyOp56
 70
     1
102
RTVSPropertyOp57
 70
     1
102
RTVSPropertyOp58
 70
     1
102
RTVSPropertyOp59
 70
     1
102
RTVSPropertyOp60
 70
     1
102
RTVSPropertyOp61
 70
     1
102
RTVSPropertyOp62
 70
     1
  0
XRECORD
  5
6087
102
{ACAD_REACTORS
330
6086
102
}
330
6086
100
AcDbXrecord
280
     1
102
RTVSPost2010Prop28
280
     0
102
RTVSPost2010PropOp28
 70
     1
102
RTVSPost2010Prop29
280
     1
102
RTVSPost2010PropOp29
 70
     1
102
RTVSPost2010Prop30
280
     1
102
RTVSPost2010PropOp30
 70
     1
102
RTVSPost2010Prop31
280
     0
102
RTVSPost2010PropOp31
 70
     1
102
RTVSPost2010Prop32
280
     0
102
RTVSPost2010PropOp32
 70
     1
102
RTVSPost2010Prop33
280
     0
102
RTVSPost2010PropOp33
 70
     1
102
RTVSPost2010Prop34
280
     0
102
RTVSPost2010PropOp34
 70
     1
102
RTVSPost2010Prop35
280
     0
102
RTVSPost2010PropOp35
 70
     1
102
RTVSPost2010Prop36
280
     0
102
RTVSPost2010PropOp36
 70
     1
102
RTVSPost2010Prop37
 90
       50
102
RTVSPost2010PropOp37
 70
     1
102
RTVSPost2010Prop38
140
0.0
102
RTVSPost2010PropOp38
 70
     1
102
RTVSPost2010Prop39
140
1.0
102
RTVSPost2010PropOp39
 70
     1
102
RTVSPost2010Prop40
 90
        0
102
RTVSPost2010PropOp40
 70
     1
102
RTVSPost2010Prop41ColorIndex
 90
       18
102
RTVSPost2010Prop41ColorRGB
 90
        0
102
RTVSPost2010PropOp41
 70
     1
102
RTVSPost2010Prop42
 90
       50
102
RTVSPost2010PropOp42
 70
     1
102
RTVSPost2010Prop43
 90
        3
102
RTVSPost2010PropOp43
 70
     1
102
RTVSPost2010Prop44ColorIndex
 90
        5
102
RTVSPost2010Prop44ColorRGB
 90
      255
102
RTVSPost2010PropOp44
 70
     1
102
RTVSPost2010Prop45
280
     0
102
RTVSPost2010PropOp45
 70
     1
102
RTVSPost2010Prop46
 90
       50
102
RTVSPost2010PropOp46
 70
     1
102
RTVSPost2010Prop47
 90
       50
102
RTVSPost2010PropOp47
 70
     1
102
RTVSPost2010Prop48
 90
       50
102
RTVSPost2010PropOp48
 70
     1
102
RTVSPost2010Prop49
280
     0
102
RTVSPost2010PropOp49
 70
     1
102
RTVSPost2010Prop50
 90
       50
102
RTVSPost2010PropOp50
 70
     1
102
RTVSPost2010Prop51ColorIndex
 90
      256
102
RTVSPost2010Prop51ColorRGB
 90
-16777216
102
RTVSPost2010PropOp51
 70
     0
102
RTVSPost2010Prop52
140
1.0
102
RTVSPost2010PropOp52
 70
     0
102
RTVSPost2010Prop53
 90
        2
102
RTVSPost2010PropOp53
 70
     1
102
RTVSPost2010Prop54
  1
strokes_ogs.tif
102
RTVSPost2010PropOp54
 70
     1
102
RTVSPost2010Prop55
280
     0
102
RTVSPost2010PropOp55
 70
     1
102
RTVSPost2010Prop56
140
1.0
102
RTVSPost2010PropOp56
 70
     1
102
RTVSPost2010Prop57
140
1.0
102
RTVSPost2010PropOp57
 70
     1
102
RTVSPropertyOp0
 70
     1
102
RTVSPropertyOp1
 70
     1
102
RTVSPropertyOp2
 70
     1
102
RTVSPropertyOp3
 70
     1
102
RTVSPropertyOp4
 70
     1
102
RTVSPropertyOp5
 70
     1
102
RTVSPropertyOp6
 70
     1
102
RTVSPropertyOp7
 70
     1
102
RTVSPropertyOp8
 70
     1
102
RTVSPropertyOp9
 70
     1
102
RTVSPropertyOp10
 70
     1
102
RTVSPropertyOp11
 70
     1
102
RTVSPropertyOp12
 70
     1
102
RTVSPropertyOp13
 70
     1
102
RTVSPropertyOp14
 70
     1
102
RTVSPropertyOp15
 70
     1
102
RTVSPropertyOp16
 70
     1
102
RTVSPropertyOp17
 70
     1
102
RTVSPropertyOp18
 70
     1
102
RTVSPropertyOp19
 70
     1
102
RTVSPropertyOp20
 70
     1
102
RTVSPropertyOp21
 70
     1
102
RTVSPropertyOp22
 70
     1
102
RTVSPropertyOp23
 70
     1
102
RTVSPropertyOp24
 70
     1
102
RTVSPropertyOp25
 70
     1
102
RTVSPropertyOp26
 70
     1
102
RTVSPropertyOp27
 70
     1
102
RTVSPropertyOp28
 70
     1
102
RTVSPropertyOp29
 70
     1
102
RTVSPropertyOp30
 70
     1
102
RTVSPropertyOp31
 70
     1
102
RTVSPropertyOp32
 70
     1
102
RTVSPropertyOp33
 70
     1
102
RTVSPropertyOp34
 70
     1
102
RTVSPropertyOp35
 70
     1
102
RTVSPropertyOp36
 70
     1
102
RTVSPropertyOp37
 70
     1
102
RTVSPropertyOp38
 70
     1
102
RTVSPropertyOp39
 70
     1
102
RTVSPropertyOp40
 70
     1
102
RTVSPropertyOp41
 70
     1
102
RTVSPropertyOp42
 70
     1
102
RTVSPropertyOp43
 70
     1
102
RTVSPropertyOp44
 70
     1
102
RTVSPropertyOp45
 70
     1
102
RTVSPropertyOp46
 70
     1
102
RTVSPropertyOp47
 70
     1
102
RTVSPropertyOp48
 70
     1
102
RTVSPropertyOp49
 70
     1
102
RTVSPropertyOp50
 70
     1
102
RTVSPropertyOp51
 70
     0
102
RTVSPropertyOp52
 70
     0
102
RTVSPropertyOp53
 70
     1
102
RTVSPropertyOp54
 70
     1
102
RTVSPropertyOp55
 70
     1
102
RTVSPropertyOp56
 70
     1
102
RTVSPropertyOp57
 70
     1
102
RTVSPropertyOp58
 70
     1
102
RTVSPropertyOp59
 70
     1
102
RTVSPropertyOp60
 70
     1
102
RTVSPropertyOp61
 70
     1
102
RTVSPropertyOp62
 70
     1
  0
XRECORD
  5
6089
102
{ACAD_REACTORS
330
6088
102
}
330
6088
100
AcDbXrecord
280
     1
102
RTVSPost2010Prop28
280
     0
102
RTVSPost2010PropOp28
 70
     1
102
RTVSPost2010Prop29
280
     1
102
RTVSPost2010PropOp29
 70
     1
102
RTVSPost2010Prop30
280
     1
102
RTVSPost2010PropOp30
 70
     1
102
RTVSPost2010Prop31
280
     0
102
RTVSPost2010PropOp31
 70
     1
102
RTVSPost2010Prop32
280
     0
102
RTVSPost2010PropOp32
 70
     1
102
RTVSPost2010Prop33
280
     0
102
RTVSPost2010PropOp33
 70
     1
102
RTVSPost2010Prop34
280
     0
102
RTVSPost2010PropOp34
 70
     1
102
RTVSPost2010Prop35
280
     0
102
RTVSPost2010PropOp35
 70
     1
102
RTVSPost2010Prop36
280
     0
102
RTVSPost2010PropOp36
 70
     1
102
RTVSPost2010Prop37
 90
       50
102
RTVSPost2010PropOp37
 70
     1
102
RTVSPost2010Prop38
140
0.0
102
RTVSPost2010PropOp38
 70
     1
102
RTVSPost2010Prop39
140
1.0
102
RTVSPost2010PropOp39
 70
     1
102
RTVSPost2010Prop40
 90
        0
102
RTVSPost2010PropOp40
 70
     1
102
RTVSPost2010Prop41ColorIndex
 90
       18
102
RTVSPost2010Prop41ColorRGB
 90
        0
102
RTVSPost2010PropOp41
 70
     1
102
RTVSPost2010Prop42
 90
       50
102
RTVSPost2010PropOp42
 70
     1
102
RTVSPost2010Prop43
 90
        3
102
RTVSPost2010PropOp43
 70
     1
102
RTVSPost2010Prop44ColorIndex
 90
        5
102
RTVSPost2010Prop44ColorRGB
 90
      255
102
RTVSPost2010PropOp44
 70
     1
102
RTVSPost2010Prop45
280
     0
102
RTVSPost2010PropOp45
 70
     1
102
RTVSPost2010Prop46
 90
       50
102
RTVSPost2010PropOp46
 70
     1
102
RTVSPost2010Prop47
 90
       50
102
RTVSPost2010PropOp47
 70
     1
102
RTVSPost2010Prop48
 90
       50
102
RTVSPost2010PropOp48
 70
     1
102
RTVSPost2010Prop49
280
     0
102
RTVSPost2010PropOp49
 70
     1
102
RTVSPost2010Prop50
 90
       50
102
RTVSPost2010PropOp50
 70
     1
102
RTVSPost2010Prop51ColorIndex
 90
      256
102
RTVSPost2010Prop51ColorRGB
 90
-16777216
102
RTVSPost2010PropOp51
 70
     0
102
RTVSPost2010Prop52
140
1.0
102
RTVSPost2010PropOp52
 70
     0
102
RTVSPost2010Prop53
 90
        2
102
RTVSPost2010PropOp53
 70
     1
102
RTVSPost2010Prop54
  1
strokes_ogs.tif
102
RTVSPost2010PropOp54
 70
     1
102
RTVSPost2010Prop55
280
     0
102
RTVSPost2010PropOp55
 70
     1
102
RTVSPost2010Prop56
140
1.0
102
RTVSPost2010PropOp56
 70
     1
102
RTVSPost2010Prop57
140
1.0
102
RTVSPost2010PropOp57
 70
     1
102
RTVSPropertyOp0
 70
     1
102
RTVSPropertyOp1
 70
     1
102
RTVSPropertyOp2
 70
     1
102
RTVSPropertyOp3
 70
     1
102
RTVSPropertyOp4
 70
     1
102
RTVSPropertyOp5
 70
     1
102
RTVSPropertyOp6
 70
     1
102
RTVSPropertyOp7
 70
     1
102
RTVSPropertyOp8
 70
     1
102
RTVSPropertyOp9
 70
     1
102
RTVSPropertyOp10
 70
     1
102
RTVSPropertyOp11
 70
     1
102
RTVSPropertyOp12
 70
     1
102
RTVSPropertyOp13
 70
     1
102
RTVSPropertyOp14
 70
     1
102
RTVSPropertyOp15
 70
     1
102
RTVSPropertyOp16
 70
     1
102
RTVSPropertyOp17
 70
     1
102
RTVSPropertyOp18
 70
     1
102
RTVSPropertyOp19
 70
     1
102
RTVSPropertyOp20
 70
     1
102
RTVSPropertyOp21
 70
     1
102
RTVSPropertyOp22
 70
     1
102
RTVSPropertyOp23
 70
     1
102
RTVSPropertyOp24
 70
     1
102
RTVSPropertyOp25
 70
     1
102
RTVSPropertyOp26
 70
     1
102
RTVSPropertyOp27
 70
     1
102
RTVSPropertyOp28
 70
     1
102
RTVSPropertyOp29
 70
     1
102
RTVSPropertyOp30
 70
     1
102
RTVSPropertyOp31
 70
     1
102
RTVSPropertyOp32
 70
     1
102
RTVSPropertyOp33
 70
     1
102
RTVSPropertyOp34
 70
     1
102
RTVSPropertyOp35
 70
     1
102
RTVSPropertyOp36
 70
     1
102
RTVSPropertyOp37
 70
     1
102
RTVSPropertyOp38
 70
     1
102
RTVSPropertyOp39
 70
     1
102
RTVSPropertyOp40
 70
     1
102
RTVSPropertyOp41
 70
     1
102
RTVSPropertyOp42
 70
     1
102
RTVSPropertyOp43
 70
     1
102
RTVSPropertyOp44
 70
     1
102
RTVSPropertyOp45
 70
     1
102
RTVSPropertyOp46
 70
     1
102
RTVSPropertyOp47
 70
     1
102
RTVSPropertyOp48
 70
     1
102
RTVSPropertyOp49
 70
     1
102
RTVSPropertyOp50
 70
     1
102
RTVSPropertyOp51
 70
     0
102
RTVSPropertyOp52
 70
     0
102
RTVSPropertyOp53
 70
     1
102
RTVSPropertyOp54
 70
     1
102
RTVSPropertyOp55
 70
     1
102
RTVSPropertyOp56
 70
     1
102
RTVSPropertyOp57
 70
     1
102
RTVSPropertyOp58
 70
     1
102
RTVSPropertyOp59
 70
     1
102
RTVSPropertyOp60
 70
     1
102
RTVSPropertyOp61
 70
     1
102
RTVSPropertyOp62
 70
     1
  0
XRECORD
  5
6077
102
{ACAD_REACTORS
330
6076
102
}
330
6076
100
AcDbXrecord
280
     1
102
RTVSPost2010Prop28
280
     0
102
RTVSPost2010PropOp28
 70
     1
102
RTVSPost2010Prop29
280
     1
102
RTVSPost2010PropOp29
 70
     1
102
RTVSPost2010Prop30
280
     1
102
RTVSPost2010PropOp30
 70
     1
102
RTVSPost2010Prop31
280
     0
102
RTVSPost2010PropOp31
 70
     1
102
RTVSPost2010Prop32
280
     0
102
RTVSPost2010PropOp32
 70
     1
102
RTVSPost2010Prop33
280
     0
102
RTVSPost2010PropOp33
 70
     1
102
RTVSPost2010Prop34
280
     0
102
RTVSPost2010PropOp34
 70
     1
102
RTVSPost2010Prop35
280
     0
102
RTVSPost2010PropOp35
 70
     1
102
RTVSPost2010Prop36
280
     0
102
RTVSPost2010PropOp36
 70
     1
102
RTVSPost2010Prop37
 90
       50
102
RTVSPost2010PropOp37
 70
     1
102
RTVSPost2010Prop38
140
0.0
102
RTVSPost2010PropOp38
 70
     1
102
RTVSPost2010Prop39
140
1.0
102
RTVSPost2010PropOp39
 70
     1
102
RTVSPost2010Prop40
 90
        0
102
RTVSPost2010PropOp40
 70
     1
102
RTVSPost2010Prop41ColorIndex
 90
       18
102
RTVSPost2010Prop41ColorRGB
 90
        0
102
RTVSPost2010PropOp41
 70
     1
102
RTVSPost2010Prop42
 90
       50
102
RTVSPost2010PropOp42
 70
     1
102
RTVSPost2010Prop43
 90
        3
102
RTVSPost2010PropOp43
 70
     1
102
RTVSPost2010Prop44ColorIndex
 90
        5
102
RTVSPost2010Prop44ColorRGB
 90
      255
102
RTVSPost2010PropOp44
 70
     1
102
RTVSPost2010Prop45
280
     0
102
RTVSPost2010PropOp45
 70
     1
102
RTVSPost2010Prop46
 90
       50
102
RTVSPost2010PropOp46
 70
     1
102
RTVSPost2010Prop47
 90
       50
102
RTVSPost2010PropOp47
 70
     1
102
RTVSPost2010Prop48
 90
       50
102
RTVSPost2010PropOp48
 70
     1
102
RTVSPost2010Prop49
280
     0
102
RTVSPost2010PropOp49
 70
     1
102
RTVSPost2010Prop50
 90
       50
102
RTVSPost2010PropOp50
 70
     1
102
RTVSPost2010Prop51ColorIndex
 90
      256
102
RTVSPost2010Prop51ColorRGB
 90
-16777216
102
RTVSPost2010PropOp51
 70
     0
102
RTVSPost2010Prop52
140
1.0
102
RTVSPost2010PropOp52
 70
     0
102
RTVSPost2010Prop53
 90
        2
102
RTVSPost2010PropOp53
 70
     1
102
RTVSPost2010Prop54
  1
strokes_ogs.tif
102
RTVSPost2010PropOp54
 70
     1
102
RTVSPost2010Prop55
280
     0
102
RTVSPost2010PropOp55
 70
     1
102
RTVSPost2010Prop56
140
1.0
102
RTVSPost2010PropOp56
 70
     1
102
RTVSPost2010Prop57
140
1.0
102
RTVSPost2010PropOp57
 70
     1
102
RTVSPropertyOp0
 70
     1
102
RTVSPropertyOp1
 70
     1
102
RTVSPropertyOp2
 70
     1
102
RTVSPropertyOp3
 70
     1
102
RTVSPropertyOp4
 70
     1
102
RTVSPropertyOp5
 70
     1
102
RTVSPropertyOp6
 70
     1
102
RTVSPropertyOp7
 70
     1
102
RTVSPropertyOp8
 70
     1
102
RTVSPropertyOp9
 70
     1
102
RTVSPropertyOp10
 70
     1
102
RTVSPropertyOp11
 70
     1
102
RTVSPropertyOp12
 70
     1
102
RTVSPropertyOp13
 70
     1
102
RTVSPropertyOp14
 70
     1
102
RTVSPropertyOp15
 70
     1
102
RTVSPropertyOp16
 70
     1
102
RTVSPropertyOp17
 70
     1
102
RTVSPropertyOp18
 70
     1
102
RTVSPropertyOp19
 70
     1
102
RTVSPropertyOp20
 70
     1
102
RTVSPropertyOp21
 70
     1
102
RTVSPropertyOp22
 70
     1
102
RTVSPropertyOp23
 70
     1
102
RTVSPropertyOp24
 70
     1
102
RTVSPropertyOp25
 70
     1
102
RTVSPropertyOp26
 70
     1
102
RTVSPropertyOp27
 70
     1
102
RTVSPropertyOp28
 70
     1
102
RTVSPropertyOp29
 70
     1
102
RTVSPropertyOp30
 70
     1
102
RTVSPropertyOp31
 70
     1
102
RTVSPropertyOp32
 70
     1
102
RTVSPropertyOp33
 70
     1
102
RTVSPropertyOp34
 70
     1
102
RTVSPropertyOp35
 70
     1
102
RTVSPropertyOp36
 70
     1
102
RTVSPropertyOp37
 70
     1
102
RTVSPropertyOp38
 70
     1
102
RTVSPropertyOp39
 70
     1
102
RTVSPropertyOp40
 70
     1
102
RTVSPropertyOp41
 70
     1
102
RTVSPropertyOp42
 70
     1
102
RTVSPropertyOp43
 70
     1
102
RTVSPropertyOp44
 70
     1
102
RTVSPropertyOp45
 70
     1
102
RTVSPropertyOp46
 70
     1
102
RTVSPropertyOp47
 70
     1
102
RTVSPropertyOp48
 70
     1
102
RTVSPropertyOp49
 70
     1
102
RTVSPropertyOp50
 70
     1
102
RTVSPropertyOp51
 70
     0
102
RTVSPropertyOp52
 70
     0
102
RTVSPropertyOp53
 70
     1
102
RTVSPropertyOp54
 70
     1
102
RTVSPropertyOp55
 70
     1
102
RTVSPropertyOp56
 70
     1
102
RTVSPropertyOp57
 70
     1
102
RTVSPropertyOp58
 70
     1
102
RTVSPropertyOp59
 70
     1
102
RTVSPropertyOp60
 70
     1
102
RTVSPropertyOp61
 70
     1
102
RTVSPropertyOp62
 70
     1
  0
XRECORD
  5
606B
102
{ACAD_REACTORS
330
606A
102
}
330
606A
100
AcDbXrecord
280
     1
102
RTVSPost2010Prop28
280
     0
102
RTVSPost2010PropOp28
 70
     1
102
RTVSPost2010Prop29
280
     1
102
RTVSPost2010PropOp29
 70
     1
102
RTVSPost2010Prop30
280
     1
102
RTVSPost2010PropOp30
 70
     1
102
RTVSPost2010Prop31
280
     0
102
RTVSPost2010PropOp31
 70
     1
102
RTVSPost2010Prop32
280
     0
102
RTVSPost2010PropOp32
 70
     1
102
RTVSPost2010Prop33
280
     0
102
RTVSPost2010PropOp33
 70
     1
102
RTVSPost2010Prop34
280
     0
102
RTVSPost2010PropOp34
 70
     1
102
RTVSPost2010Prop35
280
     0
102
RTVSPost2010PropOp35
 70
     1
102
RTVSPost2010Prop36
280
     0
102
RTVSPost2010PropOp36
 70
     1
102
RTVSPost2010Prop37
 90
       50
102
RTVSPost2010PropOp37
 70
     1
102
RTVSPost2010Prop38
140
0.0
102
RTVSPost2010PropOp38
 70
     1
102
RTVSPost2010Prop39
140
1.0
102
RTVSPost2010PropOp39
 70
     1
102
RTVSPost2010Prop40
 90
        0
102
RTVSPost2010PropOp40
 70
     1
102
RTVSPost2010Prop41ColorIndex
 90
       18
102
RTVSPost2010Prop41ColorRGB
 90
        0
102
RTVSPost2010PropOp41
 70
     1
102
RTVSPost2010Prop42
 90
       50
102
RTVSPost2010PropOp42
 70
     1
102
RTVSPost2010Prop43
 90
        3
102
RTVSPost2010PropOp43
 70
     1
102
RTVSPost2010Prop44ColorIndex
 90
        5
102
RTVSPost2010Prop44ColorRGB
 90
      255
102
RTVSPost2010PropOp44
 70
     1
102
RTVSPost2010Prop45
280
     0
102
RTVSPost2010PropOp45
 70
     1
102
RTVSPost2010Prop46
 90
       50
102
RTVSPost2010PropOp46
 70
     1
102
RTVSPost2010Prop47
 90
       50
102
RTVSPost2010PropOp47
 70
     1
102
RTVSPost2010Prop48
 90
       50
102
RTVSPost2010PropOp48
 70
     1
102
RTVSPost2010Prop49
280
     0
102
RTVSPost2010PropOp49
 70
     1
102
RTVSPost2010Prop50
 90
       50
102
RTVSPost2010PropOp50
 70
     1
102
RTVSPost2010Prop51ColorIndex
 90
      256
102
RTVSPost2010Prop51ColorRGB
 90
-16777216
102
RTVSPost2010PropOp51
 70
     0
102
RTVSPost2010Prop52
140
1.0
102
RTVSPost2010PropOp52
 70
     0
102
RTVSPost2010Prop53
 90
        2
102
RTVSPost2010PropOp53
 70
     1
102
RTVSPost2010Prop54
  1
strokes_ogs.tif
102
RTVSPost2010PropOp54
 70
     1
102
RTVSPost2010Prop55
280
     0
102
RTVSPost2010PropOp55
 70
     1
102
RTVSPost2010Prop56
140
1.0
102
RTVSPost2010PropOp56
 70
     1
102
RTVSPost2010Prop57
140
1.0
102
RTVSPost2010PropOp57
 70
     1
102
RTVSPropertyOp0
 70
     1
102
RTVSPropertyOp1
 70
     1
102
RTVSPropertyOp2
 70
     1
102
RTVSPropertyOp3
 70
     1
102
RTVSPropertyOp4
 70
     1
102
RTVSPropertyOp5
 70
     1
102
RTVSPropertyOp6
 70
     1
102
RTVSPropertyOp7
 70
     1
102
RTVSPropertyOp8
 70
     1
102
RTVSPropertyOp9
 70
     1
102
RTVSPropertyOp10
 70
     1
102
RTVSPropertyOp11
 70
     1
102
RTVSPropertyOp12
 70
     1
102
RTVSPropertyOp13
 70
     1
102
RTVSPropertyOp14
 70
     1
102
RTVSPropertyOp15
 70
     1
102
RTVSPropertyOp16
 70
     1
102
RTVSPropertyOp17
 70
     1
102
RTVSPropertyOp18
 70
     1
102
RTVSPropertyOp19
 70
     1
102
RTVSPropertyOp20
 70
     1
102
RTVSPropertyOp21
 70
     1
102
RTVSPropertyOp22
 70
     1
102
RTVSPropertyOp23
 70
     1
102
RTVSPropertyOp24
 70
     1
102
RTVSPropertyOp25
 70
     1
102
RTVSPropertyOp26
 70
     1
102
RTVSPropertyOp27
 70
     1
102
RTVSPropertyOp28
 70
     1
102
RTVSPropertyOp29
 70
     1
102
RTVSPropertyOp30
 70
     1
102
RTVSPropertyOp31
 70
     1
102
RTVSPropertyOp32
 70
     1
102
RTVSPropertyOp33
 70
     1
102
RTVSPropertyOp34
 70
     1
102
RTVSPropertyOp35
 70
     1
102
RTVSPropertyOp36
 70
     1
102
RTVSPropertyOp37
 70
     1
102
RTVSPropertyOp38
 70
     1
102
RTVSPropertyOp39
 70
     1
102
RTVSPropertyOp40
 70
     1
102
RTVSPropertyOp41
 70
     1
102
RTVSPropertyOp42
 70
     1
102
RTVSPropertyOp43
 70
     1
102
RTVSPropertyOp44
 70
     1
102
RTVSPropertyOp45
 70
     1
102
RTVSPropertyOp46
 70
     1
102
RTVSPropertyOp47
 70
     1
102
RTVSPropertyOp48
 70
     1
102
RTVSPropertyOp49
 70
     1
102
RTVSPropertyOp50
 70
     1
102
RTVSPropertyOp51
 70
     0
102
RTVSPropertyOp52
 70
     0
102
RTVSPropertyOp53
 70
     1
102
RTVSPropertyOp54
 70
     1
102
RTVSPropertyOp55
 70
     1
102
RTVSPropertyOp56
 70
     1
102
RTVSPropertyOp57
 70
     1
102
RTVSPropertyOp58
 70
     1
102
RTVSPropertyOp59
 70
     1
102
RTVSPropertyOp60
 70
     1
102
RTVSPropertyOp61
 70
     1
102
RTVSPropertyOp62
 70
     1
  0
XRECORD
  5
608B
102
{ACAD_REACTORS
330
608A
102
}
330
608A
100
AcDbXrecord
280
     1
102
RTVSPost2010Prop28
280
     0
102
RTVSPost2010PropOp28
 70
     1
102
RTVSPost2010Prop29
280
     1
102
RTVSPost2010PropOp29
 70
     1
102
RTVSPost2010Prop30
280
     1
102
RTVSPost2010PropOp30
 70
     1
102
RTVSPost2010Prop31
280
     0
102
RTVSPost2010PropOp31
 70
     1
102
RTVSPost2010Prop32
280
     0
102
RTVSPost2010PropOp32
 70
     1
102
RTVSPost2010Prop33
280
     0
102
RTVSPost2010PropOp33
 70
     1
102
RTVSPost2010Prop34
280
     0
102
RTVSPost2010PropOp34
 70
     1
102
RTVSPost2010Prop35
280
     0
102
RTVSPost2010PropOp35
 70
     1
102
RTVSPost2010Prop36
280
     0
102
RTVSPost2010PropOp36
 70
     1
102
RTVSPost2010Prop37
 90
       50
102
RTVSPost2010PropOp37
 70
     1
102
RTVSPost2010Prop38
140
0.0
102
RTVSPost2010PropOp38
 70
     1
102
RTVSPost2010Prop39
140
1.0
102
RTVSPost2010PropOp39
 70
     1
102
RTVSPost2010Prop40
 90
        0
102
RTVSPost2010PropOp40
 70
     1
102
RTVSPost2010Prop41ColorIndex
 90
       18
102
RTVSPost2010Prop41ColorRGB
 90
        0
102
RTVSPost2010PropOp41
 70
     1
102
RTVSPost2010Prop42
 90
       50
102
RTVSPost2010PropOp42
 70
     1
102
RTVSPost2010Prop43
 90
        3
102
RTVSPost2010PropOp43
 70
     1
102
RTVSPost2010Prop44ColorIndex
 90
        5
102
RTVSPost2010Prop44ColorRGB
 90
      255
102
RTVSPost2010PropOp44
 70
     1
102
RTVSPost2010Prop45
280
     0
102
RTVSPost2010PropOp45
 70
     1
102
RTVSPost2010Prop46
 90
       50
102
RTVSPost2010PropOp46
 70
     1
102
RTVSPost2010Prop47
 90
       50
102
RTVSPost2010PropOp47
 70
     1
102
RTVSPost2010Prop48
 90
       50
102
RTVSPost2010PropOp48
 70
     1
102
RTVSPost2010Prop49
280
     0
102
RTVSPost2010PropOp49
 70
     1
102
RTVSPost2010Prop50
 90
       50
102
RTVSPost2010PropOp50
 70
     1
102
RTVSPost2010Prop51ColorIndex
 90
      256
102
RTVSPost2010Prop51ColorRGB
 90
-16777216
102
RTVSPost2010PropOp51
 70
     0
102
RTVSPost2010Prop52
140
1.0
102
RTVSPost2010PropOp52
 70
     0
102
RTVSPost2010Prop53
 90
        2
102
RTVSPost2010PropOp53
 70
     1
102
RTVSPost2010Prop54
  1
strokes_ogs.tif
102
RTVSPost2010PropOp54
 70
     1
102
RTVSPost2010Prop55
280
     0
102
RTVSPost2010PropOp55
 70
     1
102
RTVSPost2010Prop56
140
1.0
102
RTVSPost2010PropOp56
 70
     1
102
RTVSPost2010Prop57
140
1.0
102
RTVSPost2010PropOp57
 70
     1
102
RTVSPropertyOp0
 70
     1
102
RTVSPropertyOp1
 70
     1
102
RTVSPropertyOp2
 70
     1
102
RTVSPropertyOp3
 70
     1
102
RTVSPropertyOp4
 70
     1
102
RTVSPropertyOp5
 70
     1
102
RTVSPropertyOp6
 70
     1
102
RTVSPropertyOp7
 70
     1
102
RTVSPropertyOp8
 70
     1
102
RTVSPropertyOp9
 70
     1
102
RTVSPropertyOp10
 70
     1
102
RTVSPropertyOp11
 70
     1
102
RTVSPropertyOp12
 70
     1
102
RTVSPropertyOp13
 70
     1
102
RTVSPropertyOp14
 70
     1
102
RTVSPropertyOp15
 70
     1
102
RTVSPropertyOp16
 70
     1
102
RTVSPropertyOp17
 70
     1
102
RTVSPropertyOp18
 70
     1
102
RTVSPropertyOp19
 70
     1
102
RTVSPropertyOp20
 70
     1
102
RTVSPropertyOp21
 70
     1
102
RTVSPropertyOp22
 70
     1
102
RTVSPropertyOp23
 70
     1
102
RTVSPropertyOp24
 70
     1
102
RTVSPropertyOp25
 70
     1
102
RTVSPropertyOp26
 70
     1
102
RTVSPropertyOp27
 70
     1
102
RTVSPropertyOp28
 70
     1
102
RTVSPropertyOp29
 70
     1
102
RTVSPropertyOp30
 70
     1
102
RTVSPropertyOp31
 70
     1
102
RTVSPropertyOp32
 70
     1
102
RTVSPropertyOp33
 70
     1
102
RTVSPropertyOp34
 70
     1
102
RTVSPropertyOp35
 70
     1
102
RTVSPropertyOp36
 70
     1
102
RTVSPropertyOp37
 70
     1
102
RTVSPropertyOp38
 70
     1
102
RTVSPropertyOp39
 70
     1
102
RTVSPropertyOp40
 70
     1
102
RTVSPropertyOp41
 70
     1
102
RTVSPropertyOp42
 70
     1
102
RTVSPropertyOp43
 70
     1
102
RTVSPropertyOp44
 70
     1
102
RTVSPropertyOp45
 70
     1
102
RTVSPropertyOp46
 70
     1
102
RTVSPropertyOp47
 70
     1
102
RTVSPropertyOp48
 70
     1
102
RTVSPropertyOp49
 70
     1
102
RTVSPropertyOp50
 70
     1
102
RTVSPropertyOp51
 70
     0
102
RTVSPropertyOp52
 70
     0
102
RTVSPropertyOp53
 70
     1
102
RTVSPropertyOp54
 70
     1
102
RTVSPropertyOp55
 70
     1
102
RTVSPropertyOp56
 70
     1
102
RTVSPropertyOp57
 70
     1
102
RTVSPropertyOp58
 70
     1
102
RTVSPropertyOp59
 70
     1
102
RTVSPropertyOp60
 70
     1
102
RTVSPropertyOp61
 70
     1
102
RTVSPropertyOp62
 70
     1
  0
ENDSEC
  0
EOF
