  0
SECTION
  2
HEADER
  9
$ACADVER
  1
AC1015
  9
$ACADMAINTVER
 70
    18
  9
$DWGCODEPAGE
  3
ANSI_1252
  9
$INSBASE
 10
0.0
 20
0.0
 30
0.0
  9
$EXTMIN
 10
-149.3032828873293
 20
-213.6862788541316
 30
-0.0015258207003583
  9
$EXTMAX
 10
149.3096930455763
 20
177.3226323881217
 30
0.0000000349246037
  9
$LIMMIN
 10
0.0
 20
0.0
  9
$LIMMAX
 10
420.0
 20
297.0
  9
$ORTHOMODE
 70
     0
  9
$REGENMODE
 70
     1
  9
$FILLMODE
 70
     1
  9
$QTEXTMODE
 70
     0
  9
$MIRRTEXT
 70
     0
  9
$LTSCALE
 40
1.0
  9
$ATTMODE
 70
     1
  9
$TEXTSIZE
 40
2.5
  9
$TRACEWID
 40
1.0
  9
$TEXTSTYLE
  7
Standard
  9
$CLAYER
  8
0
  9
$CELTYPE
  6
ByLayer
  9
$CECOLOR
 62
   256
  9
$CELTSCALE
 40
1.0
  9
$DISPSILH
 70
     0
  9
$DIMSCALE
 40
1.0
  9
$DIMASZ
 40
2.5
  9
$DIMEXO
 40
0.625
  9
$DIMDLI
 40
3.75
  9
$DIMRND
 40
0.0
  9
$DIMDLE
 40
0.0
  9
$DIMEXE
 40
1.25
  9
$DIMTP
 40
0.0
  9
$DIMTM
 40
0.0
  9
$DIMTXT
 40
2.5
  9
$DIMCEN
 40
2.5
  9
$DIMTSZ
 40
0.0
  9
$DIMTOL
 70
     0
  9
$DIMLIM
 70
     0
  9
$DIMTIH
 70
     0
  9
$DIMTOH
 70
     0
  9
$DIMSE1
 70
     0
  9
$DIMSE2
 70
     0
  9
$DIMTAD
 70
     1
  9
$DIMZIN
 70
     8
  9
$DIMBLK
  1

  9
$DIMASO
 70
     1
  9
$DIMSHO
 70
     1
  9
$DIMPOST
  1

  9
$DIMAPOST
  1

  9
$DIMALT
 70
     0
  9
$DIMALTD
 70
     3
  9
$DIMALTF
 40
0.03937007874016
  9
$DIMLFAC
 40
1.0
  9
$DIMTOFL
 70
     1
  9
$DIMTVP
 40
0.0
  9
$DIMTIX
 70
     0
  9
$DIMSOXD
 70
     0
  9
$DIMSAH
 70
     0
  9
$DIMBLK1
  1

  9
$DIMBLK2
  1

  9
$DIMSTYLE
  2
ISO-25
  9
$DIMCLRD
 70
     0
  9
$DIMCLRE
 70
     0
  9
$DIMCLRT
 70
     0
  9
$DIMTFAC
 40
1.0
  9
$DIMGAP
 40
0.625
  9
$DIMJUST
 70
     0
  9
$DIMSD1
 70
     0
  9
$DIMSD2
 70
     0
  9
$DIMTOLJ
 70
     0
  9
$DIMTZIN
 70
     8
  9
$DIMALTZ
 70
     0
  9
$DIMALTTZ
 70
     0
  9
$DIMUPT
 70
     0
  9
$DIMDEC
 70
     2
  9
$DIMTDEC
 70
     2
  9
$DIMALTU
 70
     2
  9
$DIMALTTD
 70
     3
  9
$DIMTXSTY
  7
Standard
  9
$DIMAUNIT
 70
     0
  9
$DIMADEC
 70
     0
  9
$DIMALTRND
 40
0.0
  9
$DIMAZIN
 70
     0
  9
$DIMDSEP
 70
    44
  9
$DIMATFIT
 70
     3
  9
$DIMFRAC
 70
     0
  9
$DIMLDRBLK
  1

  9
$DIMLUNIT
 70
     2
  9
$DIMLWD
 70
    -2
  9
$DIMLWE
 70
    -2
  9
$DIMTMOVE
 70
     0
  9
$LUNITS
 70
     2
  9
$LUPREC
 70
     4
  9
$SKETCHINC
 40
1.0
  9
$FILLETRAD
 40
0.0
  9
$AUNITS
 70
     0
  9
$AUPREC
 70
     0
  9
$MENU
  1
.
  9
$ELEVATION
 40
0.0
  9
$PELEVATION
 40
0.0
  9
$THICKNESS
 40
0.0
  9
$LIMCHECK
 70
     0
  9
$CHAMFERA
 40
0.0
  9
$CHAMFERB
 40
0.0
  9
$CHAMFERC
 40
0.0
  9
$CHAMFERD
 40
0.0
  9
$SKPOLY
 70
     0
  9
$TDCREATE
 40
2460367.705740741
  9
$TDUCREATE
 40
2460367.414074074
  9
$TDUPDATE
 40
2460367.713703703
  9
$TDUUPDATE
 40
2460367.422037037
  9
$TDINDWG
 40
0.0037500000
  9
$TDUSRTIMER
 40
0.0037500000
  9
$USRTIMER
 70
     1
  9
$ANGBASE
 50
0.0
  9
$ANGDIR
 70
     0
  9
$PDMODE
 70
     0
  9
$PDSIZE
 40
0.0
  9
$PLINEWID
 40
0.0
  9
$SPLFRAME
 70
     0
  9
$SPLINETYPE
 70
     6
  9
$SPLINESEGS
 70
     8
  9
$HANDSEED
  5
5D95
  9
$SURFTAB1
 70
     6
  9
$SURFTAB2
 70
     6
  9
$SURFTYPE
 70
     6
  9
$SURFU
 70
     6
  9
$SURFV
 70
     6
  9
$UCSBASE
  2

  9
$UCSNAME
  2

  9
$UCSORG
 10
0.0
 20
0.0
 30
0.0
  9
$UCSXDIR
 10
1.0
 20
0.0
 30
0.0
  9
$UCSYDIR
 10
0.0
 20
1.0
 30
0.0
  9
$UCSORTHOREF
  2

  9
$UCSORTHOVIEW
 70
     0
  9
$UCSORGTOP
 10
0.0
 20
0.0
 30
0.0
  9
$UCSORGBOTTOM
 10
0.0
 20
0.0
 30
0.0
  9
$UCSORGLEFT
 10
0.0
 20
0.0
 30
0.0
  9
$UCSORGRIGHT
 10
0.0
 20
0.0
 30
0.0
  9
$UCSORGFRONT
 10
0.0
 20
0.0
 30
0.0
  9
$UCSORGBACK
 10
0.0
 20
0.0
 30
0.0
  9
$PUCSBASE
  2

  9
$PUCSNAME
  2

  9
$PUCSORG
 10
0.0
 20
0.0
 30
0.0
  9
$PUCSXDIR
 10
1.0
 20
0.0
 30
0.0
  9
$PUCSYDIR
 10
0.0
 20
1.0
 30
0.0
  9
$PUCSORTHOREF
  2

  9
$PUCSORTHOVIEW
 70
     0
  9
$PUCSORGTOP
 10
0.0
 20
0.0
 30
0.0
  9
$PUCSORGBOTTOM
 10
0.0
 20
0.0
 30
0.0
  9
$PUCSORGLEFT
 10
0.0
 20
0.0
 30
0.0
  9
$PUCSORGRIGHT
 10
0.0
 20
0.0
 30
0.0
  9
$PUCSORGFRONT
 10
0.0
 20
0.0
 30
0.0
  9
$PUCSORGBACK
 10
0.0
 20
0.0
 30
0.0
  9
$USERI1
 70
     0
  9
$USERI2
 70
     0
  9
$USERI3
 70
     0
  9
$USERI4
 70
     0
  9
$USERI5
 70
     0
  9
$USERR1
 40
0.0
  9
$USERR2
 40
0.0
  9
$USERR3
 40
0.0
  9
$USERR4
 40
0.0
  9
$USERR5
 40
0.0
  9
$WORLDVIEW
 70
     1
  9
$SHADEDGE
 70
     3
  9
$SHADEDIF
 70
    70
  9
$TILEMODE
 70
     1
  9
$MAXACTVP
 70
    48
  9
$PINSBASE
 10
0.0
 20
0.0
 30
0.0
  9
$PLIMCHECK
 70
     0
  9
$PEXTMIN
 10
0.0
 20
0.0
 30
0.0
  9
$PEXTMAX
 10
0.0
 20
0.0
 30
0.0
  9
$PLIMMIN
 10
0.0
 20
0.0
  9
$PLIMMAX
 10
12.0
 20
9.0
  9
$UNITMODE
 70
     0
  9
$VISRETAIN
 70
     1
  9
$PLINEGEN
 70
     0
  9
$PSLTSCALE
 70
     1
  9
$TREEDEPTH
 70
  3020
  9
$CMLSTYLE
  2
Standard
  9
$CMLJUST
 70
     0
  9
$CMLSCALE
 40
20.0
  9
$PROXYGRAPHICS
 70
     1
  9
$MEASUREMENT
 70
     1
  9
$CELWEIGHT
370
    -1
  9
$ENDCAPS
280
     0
  9
$JOINSTYLE
280
     0
  9
$LWDISPLAY
290
     0
  9
$INSUNITS
 70
     4
  9
$HYPERLINKBASE
  1

  9
$STYLESHEET
  1

  9
$XEDIT
290
     1
  9
$CEPSNTYPE
380
     0
  9
$PSTYLEMODE
290
     1
  9
$FINGERPRINTGUID
  2
{09ACAAAA-6FF3-F94C-B944-1C0D1F37C415}
  9
$VERSIONGUID
  2
{870EE5CF-9056-7A47-8170-06EA38FE4C44}
  9
$EXTNAMES
290
     1
  9
$PSVPSCALE
 40
0.0
  9
$OLESTARTUP
290
     0
  0
ENDSEC
  0
SECTION
  2
CLASSES
  0
CLASS
  1
ACDBDICTIONARYWDFLT
  2
AcDbDictionaryWithDefault
  3
ObjectDBX Classes
 90
        0
280
     0
281
     0
  0
CLASS
  1
ACDBPLACEHOLDER
  2
AcDbPlaceHolder
  3
ObjectDBX Classes
 90
        0
280
     0
281
     0
  0
CLASS
  1
LAYOUT
  2
AcDbLayout
  3
ObjectDBX Classes
 90
        0
280
     0
281
     0
  0
CLASS
  1
DICTIONARYVAR
  2
AcDbDictionaryVar
  3
ObjectDBX Classes
 90
        0
280
     0
281
     0
  0
CLASS
  1
TABLESTYLE
  2
AcDbTableStyle
  3
ObjectDBX Classes
 90
     4095
280
     0
281
     0
  0
CLASS
  1
MATERIAL
  2
AcDbMaterial
  3
ObjectDBX Classes
 90
     1153
280
     0
281
     0
  0
CLASS
  1
VISUALSTYLE
  2
AcDbVisualStyle
  3
ObjectDBX Classes
 90
     4095
280
     0
281
     0
  0
CLASS
  1
SCALE
  2
AcDbScale
  3
ObjectDBX Classes
 90
     1153
280
     0
281
     0
  0
CLASS
  1
MLEADERSTYLE
  2
AcDbMLeaderStyle
  3
ACDB_MLEADERSTYLE_CLASS
 90
     4095
280
     0
281
     0
  0
CLASS
  1
CELLSTYLEMAP
  2
AcDbCellStyleMap
  3
ObjectDBX Classes
 90
     1152
280
     0
281
     0
  0
CLASS
  1
EXACXREFPANELOBJECT
  2
ExAcXREFPanelObject
  3
EXAC_ESW
 90
    33793
280
     0
281
     0
  0
CLASS
  1
NPOCOLLECTION
  2
AcDbImpNonPersistentObjectsCollection
  3
ObjectDBX Classes
 90
    33921
280
     0
281
     0
  0
CLASS
  1
LAYER_INDEX
  2
AcDbLayerIndex
  3
ObjectDBX Classes
 90
    32768
280
     0
281
     0
  0
CLASS
  1
SPATIAL_INDEX
  2
AcDbSpatialIndex
  3
ObjectDBX Classes
 90
    32768
280
     0
281
     0
  0
CLASS
  1
IDBUFFER
  2
AcDbIdBuffer
  3
ObjectDBX Classes
 90
    32768
280
     0
281
     0
  0
CLASS
  1
ACDBSECTIONVIEWSTYLE
  2
AcDbSectionViewStyle
  3
ObjectDBX Classes
 90
     1025
280
     0
281
     0
  0
CLASS
  1
ACDBDETAILVIEWSTYLE
  2
AcDbDetailViewStyle
  3
ObjectDBX Classes
 90
     1025
280
     0
281
     0
  0
CLASS
  1
XRECORD
  2
AcDbXrecord
  3
ObjectDBX Classes
 90
        0
280
     0
281
     0
  0
ENDSEC
  0
SECTION
  2
TABLES
  0
TABLE
  2
VPORT
  5
8
102
{ACAD_XDICTIONARY
360
5CA3
102
}
330
0
100
AcDbSymbolTable
 70
     1
  0
VPORT
  5
EA
330
8
100
AcDbSymbolTableRecord
100
AcDbViewportTableRecord
  2
*Active
 70
     0
 10
0.0
 20
0.0
 11
1.0
 21
1.0
 12
0.0032050791234823
 22
-18.1818232330049
 13
0.0
 23
0.0
 14
10.0
 24
10.0
 15
10.0
 25
10.0
 16
0.0
 26
0.0
 36
1.0
 17
0.0
 27
0.0
 37
0.0
 40
415.8025425820261
 41
0.9846153846153846
 42
50.0
 43
0.0
 44
0.0
 50
0.0
 51
0.0
 71
     0
 72
  1000
 73
     1
 74
     3
 75
     0
 76
     1
 77
     0
 78
     0
281
     0
 65
     1
110
0.0
120
0.0
130
0.0
111
1.0
121
0.0
131
0.0
112
0.0
122
1.0
132
0.0
 79
     0
146
0.0
1001
ACAD_NAV_VCDISPLAY
1070
     3
  0
ENDTAB
  0
TABLE
  2
LTYPE
  5
5
330
0
100
AcDbSymbolTable
 70
     1
  0
LTYPE
  5
14
330
5
100
AcDbSymbolTableRecord
100
AcDbLinetypeTableRecord
  2
ByBlock
 70
     0
  3

 72
    65
 73
     0
 40
0.0
  0
LTYPE
  5
15
330
5
100
AcDbSymbolTableRecord
100
AcDbLinetypeTableRecord
  2
ByLayer
 70
     0
  3

 72
    65
 73
     0
 40
0.0
  0
LTYPE
  5
16
330
5
100
AcDbSymbolTableRecord
100
AcDbLinetypeTableRecord
  2
Continuous
 70
     0
  3
Solid line
 72
    65
 73
     0
 40
0.0
  0
ENDTAB
  0
TABLE
  2
LAYER
  5
2
102
{ACAD_XDICTIONARY
360
1FF
102
}
330
0
100
AcDbSymbolTable
 70
     1
  0
LAYER
  5
10
102
{ACAD_XDICTIONARY
360
13C
102
}
330
2
100
AcDbSymbolTableRecord
100
AcDbLayerTableRecord
  2
0
 70
     0
 62
     7
  6
Continuous
370
    -3
390
F
  0
ENDTAB
  0
TABLE
  2
STYLE
  5
3
330
0
100
AcDbSymbolTable
 70
     1
  0
STYLE
  5
11
330
3
100
AcDbSymbolTableRecord
100
AcDbTextStyleTableRecord
  2
Standard
 70
     0
 40
0.0
 41
1.0
 50
0.0
 71
     0
 42
2.5
  3
arial.ttf
  4

1001
ACAD
1000
Arial
1071
       34
  0
ENDTAB
  0
TABLE
  2
VIEW
  5
6
330
0
100
AcDbSymbolTable
 70
     0
  0
ENDTAB
  0
TABLE
  2
UCS
  5
7
330
0
100
AcDbSymbolTable
 70
     0
  0
ENDTAB
  0
TABLE
  2
APPID
  5
9
330
0
100
AcDbSymbolTable
 70
     8
  0
APPID
  5
12
330
9
100
AcDbSymbolTableRecord
100
AcDbRegAppTableRecord
  2
ACAD
 70
     0
  0
APPID
  5
9E
330
9
100
AcDbSymbolTableRecord
100
AcDbRegAppTableRecord
  2
ACAD_PSEXT
 70
     0
  0
APPID
  5
133
330
9
100
AcDbSymbolTableRecord
100
AcDbRegAppTableRecord
  2
AcadAnnoPO
 70
     0
  0
APPID
  5
134
330
9
100
AcDbSymbolTableRecord
100
AcDbRegAppTableRecord
  2
AcadAnnotative
 70
     0
  0
APPID
  5
135
330
9
100
AcDbSymbolTableRecord
100
AcDbRegAppTableRecord
  2
ACAD_DSTYLE_DIMJAG
 70
     0
  0
APPID
  5
136
330
9
100
AcDbSymbolTableRecord
100
AcDbRegAppTableRecord
  2
ACAD_DSTYLE_DIMTALN
 70
     0
  0
APPID
  5
165
330
9
100
AcDbSymbolTableRecord
100
AcDbRegAppTableRecord
  2
ACAD_MLEADERVER
 70
     0
  0
APPID
  5
217
330
9
100
AcDbSymbolTableRecord
100
AcDbRegAppTableRecord
  2
ACAD_NAV_VCDISPLAY
 70
     0
  0
ENDTAB
  0
TABLE
  2
DIMSTYLE
  5
A
330
0
100
AcDbSymbolTable
 70
     1
100
AcDbDimStyleTable
 71
     0
  0
DIMSTYLE
105
27
330
A
100
AcDbSymbolTableRecord
100
AcDbDimStyleTableRecord
  2
ISO-25
 70
     0
 41
2.5
 42
0.625
 43
3.75
 44
1.25
 73
     0
 74
     0
 77
     1
 78
     8
140
2.5
141
2.5
143
0.03937007874016
147
0.625
171
     3
172
     1
271
     2
272
     2
274
     3
278
    44
283
     0
284
     8
340
11
  0
ENDTAB
  0
TABLE
  2
BLOCK_RECORD
  5
1
330
0
100
AcDbSymbolTable
 70
     7
  0
BLOCK_RECORD
  5
1F
102
{ACAD_XDICTIONARY
360
1CE
102
}
330
1
100
AcDbSymbolTableRecord
100
AcDbBlockTableRecord
  2
*Model_Space
340
22
  0
BLOCK_RECORD
  5
D2
102
{ACAD_XDICTIONARY
360
5C56
102
}
330
1
100
AcDbSymbolTableRecord
100
AcDbBlockTableRecord
  2
*Paper_Space
340
D3
  0
BLOCK_RECORD
  5
D6
102
{ACAD_XDICTIONARY
360
5C58
102
}
330
1
100
AcDbSymbolTableRecord
100
AcDbBlockTableRecord
  2
*Paper_Space0
340
D7
  0
BLOCK_RECORD
  5
5A56
330
1
100
AcDbSymbolTableRecord
100
AcDbBlockTableRecord
  2
TU12-Front
340
0
102
{BLKREFS
331
5C4C
102
}
  0
BLOCK_RECORD
  5
5AA5
330
1
100
AcDbSymbolTableRecord
100
AcDbBlockTableRecord
  2
TU12-Left
340
0
102
{BLKREFS
331
5C4D
102
}
  0
BLOCK_RECORD
  5
5AE8
330
1
100
AcDbSymbolTableRecord
100
AcDbBlockTableRecord
  2
TU12-Right
340
0
102
{BLKREFS
331
5C4E
102
}
  0
BLOCK_RECORD
  5
5B2B
330
1
100
AcDbSymbolTableRecord
100
AcDbBlockTableRecord
  2
TU12-Top
340
0
102
{BLKREFS
331
5C4F
102
}
  0
BLOCK_RECORD
  5
5B6F
330
1
100
AcDbSymbolTableRecord
100
AcDbBlockTableRecord
  2
TU12-Bottom
340
0
102
{BLKREFS
331
5C50
102
}
  0
BLOCK_RECORD
  5
5BA1
330
1
100
AcDbSymbolTableRecord
100
AcDbBlockTableRecord
  2
TU12-ISO
340
0
102
{BLKREFS
331
5C51
102
}
  0
ENDTAB
  0
ENDSEC
  0
SECTION
  2
BLOCKS
  0
BLOCK
  5
20
330
1F
100
AcDbEntity
  8
0
100
AcDbBlockBegin
  2
*Model_Space
 70
     0
 10
0.0
 20
0.0
 30
0.0
  3
*Model_Space
  1

  0
ENDBLK
  5
21
330
1F
100
AcDbEntity
  8
0
100
AcDbBlockEnd
  0
BLOCK
  5
D4
330
D2
100
AcDbEntity
 67
     1
  8
0
100
AcDbBlockBegin
  2
*Paper_Space
 70
     0
 10
0.0
 20
0.0
 30
0.0
  3
*Paper_Space
  1

  0
ENDBLK
  5
D5
330
D2
100
AcDbEntity
 67
     1
  8
0
100
AcDbBlockEnd
  0
BLOCK
  5
D8
330
D6
100
AcDbEntity
 67
     1
  8
0
100
AcDbBlockBegin
  2
*Paper_Space0
 70
     0
 10
0.0
 20
0.0
 30
0.0
  3
*Paper_Space0
  1

  0
ENDBLK
  5
D9
330
D6
100
AcDbEntity
 67
     1
  8
0
100
AcDbBlockEnd
  0
BLOCK
  5
5A57
330
5A56
100
AcDbEntity
  8
0
100
AcDbBlockBegin
  2
TU12-Front
 70
     0
 10
0.0
 20
0.0
 30
0.0
  3
TU12-Front
  1

  0
LINE
  5
5A59
330
5A56
100
AcDbEntity
  8
0
100
AcDbLine
 10
4.499999510852781
 20
-2.249999999999976
 30
0.0
 11
1.65275010323488
 21
-2.249999999999983
 31
0.0
  0
SPLINE
  5
5A5A
330
5A56
100
AcDbEntity
  8
0
100
AcDbSpline
210
0.0
220
0.0
230
1.0
 70
     8
 71
     3
 72
    12
 73
     8
 74
     0
 42
0.000000001
 43
0.0000000001
 40
0.0
 40
0.0
 40
0.0
 40
0.0
 40
0.1237096560088969
 40
0.1237096560088969
 40
0.2024560230578842
 40
0.2024560230578842
 40
0.2812023894290632
 40
0.2812023894290632
 40
0.2812023894290632
 40
0.2812023894290632
 10
1.499999510852782
 20
-26.0795559956218
 30
0.0
 10
1.499999510852781
 20
-25.98520341814896
 30
0.0
 10
1.580570966890765
 20
-25.89178801517622
 30
0.0
 10
1.836457972293404
 20
-25.73737581554542
 30
0.0
 10
1.965648114384287
 20
-25.6775601158093
 30
0.0
 10
2.277069873734028
 20
-25.55744118223153
 30
0.0
 10
2.458029350682283
 20
-25.49762537279064
 30
0.0
 10
2.659838091011621
 20
-25.43756601400814
 30
0.0
  0
SPLINE
  5
5A5B
330
5A56
100
AcDbEntity
  8
0
100
AcDbSpline
210
0.0
220
0.0
230
1.0
 70
     8
 71
     3
 72
    18
 73
    14
 74
     0
 42
0.000000001
 43
0.0000000001
 40
0.0002207926050596
 40
0.0002207926050596
 40
0.0002207926050596
 40
0.0002207926050596
 40
0.0405673887695914
 40
0.0405673887695914
 40
0.075946656871092
 40
0.075946656871092
 40
0.113368442973142
 40
0.113368442973142
 40
0.1697492446639394
 40
0.1697492446639394
 40
0.2688410643605736
 40
0.2688410643605736
 40
0.3217166191710445
 40
0.3217166191710445
 40
0.3217166191710445
 40
0.3217166191710445
 10
4.499999259522581
 20
-27.65117550618645
 30
0.0
 10
4.499883561588371
 20
-27.51668367705482
 30
0.0
 10
4.481424178119373
 20
-27.38190612447989
 30
0.0
 10
4.41329561260307
 20
-27.13310733037015
 30
0.0
 10
4.368410517528918
 20
-27.02113606190509
 30
0.0
 10
4.254022304718628
 20
-26.80174369086117
 30
0.0
 10
4.183551976898874
 20
-26.69543293498663
 30
0.0
 10
3.98441536700562
 20
-26.44564912507185
 30
0.0
 10
3.8452183960053
 20
-26.31167410217702
 30
0.0
 10
3.431318285197015
 20
-25.98528403020676
 30
0.0
 10
3.133438037702107
 20
-25.82406813492073
 30
0.0
 10
2.664804683614784
 20
-25.63728101956088
 30
0.0
 10
2.499720000567174
 20
-25.5835312065933
 30
0.0
 10
2.334795097673576
 20
-25.54037193172441
 30
0.0
  0
SPLINE
  5
5A5C
330
5A56
100
AcDbEntity
  8
0
100
AcDbSpline
210
0.0
220
0.0
230
1.0
 70
     8
 71
     3
 72
    18
 73
    14
 74
     0
 42
0.000000001
 43
0.0000000001
 40
0.0
 40
0.0
 40
0.0
 40
0.0
 40
0.0471830120679743
 40
0.0471830120679743
 40
0.0950116998656786
 40
0.0950116998656786
 40
0.1538177585972697
 40
0.1538177585972697
 40
0.2246331071201076
 40
0.2246331071201076
 40
0.2730249789768527
 40
0.2730249789768527
 40
0.3384205720744892
 40
0.3384205720744892
 40
0.3384205720744892
 40
0.3384205720744892
 10
2.659838091011595
 20
-25.43756601400815
 30
0.0
 10
2.780768870945527
 20
-25.40164249598064
 30
0.0
 10
2.91189293944395
 20
-25.39377760032043
 30
0.0
 10
3.187189176383647
 20
-25.43696880089696
 30
0.0
 10
3.325638733473892
 20
-25.48778787077451
 30
0.0
 10
3.621275576135667
 20
-25.65498522090507
 30
0.0
 10
3.770184049993237
 20
-25.78074618342706
 30
0.0
 10
4.054804401069865
 20
-26.10474651534316
 30
0.0
 10
4.180379617609644
 20
-26.3109588971269
 30
0.0
 10
4.339491348588715
 20
-26.68017917309937
 30
0.0
 10
4.389828485758949
 20
-26.83652217310174
 30
0.0
 10
4.475825455089752
 20
-27.21197552500091
 30
0.0
 10
4.500020239876104
 20
-27.43647689990523
 30
0.0
 10
4.499999510852779
 20
-27.65338345828562
 30
0.0
  0
SPLINE
  5
5A5D
330
5A56
100
AcDbEntity
  8
0
100
AcDbSpline
210
0.0
220
0.0
230
1.0
 70
     8
 71
     3
 72
    12
 73
     8
 74
     0
 42
0.000000001
 43
0.0000000001
 40
0.0
 40
0.0
 40
0.0
 40
0.0
 40
0.0463759660156932
 40
0.0463759660156932
 40
0.0752344047891089
 40
0.0752344047891089
 40
0.1065806592783623
 40
0.1065806592783623
 40
0.1065806592783623
 40
0.1065806592783623
 10
1.652750103234875
 20
-2.249999999999974
 30
0.0
 10
1.604051363707962
 20
-2.25000223430412
 30
0.0
 10
1.567843091316011
 20
-2.221797932494466
 30
0.0
 10
1.527971916887621
 20
-2.134644979148352
 30
0.0
 10
1.517382924970597
 20
-2.091882110389566
 30
0.0
 10
1.503068298801632
 20
-1.986135185847124
 30
0.0
 10
1.499999510852777
 20
-1.927289983805899
 30
0.0
 10
1.499999510852777
 20
-1.849314533975063
 30
0.0
  0
LINE
  5
5A5E
330
5A56
100
AcDbEntity
  8
0
100
AcDbLine
 10
1.499999510852779
 20
48.0
 30
0.0
 11
1.49999951085278
 21
46.51763809020504
 31
0.0
  0
LINE
  5
5A5F
330
5A56
100
AcDbEntity
  8
0
100
AcDbLine
 10
1.499999510852779
 20
45.99999999999997
 30
0.0
 11
1.49999951085278
 21
46.51763809020504
 31
0.0
  0
LINE
  5
5A60
330
5A56
100
AcDbEntity
  8
0
100
AcDbLine
 10
1.499999510852784
 20
45.99999999999997
 30
0.0
 11
1.499999510852785
 21
43.99999999999998
 31
0.0
  0
LINE
  5
5A61
330
5A56
100
AcDbEntity
  8
0
100
AcDbLine
 10
1.499999510852807
 20
-46.00000000000001
 30
0.0
 11
1.499999510852785
 21
43.99999999999998
 31
0.0
  0
LINE
  5
5A62
330
5A56
100
AcDbEntity
  8
0
100
AcDbLine
 10
1.499999510852807
 20
-46.00000000000001
 30
0.0
 11
1.499999510852807
 21
-48.0
 31
0.0
  0
LINE
  5
5A63
330
5A56
100
AcDbEntity
  8
0
100
AcDbLine
 10
-1.500000489147194
 20
-48.0
 30
0.0
 11
-1.500000489147194
 21
-46.00000000000001
 31
0.0
  0
LINE
  5
5A64
330
5A56
100
AcDbEntity
  8
0
100
AcDbLine
 10
-1.500000489147212
 20
43.99999999999998
 30
0.0
 11
-1.500000489147195
 21
-46.00000000000001
 31
0.0
  0
LINE
  5
5A65
330
5A56
100
AcDbEntity
  8
0
100
AcDbLine
 10
-1.500000489147212
 20
43.99999999999998
 30
0.0
 11
-1.500000489147213
 21
45.99999999999997
 31
0.0
  0
LINE
  5
5A66
330
5A56
100
AcDbEntity
  8
0
100
AcDbLine
 10
-1.500000489147217
 20
46.51763809020504
 30
0.0
 11
-1.500000489147217
 21
45.99999999999997
 31
0.0
  0
LINE
  5
5A67
330
5A56
100
AcDbEntity
  8
0
100
AcDbLine
 10
-1.500000489147217
 20
46.51763809020504
 30
0.0
 11
-1.500000489147218
 21
48.0
 31
0.0
  0
LINE
  5
5A68
330
5A56
100
AcDbEntity
  8
0
100
AcDbLine
 10
1.499999510852807
 20
-48.0
 30
0.0
 11
-1.500000489147195
 21
-48.0
 31
0.0
  0
LINE
  5
5A69
330
5A56
100
AcDbEntity
  8
0
100
AcDbLine
 10
1.49999951085278
 20
47.99999999999998
 30
0.0
 11
-1.500000489147217
 21
47.99999999999998
 31
0.0
  0
LINE
  5
5A6A
330
5A56
100
AcDbEntity
  8
0
100
AcDbLine
 10
1.499999510852785
 20
45.99999999999996
 30
0.0
 11
-1.500000489147213
 21
45.99999999999996
 31
0.0
  0
ARC
  5
5A6B
330
5A56
100
AcDbEntity
  8
0
100
AcDbCircle
 10
-2.25000048914724
 20
27.65338345828562
 30
0.0
 40
2.249999999999998
100
AcDbArc
 50
100.0000000000001
 51
180.0
  0
LINE
  5
5A6C
330
5A56
100
AcDbEntity
  8
0
100
AcDbLine
 10
14.99999951085274
 20
32.97973375224958
 30
0.0
 11
1.499999510852763
 21
30.59931951268529
 31
0.0
  0
LINE
  5
5A6D
330
5A56
100
AcDbEntity
  8
0
100
AcDbLine
 10
-1.500000489147232
 20
30.0703385705599
 30
0.0
 11
-2.640708888897844
 21
29.86920090256309
 31
0.0
  0
LINE
  5
5A6E
330
5A56
100
AcDbEntity
  8
0
100
AcDbLine
 10
18.68403979750408
 20
34.32061475842819
 30
0.0
 11
14.99999951085274
 21
32.97973375224958
 31
0.0
  0
ARC
  5
5A6F
330
5A56
100
AcDbEntity
  8
0
100
AcDbCircle
 10
17.99999951085275
 20
36.20000000000002
 30
0.0
 40
2.000000000000019
100
AcDbArc
 50
290.0
 51
0.0
  0
LINE
  5
5A70
330
5A56
100
AcDbEntity
  8
0
100
AcDbLine
 10
19.99999951085274
 20
46.00000000000001
 30
0.0
 11
19.99999951085273
 21
36.20000000000002
 31
0.0
  0
ARC
  5
5A71
330
5A56
100
AcDbEntity
  8
0
100
AcDbCircle
 10
17.99999951085274
 20
46.00000000000001
 30
0.0
 40
1.999999999999984
100
AcDbArc
 50
0.0
 51
90.0
  0
LINE
  5
5A72
330
5A56
100
AcDbEntity
  8
0
100
AcDbLine
 10
1.499999510852763
 20
48.0
 30
0.0
 11
17.99999951085274
 21
48.0
 31
0.0
  0
LINE
  5
5A73
330
5A56
100
AcDbEntity
  8
0
100
AcDbLine
 10
-1.528576837630543
 20
48.0
 30
0.0
 11
-1.500000489147232
 21
47.94391575825769
 31
0.0
  0
LINE
  5
5A74
330
5A56
100
AcDbEntity
  8
0
100
AcDbLine
 10
-18.00000048914726
 20
48.0
 30
0.0
 11
-1.528576837630544
 21
48.0
 31
0.0
  0
ARC
  5
5A75
330
5A56
100
AcDbEntity
  8
0
100
AcDbCircle
 10
-18.00000048914726
 20
46.00000000000001
 30
0.0
 40
2.0
100
AcDbArc
 50
90.0
 51
180.0
  0
LINE
  5
5A76
330
5A56
100
AcDbEntity
  8
0
100
AcDbLine
 10
-20.00000048914725
 20
4.249999999999993
 30
0.0
 11
-20.00000048914726
 21
46.00000000000001
 31
0.0
  0
ARC
  5
5A77
330
5A56
100
AcDbEntity
  8
0
100
AcDbCircle
 10
-18.00000048914724
 20
4.250000000000002
 30
0.0
 40
2.000000000000012
100
AcDbArc
 50
180.0
 51
270.0
  0
CIRCLE
  5
5A78
330
5A56
100
AcDbEntity
  8
0
100
AcDbCircle
 10
-14.00000048914725
 20
40.0
 30
0.0
 40
2.499999999999992
  0
CIRCLE
  5
5A79
330
5A56
100
AcDbEntity
  8
0
100
AcDbCircle
 10
13.99999951085275
 20
40.0
 30
0.0
 40
2.500000000000005
  0
CIRCLE
  5
5A7A
330
5A56
100
AcDbEntity
  8
0
100
AcDbCircle
 10
-14.00000048914724
 20
10.0
 30
0.0
 40
2.500000000000002
  0
LINE
  5
5A7B
330
5A56
100
AcDbEntity
  8
0
100
AcDbLine
 10
-4.500000489147232
 20
2.250000000000009
 30
0.0
 11
-18.00000048914724
 21
2.25
 31
0.0
  0
LINE
  5
5A7C
330
5A56
100
AcDbEntity
  8
0
100
AcDbLine
 10
4.499999510852779
 20
-2.25
 30
0.0
 11
17.99999951085277
 21
-2.250000000000009
 31
0.0
  0
ARC
  5
5A7D
330
5A56
100
AcDbEntity
  8
0
100
AcDbCircle
 10
17.99999951085277
 20
-4.250000000000002
 30
0.0
 40
2.000000000000006
100
AcDbArc
 50
0.0
 51
90.0
  0
LINE
  5
5A7E
330
5A56
100
AcDbEntity
  8
0
100
AcDbLine
 10
19.99999951085277
 20
-4.250000000000002
 30
0.0
 11
19.99999951085278
 21
-46.00000000000001
 31
0.0
  0
ARC
  5
5A7F
330
5A56
100
AcDbEntity
  8
0
100
AcDbCircle
 10
17.99999951085282
 20
-46.00000000000003
 30
0.0
 40
1.999999999999957
100
AcDbArc
 50
270.0
 51
0.0
  0
LINE
  5
5A80
330
5A56
100
AcDbEntity
  8
0
100
AcDbLine
 10
17.99999951085282
 20
-47.99999999999998
 30
0.0
 11
1.528575859336063
 21
-47.99999999999998
 31
0.0
  0
LINE
  5
5A81
330
5A56
100
AcDbEntity
  8
0
100
AcDbLine
 10
1.528575859336063
 20
-47.99999999999998
 30
0.0
 11
1.499999510852788
 21
-47.94391575825773
 31
0.0
  0
LINE
  5
5A82
330
5A56
100
AcDbEntity
  8
0
100
AcDbLine
 10
-1.500000489147216
 20
-47.99999999999998
 30
0.0
 11
-18.00000048914722
 21
-48.0
 31
0.0
  0
ARC
  5
5A83
330
5A56
100
AcDbEntity
  8
0
100
AcDbCircle
 10
-18.00000048914722
 20
-46.0
 30
0.0
 40
1.999999999999997
100
AcDbArc
 50
180.0
 51
270.0
  0
LINE
  5
5A84
330
5A56
100
AcDbEntity
  8
0
100
AcDbLine
 10
-20.00000048914722
 20
-46.0
 30
0.0
 11
-20.00000048914723
 21
-36.2
 31
0.0
  0
ARC
  5
5A85
330
5A56
100
AcDbEntity
  8
0
100
AcDbCircle
 10
-18.00000048914722
 20
-36.2
 30
0.0
 40
2.000000000000006
100
AcDbArc
 50
110.0000000000001
 51
180.0
  0
LINE
  5
5A86
330
5A56
100
AcDbEntity
  8
0
100
AcDbLine
 10
-18.68404077579857
 20
-34.32061475842818
 30
0.0
 11
-15.00000048914723
 21
-32.97973375224958
 31
0.0
  0
LINE
  5
5A87
330
5A56
100
AcDbEntity
  8
0
100
AcDbLine
 10
-15.00000048914723
 20
-32.97973375224958
 30
0.0
 11
-4.000000489147215
 21
-31.04013696445645
 31
0.0
  0
LINE
  5
5A88
330
5A56
100
AcDbEntity
  8
0
100
AcDbLine
 10
1.499999510852783
 20
-30.0703385705599
 30
0.0
 11
2.640707910603373
 21
-29.86920090256309
 31
0.0
  0
CIRCLE
  5
5A89
330
5A56
100
AcDbEntity
  8
0
100
AcDbCircle
 10
13.99999951085277
 20
-9.999999999999992
 30
0.0
 40
2.499999999999998
  0
CIRCLE
  5
5A8A
330
5A56
100
AcDbEntity
  8
0
100
AcDbCircle
 10
13.99999951085278
 20
-40.0
 30
0.0
 40
2.5
  0
CIRCLE
  5
5A8B
330
5A56
100
AcDbEntity
  8
0
100
AcDbCircle
 10
-14.00000048914722
 20
-40.0
 30
0.0
 40
2.499999999999999
  0
ARC
  5
5A8C
330
5A56
100
AcDbEntity
  8
0
100
AcDbCircle
 10
2.249999510852783
 20
-27.65338345828562
 30
0.0
 40
2.249999999999999
100
AcDbArc
 50
280.0000000000001
 51
0.0
  0
LINE
  5
5A8D
330
5A56
100
AcDbEntity
  8
0
100
AcDbLine
 10
-4.500000489147227
 20
2.250000000000046
 30
0.0
 11
-4.000000489147227
 21
2.250000000000044
 31
0.0
  0
SPLINE
  5
5A8E
330
5A56
100
AcDbEntity
  8
0
100
AcDbSpline
210
0.0
220
0.0
230
1.0
 70
     8
 71
     3
 72
    12
 73
     8
 74
     0
 42
0.000000001
 43
0.0000000001
 40
0.0
 40
0.0
 40
0.0
 40
0.0
 40
0.1237096560088968
 40
0.1237096560088968
 40
0.2024560230578827
 40
0.2024560230578827
 40
0.2812023894290549
 40
0.2812023894290549
 40
0.2812023894290549
 40
0.2812023894290549
 10
-1.500000489147229
 20
26.0795559956218
 30
0.0
 10
-1.500000489147229
 20
25.98520341814894
 30
0.0
 10
-1.580571945185217
 20
25.89178801517623
 30
0.0
 10
-1.836458950587843
 20
25.73737581554543
 30
0.0
 10
-1.965649092678713
 20
25.67756011580933
 30
0.0
 10
-2.277070852028472
 20
25.55744118223153
 30
0.0
 10
-2.458030328976731
 20
25.49762537279065
 30
0.0
 10
-2.659839069306062
 20
25.43756601400816
 30
0.0
  0
SPLINE
  5
5A8F
330
5A56
100
AcDbEntity
  8
0
100
AcDbSpline
210
0.0
220
0.0
230
1.0
 70
     8
 71
     3
 72
    18
 73
    14
 74
     0
 42
0.000000001
 43
0.0000000001
 40
0.0002207926044743
 40
0.0002207926044743
 40
0.0002207926044743
 40
0.0002207926044743
 40
0.0405673887695948
 40
0.0405673887695948
 40
0.0759466568711129
 40
0.0759466568711129
 40
0.1133684429731229
 40
0.1133684429731229
 40
0.1697492446639237
 40
0.1697492446639237
 40
0.2688410643610644
 40
0.2688410643610644
 40
0.3217166191710828
 40
0.3217166191710828
 40
0.3217166191710828
 40
0.3217166191710828
 10
-4.500000237817035
 20
27.65117550619231
 30
0.0
 10
-4.499884539883351
 20
27.51668367705873
 30
0.0
 10
-4.481425156414294
 20
27.38190612448154
 30
0.0
 10
-4.413296590897594
 20
27.13310733037038
 30
0.0
 10
-4.368411495823478
 20
27.02113606190528
 30
0.0
 10
-4.254023283013099
 20
26.80174369086121
 30
0.0
 10
-4.18355295519323
 20
26.69543293498654
 30
0.0
 10
-3.984416345300127
 20
26.44564912507187
 30
0.0
 10
-3.845219374300212
 20
26.31167410217737
 30
0.0
 10
-3.431319263489409
 20
25.98528403020515
 30
0.0
 10
-3.133439015992613
 20
25.82406813491872
 30
0.0
 10
-2.664805661905667
 20
25.63728101955969
 30
0.0
 10
-2.499720978859846
 20
25.58353120659278
 30
0.0
 10
-2.334796075968087
 20
25.54037193172436
 30
0.0
  0
SPLINE
  5
5A90
330
5A56
100
AcDbEntity
  8
0
100
AcDbSpline
210
0.0
220
0.0
230
1.0
 70
     8
 71
     3
 72
    18
 73
    14
 74
     0
 42
0.000000001
 43
0.0000000001
 40
0.0
 40
0.0
 40
0.0
 40
0.0
 40
0.0471830120678907
 40
0.0471830120678907
 40
0.0950116998656097
 40
0.0950116998656097
 40
0.1538177585970938
 40
0.1538177585970938
 40
0.2246331071199031
 40
0.2246331071199031
 40
0.2730249789767294
 40
0.2730249789767294
 40
0.3384205720743678
 40
0.3384205720743678
 40
0.3384205720743678
 40
0.3384205720743678
 10
-2.659839069306053
 20
25.43756601400814
 30
0.0
 10
-2.780769849239776
 20
25.40164249598075
 30
0.0
 10
-2.911893917738434
 20
25.39377760032034
 30
0.0
 10
-3.18719015467937
 20
25.43696880089723
 30
0.0
 10
-3.325639711770318
 20
25.48778787077535
 30
0.0
 10
-3.621276554431826
 20
25.65498522090638
 30
0.0
 10
-3.770185028289129
 20
25.78074618342848
 30
0.0
 10
-4.054805379365482
 20
26.10474651534478
 30
0.0
 10
-4.180380595905132
 20
26.31095889712898
 30
0.0
 10
-4.339492326883471
 20
26.68017917310028
 30
0.0
 10
-4.389829464053633
 20
26.83652217310256
 30
0.0
 10
-4.475826433384255
 20
27.21197552500146
 30
0.0
 10
-4.500021218170548
 20
27.43647689990541
 30
0.0
 10
-4.500000489147232
 20
27.65338345828562
 30
0.0
  0
LINE
  5
5A91
330
5A56
100
AcDbEntity
  8
0
100
AcDbLine
 10
-2.323529900911929
 20
3.484638760485156
 30
0.0
 11
-2.323529900911927
 21
-3.484638760485183
 31
0.0
  0
LINE
  5
5A92
330
5A56
100
AcDbEntity
  8
0
100
AcDbLine
 10
-4.000000489147223
 20
5.845104669571425
 30
0.0
 11
-4.00000048914722
 21
-5.845104669571452
 31
0.0
  0
LINE
  5
5A93
330
5A56
100
AcDbEntity
  8
0
100
AcDbLine
 10
-2.323529900911903
 20
-27.48463876048519
 30
0.0
 11
-2.323529900911899
 21
-44.51536123951485
 31
0.0
  0
LINE
  5
5A94
330
5A56
100
AcDbEntity
  8
0
100
AcDbLine
 10
-4.000000489147199
 20
-29.84510466957146
 30
0.0
 11
-4.000000489147197
 21
-42.15489533042858
 31
0.0
  0
LINE
  5
5A95
330
5A56
100
AcDbEntity
  8
0
100
AcDbLine
 10
-2.323529900911912
 20
-3.484638760485185
 30
0.0
 11
-2.323529900911908
 21
-20.51536123951485
 31
0.0
  0
LINE
  5
5A96
330
5A56
100
AcDbEntity
  8
0
100
AcDbLine
 10
-4.000000489147208
 20
-5.845104669571455
 30
0.0
 11
-4.000000489147206
 21
-18.15489533042858
 31
0.0
  0
ARC
  5
5A97
330
5A56
100
AcDbEntity
  8
0
100
AcDbCircle
 10
-3.250000489147199
 20
-26.00000000000002
 30
0.0
 40
1.75
100
AcDbArc
 50
301.965718750797
 51
0.0
  0
ARC
  5
5A98
330
5A56
100
AcDbEntity
  8
0
100
AcDbCircle
 10
-3.250000489147194
 20
-46.00000000000003
 30
0.0
 40
1.75
100
AcDbArc
 50
0.0
 51
58.03428124920288
  0
ARC
  5
5A99
330
5A56
100
AcDbEntity
  8
0
100
AcDbCircle
 10
-1.500000489147199
 20
-29.84510466957147
 30
0.0
 40
2.499999999999999
100
AcDbArc
 50
109.2330759020448
 51
180.0
  0
ARC
  5
5A9A
330
5A56
100
AcDbEntity
  8
0
100
AcDbCircle
 10
-1.500000489147197
 20
-42.15489533042857
 30
0.0
 40
2.499999999999999
100
AcDbArc
 50
180.0
 51
250.7669240979554
  0
ARC
  5
5A9B
330
5A56
100
AcDbEntity
  8
0
100
AcDbCircle
 10
-3.250000489147208
 20
-2.000000000000017
 30
0.0
 40
1.75
100
AcDbArc
 50
301.9657187507972
 51
0.0
  0
ARC
  5
5A9C
330
5A56
100
AcDbEntity
  8
0
100
AcDbCircle
 10
-3.250000489147203
 20
-22.00000000000001
 30
0.0
 40
1.75
100
AcDbArc
 50
0.0
 51
58.03428124920288
  0
ARC
  5
5A9D
330
5A56
100
AcDbEntity
  8
0
100
AcDbCircle
 10
-1.500000489147208
 20
-5.845104669571464
 30
0.0
 40
2.499999999999999
100
AcDbArc
 50
109.2330759020448
 51
180.0
  0
ARC
  5
5A9E
330
5A56
100
AcDbEntity
  8
0
100
AcDbCircle
 10
-1.500000489147206
 20
-18.15489533042857
 30
0.0
 40
2.499999999999999
100
AcDbArc
 50
180.0
 51
250.7669240979552
  0
LINE
  5
5A9F
330
5A56
100
AcDbEntity
  8
0
100
AcDbLine
 10
-2.323529900911916
 20
20.51536123951482
 30
0.0
 11
-2.323529900911912
 21
3.484638760485156
 31
0.0
  0
LINE
  5
5AA0
330
5A56
100
AcDbEntity
  8
0
100
AcDbLine
 10
-4.000000489147208
 20
18.15489533042855
 30
0.0
 11
-4.000000489147206
 21
5.845104669571425
 31
0.0
  0
ARC
  5
5AA1
330
5A56
100
AcDbEntity
  8
0
100
AcDbCircle
 10
-3.250000489147212
 20
21.99999999999999
 30
0.0
 40
1.75
100
AcDbArc
 50
301.9657187507972
 51
0.0
  0
ARC
  5
5AA2
330
5A56
100
AcDbEntity
  8
0
100
AcDbCircle
 10
-3.250000489147208
 20
1.999999999999988
 30
0.0
 40
1.75
100
AcDbArc
 50
0.0
 51
58.03428124920295
  0
ARC
  5
5AA3
330
5A56
100
AcDbEntity
  8
0
100
AcDbCircle
 10
-1.500000489147208
 20
18.15489533042854
 30
0.0
 40
2.499999999999999
100
AcDbArc
 50
109.233075902045
 51
180.0
  0
ARC
  5
5AA4
330
5A56
100
AcDbEntity
  8
0
100
AcDbCircle
 10
-1.500000489147206
 20
5.845104669571434
 30
0.0
 40
2.499999999999999
100
AcDbArc
 50
180.0
 51
250.7669240979552
  0
ENDBLK
  5
5A58
330
5A56
100
AcDbEntity
  8
0
100
AcDbBlockEnd
  0
BLOCK
  5
5AA6
330
5AA5
100
AcDbEntity
  8
0
100
AcDbBlockBegin
  2
TU12-Left
 70
     0
 10
0.0
 20
0.0
 30
0.0
  3
TU12-Left
  1

  0
LINE
  5
5AA8
330
5AA5
100
AcDbEntity
  8
0
100
AcDbLine
 10
0.0
 20
-2.249999999999968
 30
0.0
 11
4.109845709134294
 21
-2.24999999999998
 31
0.0
  0
SPLINE
  5
5AA9
330
5AA5
100
AcDbEntity
  8
0
100
AcDbSpline
210
0.0
220
0.0
230
1.0
 70
     8
 71
     3
 72
    12
 73
     8
 74
     0
 42
0.000000001
 43
0.0000000001
 40
0.0
 40
0.0
 40
0.0
 40
0.0
 40
0.2376753784886336
 40
0.2376753784886336
 40
0.3944506176828581
 40
0.3944506176828581
 40
0.5512258570530216
 40
0.5512258570530216
 40
0.5512258570530216
 40
0.5512258570530216
 10
1.261305686614484
 20
-25.43756601400814
 30
0.0
 10
1.74394092128455
 20
-25.53003645902124
 30
0.0
 10
2.344136774954832
 20
-25.62162406644029
 30
0.0
 10
3.478486183160081
 20
-25.77508992290732
 30
0.0
 10
3.960797690718123
 20
-25.83582995735858
 30
0.0
 10
4.964162245574518
 20
-25.95782062810626
 30
0.0
 10
5.480987717177505
 20
-26.0185607161199
 30
0.0
 10
6.000000000000009
 20
-26.0795559956218
 30
0.0
  0
SPLINE
  5
5AAA
330
5AA5
100
AcDbEntity
  8
0
100
AcDbSpline
210
0.0
220
0.0
230
1.0
 70
     8
 71
     3
 72
    20
 73
    16
 74
     0
 42
0.000000001
 43
0.0000000001
 40
0.0
 40
0.0
 40
0.0
 40
0.0
 40
0.0405673887695914
 40
0.0405673887695914
 40
0.075946656871092
 40
0.075946656871092
 40
0.113368442973142
 40
0.113368442973142
 40
0.1697492446639394
 40
0.1697492446639394
 40
0.2688410643605736
 40
0.2688410643605736
 40
0.3821105489734811
 40
0.3821105489734811
 40
0.4914954746727007
 40
0.4914954746727007
 40
0.4914954746727007
 40
0.4914954746727007
 10
0.0000000000000079
 20
-27.65338345828561
 30
0.0
 10
0.0000000000000079
 20
-27.51815885611571
 30
0.0
 10
-0.0000828718994016
 20
-27.3826315428613
 30
0.0
 10
0.0005420532627677
 20
-27.13310733037015
 30
0.0
 10
0.0011853224837112
 20
-27.02113606190509
 30
0.0
 10
0.0047555616611507
 20
-26.80174369086117
 30
0.0
 10
0.0078217736849897
 20
-26.69543293498663
 30
0.0
 10
0.0209898838774949
 20
-26.44564912507185
 30
0.0
 10
0.0339121915682964
 20
-26.31167410217702
 30
0.0
 10
0.0899418246088272
 20
-25.98528403020676
 30
0.0
 10
0.1490385258690934
 20
-25.82406813492073
 30
0.0
 10
0.339074385195412
 20
-25.563049244684
 30
0.0
 10
0.4785308661701743
 20
-25.47541110193727
 30
0.0
 10
0.8258822139236652
 20
-25.39197201259876
 30
0.0
 10
1.028954847622407
 20
-25.39320198776906
 30
0.0
 10
1.261305686614484
 20
-25.43756601400815
 30
0.0
  0
SPLINE
  5
5AAB
330
5AA5
100
AcDbEntity
  8
0
100
AcDbSpline
210
0.0
220
0.0
230
1.0
 70
     8
 71
     3
 72
    14
 73
    10
 74
     0
 42
0.000000001
 43
0.0000000001
 40
0.1245071019696775
 40
0.1245071019696775
 40
0.1245071019696775
 40
0.1245071019696775
 40
0.1538177585972697
 40
0.1538177585972697
 40
0.2246331071201076
 40
0.2246331071201076
 40
0.2730249789768527
 40
0.2730249789768527
 40
0.3384205720744892
 40
0.3384205720744892
 40
0.3384205720744892
 40
0.3384205720744892
 10
3.110781765703754
 20
-25.72529231902161
 30
0.0
 10
3.090235166212202
 20
-25.78648218921636
 30
0.0
 10
3.073906408971888
 20
-25.85447258614183
 30
0.0
 10
3.02897494248643
 20
-26.10474651534316
 30
0.0
 10
3.01556908695379
 20
-26.3109588971269
 30
0.0
 10
3.003596697822898
 20
-26.68017917309937
 30
0.0
 10
3.001800417163526
 20
-26.83652217310174
 30
0.0
 10
2.999690047652631
 20
-27.21197552500091
 30
0.0
 10
3.00000000000001
 20
-27.43647689990523
 30
0.0
 10
3.00000000000001
 20
-27.65338345828562
 30
0.0
  0
SPLINE
  5
5AAC
330
5AA5
100
AcDbEntity
  8
0
100
AcDbSpline
210
0.0
220
0.0
230
1.0
 70
     8
 71
     3
 72
    10
 73
     6
 74
     0
 42
0.000000001
 43
0.0000000001
 40
0.0
 40
0.0
 40
0.0
 40
0.0
 40
0.0492998671218972
 40
0.0492998671218972
 40
0.0831233211191462
 40
0.0831233211191462
 40
0.0831233211191462
 40
0.0831233211191462
 10
6.000000000000018
 20
-1.849314533975063
 30
0.0
 10
5.85071645358405
 20
-1.918014764242284
 30
0.0
 10
5.523282208447102
 20
-2.058579826741042
 30
0.0
 10
4.741959542658832
 20
-2.218335028915086
 30
0.0
 10
4.421711722091049
 20
-2.250001105790535
 30
0.0
 10
4.109845709134285
 20
-2.249999999999983
 30
0.0
  0
LINE
  5
5AAD
330
5AA5
100
AcDbEntity
  8
0
100
AcDbLine
 10
0.0
 20
-27.65338345828562
 30
0.0
 11
0.0
 21
-2.25
 31
0.0
  0
ARC
  5
5AAE
330
5AA5
100
AcDbEntity
  8
0
100
AcDbCircle
 10
4.718385489147221
 20
0.0000000000000222
 30
0.0
 40
2.249999999999996
100
AcDbArc
 50
304.7227868229482
 51
55.27721317705115
  0
LINE
  5
5AAF
330
5AA5
100
AcDbEntity
  8
0
100
AcDbLine
 10
6.000000000000036
 20
26.0795559956218
 30
0.0
 11
20.20875739646898
 21
28.58494328696023
 31
0.0
  0
LINE
  5
5AB0
330
5AA5
100
AcDbEntity
  8
0
100
AcDbLine
 10
20.20875739646918
 20
-28.58494328696028
 30
0.0
 11
6.000000000000009
 21
-26.0795559956218
 31
0.0
  0
LINE
  5
5AB1
330
5AA5
100
AcDbEntity
  8
0
100
AcDbLine
 10
73.55118731297668
 20
-48.0
 30
0.0
 11
20.20875739646918
 21
-28.58494328696028
 31
0.0
  0
LINE
  5
5AB2
330
5AA5
100
AcDbEntity
  8
0
100
AcDbLine
 10
98.50118731297669
 20
-48.0
 30
0.0
 11
73.55118731297668
 21
-48.0
 31
0.0
  0
ARC
  5
5AB3
330
5AA5
100
AcDbEntity
  8
0
100
AcDbCircle
 10
98.50118731297671
 20
-46.00000000000001
 30
0.0
 40
1.999999999999992
100
AcDbArc
 50
270.0
 51
0.0
  0
LINE
  5
5AB4
330
5AA5
100
AcDbEntity
  8
0
100
AcDbLine
 10
100.5011873129767
 20
43.99999999999998
 30
0.0
 11
100.5011873129767
 21
-46.00000000000001
 31
0.0
  0
ARC
  5
5AB5
330
5AA5
100
AcDbEntity
  8
0
100
AcDbCircle
 10
98.50118731297673
 20
43.99999999999998
 30
0.0
 40
1.999999999999992
100
AcDbArc
 50
0.0
 51
90.0
  0
LINE
  5
5AB6
330
5AA5
100
AcDbEntity
  8
0
100
AcDbLine
 10
93.71528892811449
 20
45.99999999999997
 30
0.0
 11
98.50118731297673
 21
45.99999999999996
 31
0.0
  0
ARC
  5
5AB7
330
5AA5
100
AcDbEntity
  8
0
100
AcDbCircle
 10
93.71528892811449
 20
43.99999999999998
 30
0.0
 40
1.999999999999992
100
AcDbArc
 50
90.0
 51
149.9999999999999
  0
LINE
  5
5AB8
330
5AA5
100
AcDbEntity
  8
0
100
AcDbLine
 10
90.25118731297672
 20
41.99999999999997
 30
0.0
 11
91.9832381205456
 21
44.99999999999999
 31
0.0
  0
LINE
  5
5AB9
330
5AA5
100
AcDbEntity
  8
0
100
AcDbLine
 10
90.25118731297672
 20
38.73999999999997
 30
0.0
 11
90.25118731297672
 21
41.99999999999997
 31
0.0
  0
ARC
  5
5ABA
330
5AA5
100
AcDbEntity
  8
0
100
AcDbCircle
 10
87.00235675414482
 20
35.99999999999999
 30
0.0
 40
4.250000000000001
100
AcDbArc
 50
270.0
 51
40.14362712032678
  0
LINE
  5
5ABB
330
5AA5
100
AcDbEntity
  8
0
100
AcDbLine
 10
85.5011873129767
 20
31.74999999999999
 30
0.0
 11
87.0023567541448
 21
31.74999999999999
 31
0.0
  0
ARC
  5
5ABC
330
5AA5
100
AcDbEntity
  8
0
100
AcDbCircle
 10
85.50118731297672
 20
35.99999999999999
 30
0.0
 40
4.249999999999998
100
AcDbArc
 50
180.0
 51
270.0
  0
LINE
  5
5ABD
330
5AA5
100
AcDbEntity
  8
0
100
AcDbLine
 10
81.25118731297673
 20
41.99999999999999
 30
0.0
 11
81.2511873129767
 21
35.99999999999999
 31
0.0
  0
LINE
  5
5ABE
330
5AA5
100
AcDbEntity
  8
0
100
AcDbLine
 10
80.04068983501019
 20
46.51763809020504
 30
0.0
 11
81.25118731297673
 21
41.99999999999999
 31
0.0
  0
ARC
  5
5ABF
330
5AA5
100
AcDbEntity
  8
0
100
AcDbCircle
 10
78.10883818243205
 20
46.0
 30
0.0
 40
2.00000000000001
100
AcDbArc
 50
15.00000000000019
 51
90.0
  0
LINE
  5
5AC0
330
5AA5
100
AcDbEntity
  8
0
100
AcDbLine
 10
73.55118731297672
 20
48.00000000000003
 30
0.0
 11
78.10883818243205
 21
47.99999999999998
 31
0.0
  0
LINE
  5
5AC1
330
5AA5
100
AcDbEntity
  8
0
100
AcDbLine
 10
20.20875739646898
 20
28.58494328696023
 30
0.0
 11
73.55118731297672
 21
48.00000000000003
 31
0.0
  0
LINE
  5
5AC2
330
5AA5
100
AcDbEntity
  8
0
100
AcDbLine
 10
0.0
 20
48.0
 30
0.0
 11
3.000000000000051
 21
48.0
 31
0.0
  0
LINE
  5
5AC3
330
5AA5
100
AcDbEntity
  8
0
100
AcDbLine
 10
3.000000000000051
 20
48.00000000000001
 30
0.0
 11
3.000000000000051
 21
46.00000000000001
 31
0.0
  0
LINE
  5
5AC4
330
5AA5
100
AcDbEntity
  8
0
100
AcDbLine
 10
0.0
 20
46.00000000000001
 30
0.0
 11
0.0
 21
48.00000000000001
 31
0.0
  0
LINE
  5
5AC5
330
5AA5
100
AcDbEntity
  8
0
100
AcDbLine
 10
3.000000000000038
 20
4.249999999999993
 30
0.0
 11
3.000000000000051
 21
46.00000000000001
 31
0.0
  0
LINE
  5
5AC6
330
5AA5
100
AcDbEntity
  8
0
100
AcDbLine
 10
0.0
 20
46.00000000000001
 30
0.0
 11
0.0
 21
4.249999999999989
 31
0.0
  0
LINE
  5
5AC7
330
5AA5
100
AcDbEntity
  8
0
100
AcDbLine
 10
3.000000000000043
 20
4.250000000000002
 30
0.0
 11
3.000000000000041
 21
2.249999999999989
 31
0.0
  0
LINE
  5
5AC8
330
5AA5
100
AcDbEntity
  8
0
100
AcDbLine
 10
0.0
 20
2.249999999999989
 30
0.0
 11
0.0
 21
4.250000000000001
 31
0.0
  0
LINE
  5
5AC9
330
5AA5
100
AcDbEntity
  8
0
100
AcDbLine
 10
0.0
 20
2.25
 30
0.0
 11
3.000000000000042
 21
2.25
 31
0.0
  0
LINE
  5
5ACA
330
5AA5
100
AcDbEntity
  8
0
100
AcDbLine
 10
3.000000000000002
 20
-48.0
 30
0.0
 11
0.0
 21
-48.0
 31
0.0
  0
LINE
  5
5ACB
330
5AA5
100
AcDbEntity
  8
0
100
AcDbLine
 10
0.0
 20
-47.99999999999998
 30
0.0
 11
0.0
 21
-46.0
 31
0.0
  0
LINE
  5
5ACC
330
5AA5
100
AcDbEntity
  8
0
100
AcDbLine
 10
3.000000000000002
 20
-46.0
 30
0.0
 11
3.000000000000001
 21
-47.99999999999998
 31
0.0
  0
LINE
  5
5ACD
330
5AA5
100
AcDbEntity
  8
0
100
AcDbLine
 10
0.0
 20
-36.2
 30
0.0
 11
0.0
 21
-46.0
 31
0.0
  0
LINE
  5
5ACE
330
5AA5
100
AcDbEntity
  8
0
100
AcDbLine
 10
2.999999999999998
 20
-46.0
 30
0.0
 11
3.000000000000002
 21
-36.2
 31
0.0
  0
LINE
  5
5ACF
330
5AA5
100
AcDbEntity
  8
0
100
AcDbLine
 10
0.0
 20
-36.2
 30
0.0
 11
0.0
 21
-34.32061475842818
 31
0.0
  0
LINE
  5
5AD0
330
5AA5
100
AcDbEntity
  8
0
100
AcDbLine
 10
3.000000000000007
 20
-34.32061475842818
 30
0.0
 11
3.000000000000006
 21
-36.2
 31
0.0
  0
LINE
  5
5AD1
330
5AA5
100
AcDbEntity
  8
0
100
AcDbLine
 10
0.0
 20
-32.97973375224957
 30
0.0
 11
0.0
 21
-34.32061475842818
 31
0.0
  0
LINE
  5
5AD2
330
5AA5
100
AcDbEntity
  8
0
100
AcDbLine
 10
3.000000000000006
 20
-34.32061475842818
 30
0.0
 11
3.000000000000006
 21
-32.97973375224958
 31
0.0
  0
LINE
  5
5AD3
330
5AA5
100
AcDbEntity
  8
0
100
AcDbLine
 10
3.000000000000006
 20
-32.97973375224958
 30
0.0
 11
0.0
 21
-32.97973375224957
 31
0.0
  0
LINE
  5
5AD4
330
5AA5
100
AcDbEntity
  8
0
100
AcDbLine
 10
0.0
 20
-29.86920090256309
 30
0.0
 11
0.0
 21
-32.97973375224957
 31
0.0
  0
LINE
  5
5AD5
330
5AA5
100
AcDbEntity
  8
0
100
AcDbLine
 10
3.000000000000006
 20
-32.97973375224958
 30
0.0
 11
3.000000000000006
 21
-29.86920090256309
 31
0.0
  0
LINE
  5
5AD6
330
5AA5
100
AcDbEntity
  8
0
100
AcDbLine
 10
0.0
 20
-27.65338345828562
 30
0.0
 11
0.0
 21
-29.86920090256309
 31
0.0
  0
LINE
  5
5AD7
330
5AA5
100
AcDbEntity
  8
0
100
AcDbLine
 10
3.000000000000006
 20
-29.86920090256309
 30
0.0
 11
3.000000000000006
 21
-27.65338345828562
 31
0.0
  0
LINE
  5
5AD8
330
5AA5
100
AcDbEntity
  8
0
100
AcDbLine
 10
3.000000000000028
 20
2.250000000000046
 30
0.0
 11
5.054922854567158
 21
2.250000000000013
 31
0.0
  0
SPLINE
  5
5AD9
330
5AA5
100
AcDbEntity
  8
0
100
AcDbSpline
210
0.0
220
0.0
230
1.0
 70
     8
 71
     3
 72
    10
 73
     6
 74
     0
 42
0.000000001
 43
0.0000000001
 40
0.2472749108967327
 40
0.2472749108967327
 40
0.2472749108967327
 40
0.2472749108967327
 40
0.3944506176828553
 40
0.3944506176828553
 40
0.5512258570530229
 40
0.5512258570530229
 40
0.5512258570530229
 40
0.5512258570530229
 10
3.11080584571592
 20
25.72529628455058
 30
0.0
 10
3.537623811655761
 20
25.78252924768746
 30
0.0
 10
3.991516286988767
 20
25.83956477352825
 30
0.0
 10
4.964162245574529
 20
25.95782062810624
 30
0.0
 10
5.480987717177532
 20
26.01856071611986
 30
0.0
 10
6.000000000000036
 20
26.0795559956218
 30
0.0
  0
SPLINE
  5
5ADA
330
5AA5
100
AcDbEntity
  8
0
100
AcDbSpline
210
0.0
220
0.0
230
1.0
 70
     8
 71
     3
 72
    12
 73
     8
 74
     0
 42
0.000000001
 43
0.0000000001
 40
0.0
 40
0.0
 40
0.0
 40
0.0
 40
0.1237096560088968
 40
0.1237096560088968
 40
0.2024560230578827
 40
0.2024560230578827
 40
0.2812023894290549
 40
0.2812023894290549
 40
0.2812023894290549
 40
0.2812023894290549
 10
6.000000000000036
 20
26.0795559956218
 30
0.0
 10
5.598573900657264
 20
25.98520341814894
 30
0.0
 10
5.201200989405663
 20
25.89178801517623
 30
0.0
 10
4.596134185261298
 20
25.73737581554543
 30
0.0
 10
4.374467548150048
 20
25.67756011580933
 30
0.0
 10
3.96926698453631
 20
25.55744118223153
 30
0.0
 10
3.787388278674677
 20
25.49762537279065
 30
0.0
 10
3.630652843307263
 20
25.43756601400816
 30
0.0
  0
SPLINE
  5
5ADB
330
5AA5
100
AcDbEntity
  8
0
100
AcDbSpline
210
0.0
220
0.0
230
1.0
 70
     8
 71
     3
 72
    18
 73
    14
 74
     0
 42
0.000000001
 43
0.0000000001
 40
0.0
 40
0.0
 40
0.0
 40
0.0
 40
0.0471830120678907
 40
0.0471830120678907
 40
0.0950116998656097
 40
0.0950116998656097
 40
0.1538177585970938
 40
0.1538177585970938
 40
0.2246331071199031
 40
0.2246331071199031
 40
0.2730249789767294
 40
0.2730249789767294
 40
0.3384205720743678
 40
0.3384205720743678
 40
0.3384205720743678
 40
0.3384205720743678
 10
3.630652843307272
 20
25.43756601400814
 30
0.0
 10
3.536731547275682
 20
25.40164249598075
 30
0.0
 10
3.45003541327713
 20
25.39377760032034
 30
0.0
 10
3.297852090324311
 20
25.43696880089723
 30
0.0
 10
3.235787472619838
 20
25.48778787077535
 30
0.0
 10
3.126314302621043
 20
25.65498522090638
 30
0.0
 10
3.087142447592308
 20
25.78074618342848
 30
0.0
 10
3.028974942486289
 20
26.10474651534478
 30
0.0
 10
3.015569086953734
 20
26.31095889712898
 30
0.0
 10
3.003596697822917
 20
26.68017917310028
 30
0.0
 10
3.001800417163554
 20
26.83652217310256
 30
0.0
 10
2.999690047652668
 20
27.21197552500146
 30
0.0
 10
3.000000000000039
 20
27.43647689990541
 30
0.0
 10
3.000000000000039
 20
27.65338345828562
 30
0.0
  0
SPLINE
  5
5ADC
330
5AA5
100
AcDbEntity
  8
0
100
AcDbSpline
210
0.0
220
0.0
230
1.0
 70
     8
 71
     3
 72
    10
 73
     6
 74
     0
 42
0.000000001
 43
0.0000000001
 40
0.0
 40
0.0
 40
0.0
 40
0.0
 40
0.0492998671178942
 40
0.0492998671178942
 40
0.0831233211128236
 40
0.0831233211128236
 40
0.0831233211128236
 40
0.0831233211128236
 10
6.00000000000004
 20
1.849314533975126
 30
0.0
 10
5.850716453596231
 20
1.918014764236848
 30
0.0
 10
5.523282208447053
 20
2.058579826741246
 30
0.0
 10
4.741959542654851
 20
2.218335028915858
 30
0.0
 10
4.421711722080411
 20
2.250001105790793
 30
0.0
 10
4.109845709134298
 20
2.250000000000018
 30
0.0
  0
SPLINE
  5
5ADD
330
5AA5
100
AcDbEntity
  8
0
100
AcDbSpline
210
0.0
220
0.0
230
1.0
 70
     8
 71
     3
 72
    12
 73
     8
 74
     0
 42
0.000000001
 43
0.0000000001
 40
0.0
 40
0.0
 40
0.0
 40
0.0
 40
0.0463759660158758
 40
0.0463759660158758
 40
0.0752344047902999
 40
0.0752344047902999
 40
0.1065806592804733
 40
0.1065806592804733
 40
0.1065806592804733
 40
0.1065806592804733
 10
5.054922854567163
 20
2.250000000000018
 30
0.0
 10
5.201638345403405
 20
2.250002234304173
 30
0.0
 10
5.34919080038041
 20
2.221797932492486
 30
0.0
 10
5.581407130184632
 20
2.134644979149409
 30
0.0
 10
5.667250897000348
 20
2.091882110390312
 30
0.0
 10
5.837715668995109
 20
1.986135185847515
 30
0.0
 10
5.915377419495237
 20
1.927289983808546
 30
0.0
 10
6.000000000000036
 20
1.849314533975117
 30
0.0
  0
LINE
  5
5ADE
330
5AA5
100
AcDbEntity
  8
0
100
AcDbLine
 10
26.01654855249157
 20
17.00000000000002
 30
0.0
 11
26.01654855249155
 21
-15.99999999999998
 31
0.0
  0
ARC
  5
5ADF
330
5AA5
100
AcDbEntity
  8
0
100
AcDbCircle
 10
23.50118731297671
 20
-15.99999999999999
 30
0.0
 40
2.515361239514812
100
AcDbArc
 50
180.0
 51
0.0
  0
LINE
  5
5AE0
330
5AA5
100
AcDbEntity
  8
0
100
AcDbLine
 10
20.98582607346187
 20
17.00000000000002
 30
0.0
 11
20.98582607346189
 21
-15.99999999999998
 31
0.0
  0
ARC
  5
5AE1
330
5AA5
100
AcDbEntity
  8
0
100
AcDbCircle
 10
23.5011873129767
 20
17.00000000000004
 30
0.0
 40
2.515361239514817
100
AcDbArc
 50
0.0
 51
180.0
  0
CIRCLE
  5
5AE2
330
5AA5
100
AcDbEntity
  8
0
100
AcDbCircle
 10
85.50118731297667
 20
-36.00000000000002
 30
0.0
 40
8.515361239514831
  0
CIRCLE
  5
5AE3
330
5AA5
100
AcDbEntity
  8
0
100
AcDbCircle
 10
85.50118731297665
 20
-36.00000000000002
 30
0.0
 40
4.249999999999998
  0
CIRCLE
  5
5AE4
330
5AA5
100
AcDbEntity
  8
0
100
AcDbCircle
 10
85.50118731297667
 20
-12.00000000000002
 30
0.0
 40
8.515361239514831
  0
CIRCLE
  5
5AE5
330
5AA5
100
AcDbEntity
  8
0
100
AcDbCircle
 10
85.50118731297665
 20
-12.00000000000002
 30
0.0
 40
4.249999999999998
  0
CIRCLE
  5
5AE6
330
5AA5
100
AcDbEntity
  8
0
100
AcDbCircle
 10
85.50118731297667
 20
11.99999999999999
 30
0.0
 40
8.515361239514831
  0
CIRCLE
  5
5AE7
330
5AA5
100
AcDbEntity
  8
0
100
AcDbCircle
 10
85.50118731297665
 20
11.99999999999999
 30
0.0
 40
4.249999999999998
  0
ENDBLK
  5
5AA7
330
5AA5
100
AcDbEntity
  8
0
100
AcDbBlockEnd
  0
BLOCK
  5
5AE9
330
5AE8
100
AcDbEntity
  8
0
100
AcDbBlockBegin
  2
TU12-Right
 70
     0
 10
0.0
 20
0.0
 30
0.0
  3
TU12-Right
  1

  0
LINE
  5
5AEB
330
5AE8
100
AcDbEntity
  8
0
100
AcDbLine
 10
-3.000000000000016
 20
-2.249999999999976
 30
0.0
 11
-5.054922854567158
 21
-2.249999999999983
 31
0.0
  0
SPLINE
  5
5AEC
330
5AE8
100
AcDbEntity
  8
0
100
AcDbSpline
210
0.0
220
0.0
230
1.0
 70
     8
 71
     3
 72
    10
 73
     6
 74
     0
 42
0.000000001
 43
0.0000000001
 40
0.2472749108967333
 40
0.2472749108967333
 40
0.2472749108967333
 40
0.2472749108967333
 40
0.3944506176828581
 40
0.3944506176828581
 40
0.5512258570530216
 40
0.5512258570530216
 40
0.5512258570530216
 40
0.5512258570530216
 10
-3.110805845715899
 20
-25.72529628455056
 30
0.0
 10
-3.537623811655747
 20
-25.78252924768744
 30
0.0
 10
-3.991516286988754
 20
-25.83956477352818
 30
0.0
 10
-4.964162245574518
 20
-25.95782062810626
 30
0.0
 10
-5.480987717177505
 20
-26.0185607161199
 30
0.0
 10
-6.000000000000009
 20
-26.0795559956218
 30
0.0
  0
SPLINE
  5
5AED
330
5AE8
100
AcDbEntity
  8
0
100
AcDbSpline
210
0.0
220
0.0
230
1.0
 70
     8
 71
     3
 72
    12
 73
     8
 74
     0
 42
0.000000001
 43
0.0000000001
 40
0.0
 40
0.0
 40
0.0
 40
0.0
 40
0.1237096560088969
 40
0.1237096560088969
 40
0.2024560230578842
 40
0.2024560230578842
 40
0.2812023894290632
 40
0.2812023894290632
 40
0.2812023894290632
 40
0.2812023894290632
 10
-6.000000000000009
 20
-26.0795559956218
 30
0.0
 10
-5.598573900657228
 20
-25.98520341814896
 30
0.0
 10
-5.201200989405623
 20
-25.89178801517622
 30
0.0
 10
-4.596134185261248
 20
-25.73737581554542
 30
0.0
 10
-4.374467548149993
 20
-25.6775601158093
 30
0.0
 10
-3.969266984536278
 20
-25.55744118223153
 30
0.0
 10
-3.787388278674641
 20
-25.49762537279064
 30
0.0
 10
-3.630652843307226
 20
-25.43756601400814
 30
0.0
  0
SPLINE
  5
5AEE
330
5AE8
100
AcDbEntity
  8
0
100
AcDbSpline
210
0.0
220
0.0
230
1.0
 70
     8
 71
     3
 72
    18
 73
    14
 74
     0
 42
0.000000001
 43
0.0000000001
 40
0.0
 40
0.0
 40
0.0
 40
0.0
 40
0.0471830120679743
 40
0.0471830120679743
 40
0.0950116998656786
 40
0.0950116998656786
 40
0.1538177585972697
 40
0.1538177585972697
 40
0.2246331071201076
 40
0.2246331071201076
 40
0.2730249789768527
 40
0.2730249789768527
 40
0.3384205720744892
 40
0.3384205720744892
 40
0.3384205720744892
 40
0.3384205720744892
 10
-3.630652843307244
 20
-25.43756601400815
 30
0.0
 10
-3.536731547275499
 20
-25.40164249598064
 30
0.0
 10
-3.450035413277165
 20
-25.39377760032043
 30
0.0
 10
-3.29785209032495
 20
-25.43696880089696
 30
0.0
 10
-3.235787472620645
 20
-25.48778787077451
 30
0.0
 10
-3.126314302621504
 20
-25.65498522090507
 30
0.0
 10
-3.087142447592623
 20
-25.78074618342706
 30
0.0
 10
-3.02897494248643
 20
-26.10474651534316
 30
0.0
 10
-3.01556908695379
 20
-26.3109588971269
 30
0.0
 10
-3.003596697822898
 20
-26.68017917309937
 30
0.0
 10
-3.001800417163526
 20
-26.83652217310174
 30
0.0
 10
-2.999690047652631
 20
-27.21197552500091
 30
0.0
 10
-3.00000000000001
 20
-27.43647689990523
 30
0.0
 10
-3.00000000000001
 20
-27.65338345828562
 30
0.0
  0
SPLINE
  5
5AEF
330
5AE8
100
AcDbEntity
  8
0
100
AcDbSpline
210
0.0
220
0.0
230
1.0
 70
     8
 71
     3
 72
    10
 73
     6
 74
     0
 42
0.000000001
 43
0.0000000001
 40
0.0
 40
0.0
 40
0.0
 40
0.0
 40
0.0492998671218972
 40
0.0492998671218972
 40
0.0831233211191462
 40
0.0831233211191462
 40
0.0831233211191462
 40
0.0831233211191462
 10
-6.000000000000018
 20
-1.849314533975063
 30
0.0
 10
-5.85071645358405
 20
-1.918014764242284
 30
0.0
 10
-5.523282208447102
 20
-2.058579826741042
 30
0.0
 10
-4.741959542658832
 20
-2.218335028915086
 30
0.0
 10
-4.421711722091049
 20
-2.250001105790535
 30
0.0
 10
-4.109845709134285
 20
-2.249999999999983
 30
0.0
  0
SPLINE
  5
5AF0
330
5AE8
100
AcDbEntity
  8
0
100
AcDbSpline
210
0.0
220
0.0
230
1.0
 70
     8
 71
     3
 72
    12
 73
     8
 74
     0
 42
0.000000001
 43
0.0000000001
 40
0.0
 40
0.0
 40
0.0
 40
0.0
 40
0.0463759660156932
 40
0.0463759660156932
 40
0.0752344047891089
 40
0.0752344047891089
 40
0.1065806592783623
 40
0.1065806592783623
 40
0.1065806592783623
 40
0.1065806592783623
 10
-5.054922854567154
 20
-2.249999999999974
 30
0.0
 10
-5.201638345402819
 20
-2.25000223430412
 30
0.0
 10
-5.349190800375676
 20
-2.221797932494466
 30
0.0
 10
-5.581407130186857
 20
-2.134644979148352
 30
0.0
 10
-5.667250897001658
 20
-2.091882110389566
 30
0.0
 10
-5.837715668995473
 20
-1.986135185847124
 30
0.0
 10
-5.915377419498155
 20
-1.927289983805899
 30
0.0
 10
-6.000000000000027
 20
-1.849314533975063
 30
0.0
  0
ARC
  5
5AF1
330
5AE8
100
AcDbEntity
  8
0
100
AcDbCircle
 10
-4.71838548914722
 20
0.0000000000000222
 30
0.0
 40
2.249999999999996
100
AcDbArc
 50
124.7227868229488
 51
235.2772131770517
  0
LINE
  5
5AF2
330
5AE8
100
AcDbEntity
  8
0
100
AcDbLine
 10
-20.20875739646898
 20
28.58494328696023
 30
0.0
 11
-6.000000000000036
 21
26.0795559956218
 31
0.0
  0
LINE
  5
5AF3
330
5AE8
100
AcDbEntity
  8
0
100
AcDbLine
 10
-73.55118731297672
 20
48.00000000000003
 30
0.0
 11
-20.20875739646899
 21
28.58494328696023
 31
0.0
  0
LINE
  5
5AF4
330
5AE8
100
AcDbEntity
  8
0
100
AcDbLine
 10
-78.10883818243205
 20
47.99999999999998
 30
0.0
 11
-73.55118731297672
 21
48.00000000000003
 31
0.0
  0
ARC
  5
5AF5
330
5AE8
100
AcDbEntity
  8
0
100
AcDbCircle
 10
-78.10883818243205
 20
46.0
 30
0.0
 40
2.000000000000011
100
AcDbArc
 50
90.0
 51
164.9999999999998
  0
LINE
  5
5AF6
330
5AE8
100
AcDbEntity
  8
0
100
AcDbLine
 10
-81.25118731297673
 20
41.99999999999999
 30
0.0
 11
-80.04068983501019
 21
46.51763809020504
 31
0.0
  0
LINE
  5
5AF7
330
5AE8
100
AcDbEntity
  8
0
100
AcDbLine
 10
-81.2511873129767
 20
35.99999999999999
 30
0.0
 11
-81.25118731297673
 21
41.99999999999999
 31
0.0
  0
ARC
  5
5AF8
330
5AE8
100
AcDbEntity
  8
0
100
AcDbCircle
 10
-85.50118731297672
 20
35.99999999999999
 30
0.0
 40
4.249999999999998
100
AcDbArc
 50
270.0
 51
0.0
  0
LINE
  5
5AF9
330
5AE8
100
AcDbEntity
  8
0
100
AcDbLine
 10
-87.0023567541448
 20
31.74999999999999
 30
0.0
 11
-85.5011873129767
 21
31.74999999999999
 31
0.0
  0
ARC
  5
5AFA
330
5AE8
100
AcDbEntity
  8
0
100
AcDbCircle
 10
-87.00235675414482
 20
35.99999999999999
 30
0.0
 40
4.250000000000001
100
AcDbArc
 50
139.8563728796732
 51
270.0
  0
LINE
  5
5AFB
330
5AE8
100
AcDbEntity
  8
0
100
AcDbLine
 10
-90.25118731297672
 20
41.99999999999997
 30
0.0
 11
-90.25118731297672
 21
38.73999999999997
 31
0.0
  0
LINE
  5
5AFC
330
5AE8
100
AcDbEntity
  8
0
100
AcDbLine
 10
-91.9832381205456
 20
44.99999999999999
 30
0.0
 11
-90.25118731297672
 21
41.99999999999997
 31
0.0
  0
ARC
  5
5AFD
330
5AE8
100
AcDbEntity
  8
0
100
AcDbCircle
 10
-93.71528892811449
 20
43.99999999999998
 30
0.0
 40
1.999999999999992
100
AcDbArc
 50
30.00000000000005
 51
90.0
  0
LINE
  5
5AFE
330
5AE8
100
AcDbEntity
  8
0
100
AcDbLine
 10
-98.50118731297673
 20
45.99999999999996
 30
0.0
 11
-93.71528892811449
 21
45.99999999999997
 31
0.0
  0
ARC
  5
5AFF
330
5AE8
100
AcDbEntity
  8
0
100
AcDbCircle
 10
-98.50118731297673
 20
43.99999999999998
 30
0.0
 40
1.999999999999992
100
AcDbArc
 50
90.0
 51
180.0
  0
LINE
  5
5B00
330
5AE8
100
AcDbEntity
  8
0
100
AcDbLine
 10
-100.5011873129767
 20
-46.00000000000001
 30
0.0
 11
-100.5011873129767
 21
43.99999999999998
 31
0.0
  0
ARC
  5
5B01
330
5AE8
100
AcDbEntity
  8
0
100
AcDbCircle
 10
-98.50118731297671
 20
-46.00000000000001
 30
0.0
 40
1.999999999999992
100
AcDbArc
 50
180.0
 51
270.0
  0
LINE
  5
5B02
330
5AE8
100
AcDbEntity
  8
0
100
AcDbLine
 10
-73.55118731297668
 20
-48.0
 30
0.0
 11
-98.50118731297669
 21
-48.0
 31
0.0
  0
LINE
  5
5B03
330
5AE8
100
AcDbEntity
  8
0
100
AcDbLine
 10
-20.20875739646918
 20
-28.58494328696028
 30
0.0
 11
-73.55118731297668
 21
-48.0
 31
0.0
  0
LINE
  5
5B04
330
5AE8
100
AcDbEntity
  8
0
100
AcDbLine
 10
-6.000000000000009
 20
-26.0795559956218
 30
0.0
 11
-20.20875739646918
 21
-28.58494328696028
 31
0.0
  0
LINE
  5
5B05
330
5AE8
100
AcDbEntity
  8
0
100
AcDbLine
 10
0.0
 20
27.65338345828562
 30
0.0
 11
0.0
 21
29.86920090256309
 31
0.0
  0
LINE
  5
5B06
330
5AE8
100
AcDbEntity
  8
0
100
AcDbLine
 10
-3.000000000000034
 20
29.86920090256309
 30
0.0
 11
-3.000000000000035
 21
27.65338345828562
 31
0.0
  0
LINE
  5
5B07
330
5AE8
100
AcDbEntity
  8
0
100
AcDbLine
 10
-3.00000000000003
 20
32.97973375224958
 30
0.0
 11
-3.000000000000034
 21
29.86920090256309
 31
0.0
  0
LINE
  5
5B08
330
5AE8
100
AcDbEntity
  8
0
100
AcDbLine
 10
0.0
 20
29.86920090256309
 30
0.0
 11
0.0
 21
32.97973375224958
 31
0.0
  0
LINE
  5
5B09
330
5AE8
100
AcDbEntity
  8
0
100
AcDbLine
 10
0.0
 20
32.97973375224958
 30
0.0
 11
-3.00000000000003
 21
32.97973375224958
 31
0.0
  0
LINE
  5
5B0A
330
5AE8
100
AcDbEntity
  8
0
100
AcDbLine
 10
-3.000000000000025
 20
34.32061475842819
 30
0.0
 11
-3.00000000000003
 21
32.97973375224958
 31
0.0
  0
LINE
  5
5B0B
330
5AE8
100
AcDbEntity
  8
0
100
AcDbLine
 10
0.0
 20
32.97973375224958
 30
0.0
 11
0.0
 21
34.32061475842819
 31
0.0
  0
LINE
  5
5B0C
330
5AE8
100
AcDbEntity
  8
0
100
AcDbLine
 10
-3.000000000000028
 20
34.32061475842818
 30
0.0
 11
-3.000000000000028
 21
36.20000000000002
 31
0.0
  0
LINE
  5
5B0D
330
5AE8
100
AcDbEntity
  8
0
100
AcDbLine
 10
0.0
 20
36.20000000000002
 30
0.0
 11
0.0
 21
34.32061475842818
 31
0.0
  0
LINE
  5
5B0E
330
5AE8
100
AcDbEntity
  8
0
100
AcDbLine
 10
-3.000000000000033
 20
46.00000000000001
 30
0.0
 11
-3.000000000000029
 21
36.20000000000002
 31
0.0
  0
LINE
  5
5B0F
330
5AE8
100
AcDbEntity
  8
0
100
AcDbLine
 10
0.0
 20
36.20000000000002
 30
0.0
 11
0.0
 21
46.00000000000001
 31
0.0
  0
LINE
  5
5B10
330
5AE8
100
AcDbEntity
  8
0
100
AcDbLine
 10
-3.000000000000033
 20
46.00000000000001
 30
0.0
 11
-3.000000000000034
 21
48.0
 31
0.0
  0
LINE
  5
5B11
330
5AE8
100
AcDbEntity
  8
0
100
AcDbLine
 10
0.0
 20
48.0
 30
0.0
 11
0.0
 21
46.00000000000001
 31
0.0
  0
LINE
  5
5B12
330
5AE8
100
AcDbEntity
  8
0
100
AcDbLine
 10
0.0
 20
48.0
 30
0.0
 11
-3.000000000000029
 21
48.0
 31
0.0
  0
LINE
  5
5B13
330
5AE8
100
AcDbEntity
  8
0
100
AcDbLine
 10
-3.000000000000007
 20
-2.250000000000009
 30
0.0
 11
0.0
 21
-2.250000000000009
 31
0.0
  0
LINE
  5
5B14
330
5AE8
100
AcDbEntity
  8
0
100
AcDbLine
 10
0.0
 20
-2.249999999999996
 30
0.0
 11
0.0
 21
-4.250000000000001
 31
0.0
  0
LINE
  5
5B15
330
5AE8
100
AcDbEntity
  8
0
100
AcDbLine
 10
-3.000000000000011
 20
-4.250000000000002
 30
0.0
 11
-3.000000000000012
 21
-2.249999999999996
 31
0.0
  0
LINE
  5
5B16
330
5AE8
100
AcDbEntity
  8
0
100
AcDbLine
 10
0.0
 20
-46.00000000000001
 30
0.0
 11
0.0
 21
-4.250000000000007
 31
0.0
  0
LINE
  5
5B17
330
5AE8
100
AcDbEntity
  8
0
100
AcDbLine
 10
-3.000000000000011
 20
-4.250000000000002
 30
0.0
 11
-2.999999999999998
 21
-46.00000000000001
 31
0.0
  0
LINE
  5
5B18
330
5AE8
100
AcDbEntity
  8
0
100
AcDbLine
 10
0.0
 20
-46.00000000000001
 30
0.0
 11
0.0
 21
-47.99999999999998
 31
0.0
  0
LINE
  5
5B19
330
5AE8
100
AcDbEntity
  8
0
100
AcDbLine
 10
-2.999999999999998
 20
-47.99999999999998
 30
0.0
 11
-2.999999999999998
 21
-46.00000000000001
 31
0.0
  0
LINE
  5
5B1A
330
5AE8
100
AcDbEntity
  8
0
100
AcDbLine
 10
-2.999999999999998
 20
-47.99999999999998
 30
0.0
 11
0.0
 21
-47.99999999999998
 31
0.0
  0
LINE
  5
5B1B
330
5AE8
100
AcDbEntity
  8
0
100
AcDbLine
 10
0.0
 20
2.250000000000088
 30
0.0
 11
-4.109845709134285
 21
2.250000000000034
 31
0.0
  0
SPLINE
  5
5B1C
330
5AE8
100
AcDbEntity
  8
0
100
AcDbSpline
210
0.0
220
0.0
230
1.0
 70
     8
 71
     3
 72
    12
 73
     8
 74
     0
 42
0.000000001
 43
0.0000000001
 40
0.0
 40
0.0
 40
0.0
 40
0.0
 40
0.23767537848863
 40
0.23767537848863
 40
0.3944506176828553
 40
0.3944506176828553
 40
0.5512258570530229
 40
0.5512258570530229
 40
0.5512258570530229
 40
0.5512258570530229
 10
-1.261305686614502
 20
25.43756601400816
 30
0.0
 10
-1.743940921284568
 20
25.53003645902118
 30
0.0
 10
-2.344136774954841
 20
25.62162406644032
 30
0.0
 10
-3.478486183160076
 20
25.77508992290733
 30
0.0
 10
-3.960797690718127
 20
25.83582995735866
 30
0.0
 10
-4.964162245574529
 20
25.95782062810624
 30
0.0
 10
-5.480987717177532
 20
26.01856071611986
 30
0.0
 10
-6.000000000000036
 20
26.0795559956218
 30
0.0
  0
SPLINE
  5
5B1D
330
5AE8
100
AcDbEntity
  8
0
100
AcDbSpline
210
0.0
220
0.0
230
1.0
 70
     8
 71
     3
 72
    20
 73
    16
 74
     0
 42
0.000000001
 43
0.0000000001
 40
0.0
 40
0.0
 40
0.0
 40
0.0
 40
0.0405673887695948
 40
0.0405673887695948
 40
0.0759466568711129
 40
0.0759466568711129
 40
0.1133684429731229
 40
0.1133684429731229
 40
0.1697492446639237
 40
0.1697492446639237
 40
0.2688410643610644
 40
0.2688410643610644
 40
0.382110548974237
 40
0.382110548974237
 40
0.4914954746732328
 40
0.4914954746732328
 40
0.4914954746732328
 40
0.4914954746732328
 10
-0.0000000000000409
 20
27.65338345828562
 30
0.0
 10
-0.0000000000000409
 20
27.51815885611571
 30
0.0
 10
0.000082871899373
 20
27.38263154286102
 30
0.0
 10
-0.0005420532628007
 20
27.13310733037038
 30
0.0
 10
-0.0011853224837442
 20
27.02113606190528
 30
0.0
 10
-0.0047555616611881
 20
26.80174369086121
 30
0.0
 10
-0.007821773685027
 20
26.69543293498654
 30
0.0
 10
-0.0209898838775233
 20
26.44564912507187
 30
0.0
 10
-0.0339121915682669
 20
26.31167410217737
 30
0.0
 10
-0.0899418246091307
 20
25.98528403020515
 30
0.0
 10
-0.1490385258699696
 20
25.82406813491872
 30
0.0
 10
-0.3390743851973982
 20
25.56304924468228
 30
0.0
 10
-0.4785308661724669
 20
25.47541110193614
 30
0.0
 10
-0.8258822139257839
 20
25.39197201259882
 30
0.0
 10
-1.028954847624583
 20
25.3932019877694
 30
0.0
 10
-1.261305686614502
 20
25.43756601400814
 30
0.0
  0
SPLINE
  5
5B1E
330
5AE8
100
AcDbEntity
  8
0
100
AcDbSpline
210
0.0
220
0.0
230
1.0
 70
     8
 71
     3
 72
    14
 73
    10
 74
     0
 42
0.000000001
 43
0.0000000001
 40
0.1245071019693483
 40
0.1245071019693483
 40
0.1245071019693483
 40
0.1245071019693483
 40
0.1538177585970938
 40
0.1538177585970938
 40
0.2246331071199031
 40
0.2246331071199031
 40
0.2730249789767294
 40
0.2730249789767294
 40
0.3384205720743678
 40
0.3384205720743678
 40
0.3384205720743678
 40
0.3384205720743678
 10
-3.110781765703784
 20
25.72529231902165
 30
0.0
 10
-3.090235166212105
 20
25.78648218921679
 30
0.0
 10
-3.073906408971716
 20
25.85447258614272
 30
0.0
 10
-3.028974942486289
 20
26.10474651534478
 30
0.0
 10
-3.015569086953734
 20
26.31095889712898
 30
0.0
 10
-3.003596697822917
 20
26.68017917310028
 30
0.0
 10
-3.001800417163554
 20
26.83652217310256
 30
0.0
 10
-2.999690047652668
 20
27.21197552500146
 30
0.0
 10
-3.000000000000039
 20
27.43647689990541
 30
0.0
 10
-3.000000000000039
 20
27.65338345828562
 30
0.0
  0
SPLINE
  5
5B1F
330
5AE8
100
AcDbEntity
  8
0
100
AcDbSpline
210
0.0
220
0.0
230
1.0
 70
     8
 71
     3
 72
    10
 73
     6
 74
     0
 42
0.000000001
 43
0.0000000001
 40
0.0
 40
0.0
 40
0.0
 40
0.0
 40
0.0492998671178942
 40
0.0492998671178942
 40
0.0831233211128236
 40
0.0831233211128236
 40
0.0831233211128236
 40
0.0831233211128236
 10
-6.00000000000004
 20
1.849314533975126
 30
0.0
 10
-5.850716453596231
 20
1.918014764236848
 30
0.0
 10
-5.523282208447053
 20
2.058579826741246
 30
0.0
 10
-4.741959542654851
 20
2.218335028915858
 30
0.0
 10
-4.421711722080411
 20
2.250001105790793
 30
0.0
 10
-4.109845709134298
 20
2.250000000000018
 30
0.0
  0
LINE
  5
5B20
330
5AE8
100
AcDbEntity
  8
0
100
AcDbLine
 10
0.0
 20
27.65338345828562
 30
0.0
 11
0.0
 21
2.250000000000009
 31
0.0
  0
LINE
  5
5B21
330
5AE8
100
AcDbEntity
  8
0
100
AcDbLine
 10
-26.01654855249157
 20
17.00000000000002
 30
0.0
 11
-26.01654855249155
 21
-15.99999999999998
 31
0.0
  0
ARC
  5
5B22
330
5AE8
100
AcDbEntity
  8
0
100
AcDbCircle
 10
-23.50118731297671
 20
-15.99999999999999
 30
0.0
 40
2.515361239514812
100
AcDbArc
 50
180.0
 51
0.0
  0
LINE
  5
5B23
330
5AE8
100
AcDbEntity
  8
0
100
AcDbLine
 10
-20.98582607346187
 20
17.00000000000002
 30
0.0
 11
-20.98582607346189
 21
-15.99999999999998
 31
0.0
  0
ARC
  5
5B24
330
5AE8
100
AcDbEntity
  8
0
100
AcDbCircle
 10
-23.50118731297675
 20
17.00000000000004
 30
0.0
 40
2.515361239514817
100
AcDbArc
 50
0.0
 51
180.0
  0
CIRCLE
  5
5B25
330
5AE8
100
AcDbEntity
  8
0
100
AcDbCircle
 10
-85.50118731297665
 20
-36.00000000000002
 30
0.0
 40
4.249999999999998
  0
CIRCLE
  5
5B26
330
5AE8
100
AcDbEntity
  8
0
100
AcDbCircle
 10
-85.50118731297667
 20
-36.00000000000002
 30
0.0
 40
8.515361239514831
  0
CIRCLE
  5
5B27
330
5AE8
100
AcDbEntity
  8
0
100
AcDbCircle
 10
-85.50118731297665
 20
-12.00000000000002
 30
0.0
 40
4.249999999999998
  0
CIRCLE
  5
5B28
330
5AE8
100
AcDbEntity
  8
0
100
AcDbCircle
 10
-85.50118731297667
 20
-12.00000000000002
 30
0.0
 40
8.515361239514831
  0
CIRCLE
  5
5B29
330
5AE8
100
AcDbEntity
  8
0
100
AcDbCircle
 10
-85.50118731297665
 20
11.99999999999999
 30
0.0
 40
4.249999999999998
  0
CIRCLE
  5
5B2A
330
5AE8
100
AcDbEntity
  8
0
100
AcDbCircle
 10
-85.50118731297667
 20
11.99999999999999
 30
0.0
 40
8.515361239514831
  0
ENDBLK
  5
5AEA
330
5AE8
100
AcDbEntity
  8
0
100
AcDbBlockEnd
  0
BLOCK
  5
5B2C
330
5B2B
100
AcDbEntity
  8
0
100
AcDbBlockBegin
  2
TU12-Top
 70
     0
 10
0.0
 20
0.0
 30
0.0
  3
TU12-Top
  1

  0
ARC
  5
5B2E
330
5B2B
100
AcDbEntity
  8
0
100
AcDbCircle
 10
4.49999951085278
 20
-6.000000000000017
 30
0.0
 40
3.0
100
AcDbArc
 50
89.99999999999998
 51
161.6376337998028
  0
SPLINE
  5
5B2F
330
5B2B
100
AcDbEntity
  8
0
100
AcDbSpline
210
0.0
220
0.0
230
1.0
 70
     8
 71
     3
 72
    12
 73
     8
 74
     0
 42
0.000000001
 43
0.0000000001
 40
0.0
 40
0.0
 40
0.0
 40
0.0
 40
0.0463759660156932
 40
0.0463759660156932
 40
0.0752344047891089
 40
0.0752344047891089
 40
0.1065806592783623
 40
0.1065806592783623
 40
0.1065806592783623
 40
0.1065806592783623
 10
1.652750103234875
 20
-5.054922854567154
 30
0.0
 10
1.604051363707962
 20
-5.201638345402819
 30
0.0
 10
1.567843091316011
 20
-5.349190800375676
 30
0.0
 10
1.527971916887621
 20
-5.581407130186857
 30
0.0
 10
1.517382924970597
 20
-5.667250897001658
 30
0.0
 10
1.503068298801632
 20
-5.837715668995473
 30
0.0
 10
1.499999510852777
 20
-5.915377419498155
 30
0.0
 10
1.499999510852777
 20
-6.000000000000027
 30
0.0
  0
LINE
  5
5B30
330
5B2B
100
AcDbEntity
  8
0
100
AcDbLine
 10
1.499999510852771
 20
-20.20875739646898
 30
0.0
 11
1.499999510852768
 21
-6.000000000000036
 31
0.0
  0
LINE
  5
5B31
330
5B2B
100
AcDbEntity
  8
0
100
AcDbLine
 10
1.499999510852779
 20
-73.55118731297672
 30
0.0
 11
1.499999510852771
 21
-20.20875739646899
 31
0.0
  0
LINE
  5
5B32
330
5B2B
100
AcDbEntity
  8
0
100
AcDbLine
 10
1.49999951085278
 20
-78.10883818243205
 30
0.0
 11
1.499999510852779
 21
-73.55118731297672
 31
0.0
  0
LINE
  5
5B33
330
5B2B
100
AcDbEntity
  8
0
100
AcDbLine
 10
1.499999510852779
 20
-78.10883818243205
 30
0.0
 11
1.49999951085278
 21
-80.04068983501019
 31
0.0
  0
LINE
  5
5B34
330
5B2B
100
AcDbEntity
  8
0
100
AcDbLine
 10
1.499999510852781
 20
-81.25118731297673
 30
0.0
 11
1.49999951085278
 21
-80.04068983501019
 31
0.0
  0
LINE
  5
5B35
330
5B2B
100
AcDbEntity
  8
0
100
AcDbLine
 10
1.499999510852787
 20
-85.50118731297672
 30
0.0
 11
1.499999510852785
 21
-81.25118731297673
 31
0.0
  0
LINE
  5
5B36
330
5B2B
100
AcDbEntity
  8
0
100
AcDbLine
 10
1.499999510852787
 20
-87.0023567541448
 30
0.0
 11
1.499999510852786
 21
-85.5011873129767
 31
0.0
  0
LINE
  5
5B37
330
5B2B
100
AcDbEntity
  8
0
100
AcDbLine
 10
1.499999510852788
 20
-90.25118731297672
 30
0.0
 11
1.499999510852787
 21
-87.00235675414482
 31
0.0
  0
LINE
  5
5B38
330
5B2B
100
AcDbEntity
  8
0
100
AcDbLine
 10
1.499999510852783
 20
-91.9832381205456
 30
0.0
 11
1.499999510852783
 21
-90.25118731297672
 31
0.0
  0
LINE
  5
5B39
330
5B2B
100
AcDbEntity
  8
0
100
AcDbLine
 10
1.499999510852783
 20
-91.98323812054562
 30
0.0
 11
1.499999510852783
 21
-93.71528892811449
 31
0.0
  0
LINE
  5
5B3A
330
5B2B
100
AcDbEntity
  8
0
100
AcDbLine
 10
1.499999510852785
 20
-98.50118731297673
 30
0.0
 11
1.499999510852783
 21
-93.71528892811449
 31
0.0
  0
LINE
  5
5B3B
330
5B2B
100
AcDbEntity
  8
0
100
AcDbLine
 10
1.499999510852784
 20
-98.50118731297673
 30
0.0
 11
1.499999510852785
 21
-100.5011873129767
 31
0.0
  0
LINE
  5
5B3C
330
5B2B
100
AcDbEntity
  8
0
100
AcDbLine
 10
-1.500000489147229
 20
-6.000000000000036
 30
0.0
 11
-1.500000489147226
 21
-20.20875739646898
 31
0.0
  0
LINE
  5
5B3D
330
5B2B
100
AcDbEntity
  8
0
100
AcDbLine
 10
1.499999510852771
 20
-20.20875739646898
 30
0.0
 11
-1.500000489147226
 21
-20.20875739646898
 31
0.0
  0
LINE
  5
5B3E
330
5B2B
100
AcDbEntity
  8
0
100
AcDbLine
 10
-1.500000489147212
 20
-100.5011873129767
 30
0.0
 11
-1.500000489147213
 21
-98.50118731297673
 31
0.0
  0
LINE
  5
5B3F
330
5B2B
100
AcDbEntity
  8
0
100
AcDbLine
 10
-1.500000489147214
 20
-93.71528892811449
 30
0.0
 11
-1.500000489147213
 21
-98.50118731297673
 31
0.0
  0
LINE
  5
5B40
330
5B2B
100
AcDbEntity
  8
0
100
AcDbLine
 10
-1.500000489147214
 20
-93.71528892811449
 30
0.0
 11
-1.500000489147214
 21
-91.98323812054562
 31
0.0
  0
LINE
  5
5B41
330
5B2B
100
AcDbEntity
  8
0
100
AcDbLine
 10
-1.500000489147215
 20
-90.25118731297672
 30
0.0
 11
-1.500000489147214
 21
-91.9832381205456
 31
0.0
  0
LINE
  5
5B42
330
5B2B
100
AcDbEntity
  8
0
100
AcDbLine
 10
-1.500000489147214
 20
-87.00235675414482
 30
0.0
 11
-1.500000489147214
 21
-90.25118731297672
 31
0.0
  0
LINE
  5
5B43
330
5B2B
100
AcDbEntity
  8
0
100
AcDbLine
 10
-1.500000489147216
 20
-85.5011873129767
 30
0.0
 11
-1.500000489147215
 21
-87.0023567541448
 31
0.0
  0
LINE
  5
5B44
330
5B2B
100
AcDbEntity
  8
0
100
AcDbLine
 10
-1.500000489147217
 20
-81.25118731297673
 30
0.0
 11
-1.500000489147215
 21
-85.50118731297672
 31
0.0
  0
LINE
  5
5B45
330
5B2B
100
AcDbEntity
  8
0
100
AcDbLine
 10
-1.500000489147217
 20
-80.04068983501019
 30
0.0
 11
-1.500000489147217
 21
-81.25118731297673
 31
0.0
  0
LINE
  5
5B46
330
5B2B
100
AcDbEntity
  8
0
100
AcDbLine
 10
-1.500000489147217
 20
-80.04068983501019
 30
0.0
 11
-1.500000489147218
 21
-78.10883818243205
 31
0.0
  0
LINE
  5
5B47
330
5B2B
100
AcDbEntity
  8
0
100
AcDbLine
 10
-1.500000489147218
 20
-73.55118731297672
 30
0.0
 11
-1.500000489147217
 21
-78.10883818243205
 31
0.0
  0
LINE
  5
5B48
330
5B2B
100
AcDbEntity
  8
0
100
AcDbLine
 10
-1.500000489147226
 20
-20.20875739646898
 30
0.0
 11
-1.500000489147218
 21
-73.55118731297672
 31
0.0
  0
LINE
  5
5B49
330
5B2B
100
AcDbEntity
  8
0
100
AcDbLine
 10
1.499999510852779
 20
-73.55118731297672
 30
0.0
 11
-1.500000489147218
 21
-73.55118731297672
 31
0.0
  0
LINE
  5
5B4A
330
5B2B
100
AcDbEntity
  8
0
100
AcDbLine
 10
1.499999510852781
 20
-81.25118731297673
 30
0.0
 11
-1.500000489147217
 21
-81.25118731297673
 31
0.0
  0
LINE
  5
5B4B
330
5B2B
100
AcDbEntity
  8
0
100
AcDbLine
 10
1.499999510852783
 20
-90.25118731297672
 30
0.0
 11
-1.500000489147215
 21
-90.25118731297672
 31
0.0
  0
LINE
  5
5B4C
330
5B2B
100
AcDbEntity
  8
0
100
AcDbLine
 10
1.499999510852785
 20
-100.5011873129767
 30
0.0
 11
-1.500000489147212
 21
-100.5011873129767
 31
0.0
  0
LINE
  5
5B4D
330
5B2B
100
AcDbEntity
  8
0
100
AcDbLine
 10
19.99999951085274
 20
0.0
 30
0.0
 11
19.99999951085274
 21
-3.000000000000033
 31
0.0
  0
LINE
  5
5B4E
330
5B2B
100
AcDbEntity
  8
0
100
AcDbLine
 10
19.99999951085272
 20
-3.000000000000033
 30
0.0
 11
17.99999951085274
 21
-3.000000000000034
 31
0.0
  0
LINE
  5
5B4F
330
5B2B
100
AcDbEntity
  8
0
100
AcDbLine
 10
17.99999951085274
 20
0.0
 30
0.0
 11
19.99999951085272
 21
0.0
 31
0.0
  0
LINE
  5
5B50
330
5B2B
100
AcDbEntity
  8
0
100
AcDbLine
 10
1.463197276550334
 20
-3.000000000000037
 30
0.0
 11
17.99999951085274
 21
-3.000000000000029
 31
0.0
  0
LINE
  5
5B51
330
5B2B
100
AcDbEntity
  8
0
100
AcDbLine
 10
17.99999951085274
 20
0.0
 30
0.0
 11
1.463197276550334
 21
0.0
 31
0.0
  0
LINE
  5
5B52
330
5B2B
100
AcDbEntity
  8
0
100
AcDbLine
 10
1.463197276550334
 20
0.0
 30
0.0
 11
1.463197276550334
 21
-3.000000000000037
 31
0.0
  0
LINE
  5
5B53
330
5B2B
100
AcDbEntity
  8
0
100
AcDbLine
 10
-0.0000004891472532
 20
-3.000000000000038
 30
0.0
 11
1.463197276550334
 21
-3.000000000000037
 31
0.0
  0
LINE
  5
5B54
330
5B2B
100
AcDbEntity
  8
0
100
AcDbLine
 10
1.463197276550334
 20
0.0
 30
0.0
 11
-0.0000004891472538
 21
0.0
 31
0.0
  0
LINE
  5
5B55
330
5B2B
100
AcDbEntity
  8
0
100
AcDbLine
 10
-0.0000004891472539
 20
0.0
 30
0.0
 11
-0.0000004891472532
 21
-3.000000000000038
 31
0.0
  0
LINE
  5
5B56
330
5B2B
100
AcDbEntity
  8
0
100
AcDbLine
 10
-1.528576837630543
 20
-3.000000000000038
 30
0.0
 11
-0.0000004891472533
 21
-3.000000000000038
 31
0.0
  0
LINE
  5
5B57
330
5B2B
100
AcDbEntity
  8
0
100
AcDbLine
 10
-0.0000004891472539
 20
0.0
 30
0.0
 11
-1.528576837630539
 21
0.0
 31
0.0
  0
LINE
  5
5B58
330
5B2B
100
AcDbEntity
  8
0
100
AcDbLine
 10
-1.528576837630539
 20
0.0
 30
0.0
 11
-1.528576837630543
 21
-3.000000000000038
 31
0.0
  0
LINE
  5
5B59
330
5B2B
100
AcDbEntity
  8
0
100
AcDbLine
 10
-18.00000048914726
 20
-3.000000000000051
 30
0.0
 11
-1.528576837630544
 21
-3.000000000000038
 31
0.0
  0
LINE
  5
5B5A
330
5B2B
100
AcDbEntity
  8
0
100
AcDbLine
 10
-1.528576837630539
 20
0.0
 30
0.0
 11
-18.00000048914726
 21
0.0
 31
0.0
  0
LINE
  5
5B5B
330
5B2B
100
AcDbEntity
  8
0
100
AcDbLine
 10
-18.00000048914726
 20
-3.000000000000051
 30
0.0
 11
-20.00000048914726
 21
-3.000000000000051
 31
0.0
  0
LINE
  5
5B5C
330
5B2B
100
AcDbEntity
  8
0
100
AcDbLine
 10
-20.00000048914726
 20
0.0
 30
0.0
 11
-18.00000048914726
 21
0.0
 31
0.0
  0
LINE
  5
5B5D
330
5B2B
100
AcDbEntity
  8
0
100
AcDbLine
 10
-20.00000048914726
 20
0.0
 30
0.0
 11
-20.00000048914726
 21
-3.000000000000051
 31
0.0
  0
SPLINE
  5
5B5E
330
5B2B
100
AcDbEntity
  8
0
100
AcDbSpline
210
0.0
220
0.0
230
1.0
 70
     8
 71
     3
 72
    12
 73
     8
 74
     0
 42
0.000000001
 43
0.0000000001
 40
0.2344667051729351
 40
0.2344667051729351
 40
0.2344667051729351
 40
0.2344667051729351
 40
0.23767537848863
 40
0.23767537848863
 40
0.3944506176828553
 40
0.3944506176828553
 40
0.5512258570530229
 40
0.5512258570530229
 40
0.5512258570530229
 40
0.5512258570530229
 10
0.6961519336224191
 20
-3.00000000091849
 30
0.0
 10
0.7014618003092066
 20
-3.009196959006081
 30
0.0
 10
0.7067479245201871
 20
-3.018409184056738
 30
0.0
 10
0.9691257495011814
 20
-3.478486183160076
 30
0.0
 10
1.166658816316664
 20
-3.960797690718127
 30
0.0
 10
1.432656073430157
 20
-4.964162245574529
 30
0.0
 10
1.499999510852768
 20
-5.480987717177532
 30
0.0
 10
1.499999510852768
 20
-6.000000000000036
 30
0.0
  0
SPLINE
  5
5B5F
330
5B2B
100
AcDbEntity
  8
0
100
AcDbSpline
210
0.0
220
0.0
230
1.0
 70
     8
 71
     3
 72
    12
 73
     8
 74
     0
 42
0.000000001
 43
0.0000000001
 40
0.0
 40
0.0
 40
0.0
 40
0.0
 40
0.1237096560088968
 40
0.1237096560088968
 40
0.2024560230578827
 40
0.2024560230578827
 40
0.2812023894290549
 40
0.2812023894290549
 40
0.2812023894290549
 40
0.2812023894290549
 10
-1.500000489147229
 20
-6.000000000000036
 30
0.0
 10
-1.500000489147229
 20
-5.598573900657264
 30
0.0
 10
-1.580571945185217
 20
-5.201200989405663
 30
0.0
 10
-1.836458950587843
 20
-4.596134185261298
 30
0.0
 10
-1.965649092678713
 20
-4.374467548150048
 30
0.0
 10
-2.277070852028472
 20
-3.96926698453631
 30
0.0
 10
-2.458030328976731
 20
-3.787388278674677
 30
0.0
 10
-2.659839069306062
 20
-3.630652843307263
 30
0.0
  0
LINE
  5
5B60
330
5B2B
100
AcDbEntity
  8
0
100
AcDbLine
 10
-0.5010039778554908
 20
-6.000000000000036
 30
0.0
 11
-1.500000489147229
 21
-6.000000000000036
 31
0.0
  0
LINE
  5
5B61
330
5B2B
100
AcDbEntity
  8
0
100
AcDbLine
 10
1.499999510852768
 20
-6.000000000000036
 30
0.0
 11
-0.5010039778554907
 21
-6.000000000000036
 31
0.0
  0
SPLINE
  5
5B62
330
5B2B
100
AcDbEntity
  8
0
100
AcDbSpline
210
0.0
220
0.0
230
1.0
 70
     8
 71
     3
 72
    18
 73
    14
 74
     0
 42
0.000000001
 43
0.0000000001
 40
0.0
 40
0.0
 40
0.0
 40
0.0
 40
0.0471830120678907
 40
0.0471830120678907
 40
0.0950116998656097
 40
0.0950116998656097
 40
0.1538177585970938
 40
0.1538177585970938
 40
0.2246331071199031
 40
0.2246331071199031
 40
0.2730249789767294
 40
0.2730249789767294
 40
0.3383925796189601
 40
0.3383925796189601
 40
0.3383925796189601
 40
0.3383925796189601
 10
-2.659839069306053
 20
-3.630652843307272
 30
0.0
 10
-2.780769849239776
 20
-3.536731547275682
 30
0.0
 10
-2.911893917738434
 20
-3.45003541327713
 30
0.0
 10
-3.18719015467937
 20
-3.297852090324311
 30
0.0
 10
-3.325639711770318
 20
-3.235787472619838
 30
0.0
 10
-3.621276554431826
 20
-3.126314302621043
 30
0.0
 10
-3.770185028289129
 20
-3.087142447592309
 30
0.0
 10
-4.054805379365482
 20
-3.028974942486289
 30
0.0
 10
-4.180380595905132
 20
-3.015569086953734
 30
0.0
 10
-4.339492326883471
 20
-3.003596697822917
 30
0.0
 10
-4.389829464053633
 20
-3.001800417163554
 30
0.0
 10
-4.475805277571264
 20
-2.999690566817275
 30
0.0
 10
-4.500000500487556
 20
-2.999999734930068
 30
0.0
 10
-4.500000502455534
 20
-2.999999999829809
 30
0.0
  0
ARC
  5
5B63
330
5B2B
100
AcDbEntity
  8
0
100
AcDbCircle
 10
-3.250000489147222
 20
-27.50118731297675
 30
0.0
 40
1.75
100
AcDbArc
 50
0.0
 51
58.03428124920309
  0
ARC
  5
5B64
330
5B2B
100
AcDbEntity
  8
0
100
AcDbCircle
 10
-1.500000489147225
 20
-23.65608264340531
 30
0.0
 40
2.5
100
AcDbArc
 50
180.0
 51
250.766924097955
  0
ARC
  5
5B65
330
5B2B
100
AcDbEntity
  8
0
100
AcDbCircle
 10
-3.250000489147224
 20
-19.50118731297669
 30
0.0
 40
1.75
100
AcDbArc
 50
301.9657187507969
 51
0.0
  0
ARC
  5
5B66
330
5B2B
100
AcDbEntity
  8
0
100
AcDbCircle
 10
-1.500000489147225
 20
-23.34629198254814
 30
0.0
 40
2.5
100
AcDbArc
 50
109.233075902045
 51
180.0
  0
LINE
  5
5B67
330
5B2B
100
AcDbEntity
  8
0
100
AcDbLine
 10
-2.323529900911933
 20
-20.98582607346188
 30
0.0
 11
-2.323529900911932
 21
-26.01654855249152
 31
0.0
  0
LINE
  5
5B68
330
5B2B
100
AcDbEntity
  8
0
100
AcDbLine
 10
-4.000000489147225
 20
-23.34629198254814
 30
0.0
 11
-4.000000489147225
 21
-23.65608264340522
 31
0.0
  0
LINE
  5
5B69
330
5B2B
100
AcDbEntity
  8
0
100
AcDbLine
 10
-2.323529900911916
 20
-76.98582607346184
 30
0.0
 11
-2.323529900911912
 21
-94.0165485524915
 31
0.0
  0
LINE
  5
5B6A
330
5B2B
100
AcDbEntity
  8
0
100
AcDbLine
 10
-4.000000489147208
 20
-79.3462919825481
 30
0.0
 11
-4.000000489147206
 21
-91.65608264340523
 31
0.0
  0
ARC
  5
5B6B
330
5B2B
100
AcDbEntity
  8
0
100
AcDbCircle
 10
-3.250000489147212
 20
-75.50118731297667
 30
0.0
 40
1.75
100
AcDbArc
 50
301.9657187507972
 51
0.0
  0
ARC
  5
5B6C
330
5B2B
100
AcDbEntity
  8
0
100
AcDbCircle
 10
-3.250000489147208
 20
-95.50118731297667
 30
0.0
 40
1.75
100
AcDbArc
 50
0.0
 51
58.03428124920288
  0
ARC
  5
5B6D
330
5B2B
100
AcDbEntity
  8
0
100
AcDbCircle
 10
-1.500000489147208
 20
-79.34629198254812
 30
0.0
 40
2.499999999999999
100
AcDbArc
 50
109.233075902045
 51
180.0
  0
ARC
  5
5B6E
330
5B2B
100
AcDbEntity
  8
0
100
AcDbCircle
 10
-1.500000489147206
 20
-91.65608264340523
 30
0.0
 40
2.499999999999999
100
AcDbArc
 50
180.0
 51
250.766924097955
  0
ENDBLK
  5
5B2D
330
5B2B
100
AcDbEntity
  8
0
100
AcDbBlockEnd
  0
BLOCK
  5
5B70
330
5B6F
100
AcDbEntity
  8
0
100
AcDbBlockBegin
  2
TU12-Bottom
 70
     0
 10
0.0
 20
0.0
 30
0.0
  3
TU12-Bottom
  1

  0
SPLINE
  5
5B72
330
5B6F
100
AcDbEntity
  8
0
100
AcDbSpline
210
0.0
220
0.0
230
1.0
 70
     8
 71
     3
 72
    12
 73
     8
 74
     0
 42
0.000000001
 43
0.0000000001
 40
0.2344667051729338
 40
0.2344667051729338
 40
0.2344667051729338
 40
0.2344667051729338
 40
0.2376753784886336
 40
0.2376753784886336
 40
0.3944506176828581
 40
0.3944506176828581
 40
0.5512258570530216
 40
0.5512258570530216
 40
0.5512258570530216
 40
0.5512258570530216
 10
-0.696152911916864
 20
3.000000000918453
 30
0.0
 10
-0.7014627786036593
 20
3.009196959006057
 30
0.0
 10
-0.7067489028146478
 20
3.018409184056729
 30
0.0
 10
-0.9691267277956431
 20
3.478486183160081
 30
0.0
 10
-1.166659794611125
 20
3.960797690718123
 30
0.0
 10
-1.432657051724609
 20
4.964162245574518
 30
0.0
 10
-1.500000489147216
 20
5.480987717177505
 30
0.0
 10
-1.500000489147216
 20
6.000000000000009
 30
0.0
  0
SPLINE
  5
5B73
330
5B6F
100
AcDbEntity
  8
0
100
AcDbSpline
210
0.0
220
0.0
230
1.0
 70
     8
 71
     3
 72
    12
 73
     8
 74
     0
 42
0.000000001
 43
0.0000000001
 40
0.0
 40
0.0
 40
0.0
 40
0.0
 40
0.1237096560088969
 40
0.1237096560088969
 40
0.2024560230578842
 40
0.2024560230578842
 40
0.2812023894290632
 40
0.2812023894290632
 40
0.2812023894290632
 40
0.2812023894290632
 10
1.499999510852782
 20
6.000000000000009
 30
0.0
 10
1.499999510852781
 20
5.598573900657228
 30
0.0
 10
1.580570966890765
 20
5.201200989405623
 30
0.0
 10
1.836457972293404
 20
4.596134185261248
 30
0.0
 10
1.965648114384287
 20
4.374467548149993
 30
0.0
 10
2.277069873734028
 20
3.969266984536278
 30
0.0
 10
2.458029350682283
 20
3.787388278674641
 30
0.0
 10
2.659838091011621
 20
3.630652843307226
 30
0.0
  0
LINE
  5
5B74
330
5B6F
100
AcDbEntity
  8
0
100
AcDbLine
 10
0.5010029995653066
 20
6.000000000000009
 30
0.0
 11
1.499999510852782
 21
6.000000000000009
 31
0.0
  0
LINE
  5
5B75
330
5B6F
100
AcDbEntity
  8
0
100
AcDbLine
 10
-1.500000489147216
 20
6.000000000000009
 30
0.0
 11
0.5010029995653067
 21
6.000000000000009
 31
0.0
  0
SPLINE
  5
5B76
330
5B6F
100
AcDbEntity
  8
0
100
AcDbSpline
210
0.0
220
0.0
230
1.0
 70
     8
 71
     3
 72
    18
 73
    14
 74
     0
 42
0.000000001
 43
0.0000000001
 40
0.0
 40
0.0
 40
0.0
 40
0.0
 40
0.0471830120679743
 40
0.0471830120679743
 40
0.0950116998656786
 40
0.0950116998656786
 40
0.1538177585972697
 40
0.1538177585972697
 40
0.2246331071201076
 40
0.2246331071201076
 40
0.2730249789768527
 40
0.2730249789768527
 40
0.3383925796190337
 40
0.3383925796190337
 40
0.3383925796190337
 40
0.3383925796190337
 10
2.659838091011595
 20
3.630652843307244
 30
0.0
 10
2.780768870945527
 20
3.536731547275499
 30
0.0
 10
2.91189293944395
 20
3.450035413277165
 30
0.0
 10
3.187189176383647
 20
3.29785209032495
 30
0.0
 10
3.325638733473892
 20
3.235787472620645
 30
0.0
 10
3.621275576135667
 20
3.126314302621504
 30
0.0
 10
3.770184049993237
 20
3.087142447592622
 30
0.0
 10
4.054804401069865
 20
3.02897494248643
 30
0.0
 10
4.180379617609644
 20
3.01556908695379
 30
0.0
 10
4.339491348588715
 20
3.003596697822898
 30
0.0
 10
4.389828485758949
 20
3.001800417163526
 30
0.0
 10
4.475804299276727
 20
2.999690566817237
 30
0.0
 10
4.499999522193076
 20
2.999999734930039
 30
0.0
 10
4.499999524161081
 20
2.99999999982978
 30
0.0
  0
LINE
  5
5B77
330
5B6F
100
AcDbEntity
  8
0
100
AcDbLine
 10
1.499999510852807
 20
100.5011873129767
 30
0.0
 11
1.499999510852807
 21
98.50118731297671
 31
0.0
  0
LINE
  5
5B78
330
5B6F
100
AcDbEntity
  8
0
100
AcDbLine
 10
1.499999510852801
 20
73.55118731297668
 30
0.0
 11
1.499999510852807
 21
98.50118731297669
 31
0.0
  0
LINE
  5
5B79
330
5B6F
100
AcDbEntity
  8
0
100
AcDbLine
 10
1.499999510852785
 20
20.20875739646918
 30
0.0
 11
1.499999510852801
 21
73.55118731297668
 31
0.0
  0
LINE
  5
5B7A
330
5B6F
100
AcDbEntity
  8
0
100
AcDbLine
 10
1.499999510852782
 20
6.000000000000009
 30
0.0
 11
1.499999510852785
 21
20.20875739646918
 31
0.0
  0
LINE
  5
5B7B
330
5B6F
100
AcDbEntity
  8
0
100
AcDbLine
 10
-1.500000489147212
 20
20.20875739646918
 30
0.0
 11
-1.500000489147216
 21
6.000000000000009
 31
0.0
  0
LINE
  5
5B7C
330
5B6F
100
AcDbEntity
  8
0
100
AcDbLine
 10
-1.5000004891472
 20
73.55118731297668
 30
0.0
 11
-1.500000489147212
 21
20.20875739646918
 31
0.0
  0
LINE
  5
5B7D
330
5B6F
100
AcDbEntity
  8
0
100
AcDbLine
 10
-1.500000489147195
 20
98.50118731297669
 30
0.0
 11
-1.5000004891472
 21
73.55118731297668
 31
0.0
  0
LINE
  5
5B7E
330
5B6F
100
AcDbEntity
  8
0
100
AcDbLine
 10
-1.500000489147194
 20
98.50118731297671
 30
0.0
 11
-1.500000489147194
 21
100.5011873129767
 31
0.0
  0
LINE
  5
5B7F
330
5B6F
100
AcDbEntity
  8
0
100
AcDbLine
 10
1.499999510852807
 20
100.5011873129767
 30
0.0
 11
-1.500000489147195
 21
100.5011873129767
 31
0.0
  0
LINE
  5
5B80
330
5B6F
100
AcDbEntity
  8
0
100
AcDbLine
 10
1.499999510852801
 20
73.55118731297668
 30
0.0
 11
-1.5000004891472
 21
73.55118731297668
 31
0.0
  0
LINE
  5
5B81
330
5B6F
100
AcDbEntity
  8
0
100
AcDbLine
 10
1.499999510852785
 20
20.20875739646918
 30
0.0
 11
-1.500000489147212
 21
20.20875739646918
 31
0.0
  0
LINE
  5
5B82
330
5B6F
100
AcDbEntity
  8
0
100
AcDbLine
 10
19.99999951085278
 20
2.999999999999998
 30
0.0
 11
19.99999951085278
 21
0.0
 31
0.0
  0
LINE
  5
5B83
330
5B6F
100
AcDbEntity
  8
0
100
AcDbLine
 10
19.99999951085278
 20
0.0
 30
0.0
 11
17.99999951085282
 21
0.0
 31
0.0
  0
LINE
  5
5B84
330
5B6F
100
AcDbEntity
  8
0
100
AcDbLine
 10
17.99999951085282
 20
2.999999999999998
 30
0.0
 11
19.99999951085278
 21
2.999999999999998
 31
0.0
  0
LINE
  5
5B85
330
5B6F
100
AcDbEntity
  8
0
100
AcDbLine
 10
1.528575859336063
 20
0.0
 30
0.0
 11
17.99999951085282
 21
0.0
 31
0.0
  0
LINE
  5
5B86
330
5B6F
100
AcDbEntity
  8
0
100
AcDbLine
 10
17.99999951085282
 20
2.999999999999998
 30
0.0
 11
1.528575859336063
 21
3.000000000000002
 31
0.0
  0
LINE
  5
5B87
330
5B6F
100
AcDbEntity
  8
0
100
AcDbLine
 10
1.528575859336063
 20
3.000000000000002
 30
0.0
 11
1.528575859336063
 21
0.0
 31
0.0
  0
LINE
  5
5B88
330
5B6F
100
AcDbEntity
  8
0
100
AcDbLine
 10
-0.0000004891472228
 20
0.0
 30
0.0
 11
1.528575859336063
 21
0.0
 31
0.0
  0
LINE
  5
5B89
330
5B6F
100
AcDbEntity
  8
0
100
AcDbLine
 10
1.528575859336063
 20
3.000000000000002
 30
0.0
 11
-0.0000004891472222
 21
3.000000000000002
 31
0.0
  0
LINE
  5
5B8A
330
5B6F
100
AcDbEntity
  8
0
100
AcDbLine
 10
-0.0000004891472221
 20
3.000000000000002
 30
0.0
 11
-0.0000004891472228
 21
0.0
 31
0.0
  0
LINE
  5
5B8B
330
5B6F
100
AcDbEntity
  8
0
100
AcDbLine
 10
-1.463198254844806
 20
0.0
 30
0.0
 11
-0.0000004891472227
 21
0.0
 31
0.0
  0
LINE
  5
5B8C
330
5B6F
100
AcDbEntity
  8
0
100
AcDbLine
 10
-0.0000004891472221
 20
3.000000000000002
 30
0.0
 11
-1.463198254844805
 21
3.000000000000003
 31
0.0
  0
LINE
  5
5B8D
330
5B6F
100
AcDbEntity
  8
0
100
AcDbLine
 10
-1.463198254844805
 20
3.000000000000003
 30
0.0
 11
-1.463198254844806
 21
0.0
 31
0.0
  0
LINE
  5
5B8E
330
5B6F
100
AcDbEntity
  8
0
100
AcDbLine
 10
-18.00000048914722
 20
0.0
 30
0.0
 11
-1.463198254844806
 21
0.0
 31
0.0
  0
LINE
  5
5B8F
330
5B6F
100
AcDbEntity
  8
0
100
AcDbLine
 10
-1.463198254844805
 20
3.000000000000003
 30
0.0
 11
-18.00000048914722
 21
3.000000000000002
 31
0.0
  0
LINE
  5
5B90
330
5B6F
100
AcDbEntity
  8
0
100
AcDbLine
 10
-18.00000048914722
 20
0.0
 30
0.0
 11
-20.00000048914722
 21
0.0
 31
0.0
  0
LINE
  5
5B91
330
5B6F
100
AcDbEntity
  8
0
100
AcDbLine
 10
-20.00000048914722
 20
3.000000000000002
 30
0.0
 11
-18.00000048914722
 21
3.000000000000001
 31
0.0
  0
LINE
  5
5B92
330
5B6F
100
AcDbEntity
  8
0
100
AcDbLine
 10
-20.00000048914722
 20
2.999999999999998
 30
0.0
 11
-20.00000048914722
 21
0.0
 31
0.0
  0
ARC
  5
5B93
330
5B6F
100
AcDbEntity
  8
0
100
AcDbCircle
 10
-4.500000489147223
 20
6.000000000000028
 30
0.0
 40
3.0
100
AcDbArc
 50
269.9999999999999
 51
341.6376337998026
  0
SPLINE
  5
5B94
330
5B6F
100
AcDbEntity
  8
0
100
AcDbSpline
210
0.0
220
0.0
230
1.0
 70
     8
 71
     3
 72
    12
 73
     8
 74
     0
 42
0.000000001
 43
0.0000000001
 40
0.0
 40
0.0
 40
0.0
 40
0.0
 40
0.0463759660158758
 40
0.0463759660158758
 40
0.0752344047902999
 40
0.0752344047902999
 40
0.1065806592804733
 40
0.1065806592804733
 40
0.1065806592804733
 40
0.1065806592804733
 10
-1.652751081529332
 20
5.054922854567163
 30
0.0
 10
-1.604052342002218
 20
5.201638345403405
 30
0.0
 10
-1.567844069609712
 20
5.34919080038041
 30
0.0
 10
-1.527972895182415
 20
5.581407130184632
 30
0.0
 10
-1.517383903265173
 20
5.667250897000348
 30
0.0
 10
-1.503069277096092
 20
5.837715668995109
 30
0.0
 10
-1.500000489147224
 20
5.915377419495237
 30
0.0
 10
-1.500000489147224
 20
6.000000000000036
 30
0.0
  0
ARC
  5
5B95
330
5B6F
100
AcDbEntity
  8
0
100
AcDbCircle
 10
-3.250000489147218
 20
27.50118731297674
 30
0.0
 40
1.75
100
AcDbArc
 50
301.9657187507969
 51
0.0
  0
ARC
  5
5B96
330
5B6F
100
AcDbEntity
  8
0
100
AcDbCircle
 10
-1.500000489147216
 20
23.65608264340528
 30
0.0
 40
2.5
100
AcDbArc
 50
109.233075902045
 51
180.0
  0
ARC
  5
5B97
330
5B6F
100
AcDbEntity
  8
0
100
AcDbCircle
 10
-3.25000048914722
 20
19.50118731297671
 30
0.0
 40
1.75
100
AcDbArc
 50
0.0
 51
58.03428124920306
  0
LINE
  5
5B98
330
5B6F
100
AcDbEntity
  8
0
100
AcDbLine
 10
-2.323529900911923
 20
26.01654855249152
 30
0.0
 11
-2.323529900911924
 21
20.9858260734619
 31
0.0
  0
ARC
  5
5B99
330
5B6F
100
AcDbEntity
  8
0
100
AcDbCircle
 10
-1.500000489147216
 20
23.34629198254816
 30
0.0
 40
2.5
100
AcDbArc
 50
180.0
 51
250.766924097955
  0
LINE
  5
5B9A
330
5B6F
100
AcDbEntity
  8
0
100
AcDbLine
 10
-4.000000489147216
 20
23.65608264340526
 30
0.0
 11
-4.000000489147216
 21
23.34629198254816
 31
0.0
  0
LINE
  5
5B9B
330
5B6F
100
AcDbEntity
  8
0
100
AcDbLine
 10
-2.323529900911899
 20
94.0165485524915
 30
0.0
 11
-2.323529900911903
 21
76.98582607346184
 31
0.0
  0
LINE
  5
5B9C
330
5B6F
100
AcDbEntity
  8
0
100
AcDbLine
 10
-4.000000489147197
 20
91.65608264340523
 30
0.0
 11
-4.000000489147199
 21
79.3462919825481
 31
0.0
  0
ARC
  5
5B9D
330
5B6F
100
AcDbEntity
  8
0
100
AcDbCircle
 10
-3.250000489147194
 20
95.50118731297667
 30
0.0
 40
1.75
100
AcDbArc
 50
301.9657187507972
 51
0.0
  0
ARC
  5
5B9E
330
5B6F
100
AcDbEntity
  8
0
100
AcDbCircle
 10
-3.250000489147199
 20
75.50118731297667
 30
0.0
 40
1.75
100
AcDbArc
 50
0.0
 51
58.03428124920285
  0
ARC
  5
5B9F
330
5B6F
100
AcDbEntity
  8
0
100
AcDbCircle
 10
-1.500000489147197
 20
91.65608264340523
 30
0.0
 40
2.499999999999999
100
AcDbArc
 50
109.2330759020449
 51
180.0
  0
ARC
  5
5BA0
330
5B6F
100
AcDbEntity
  8
0
100
AcDbCircle
 10
-1.500000489147199
 20
79.34629198254812
 30
0.0
 40
2.499999999999999
100
AcDbArc
 50
180.0
 51
250.7669240979552
  0
ENDBLK
  5
5B71
330
5B6F
100
AcDbEntity
  8
0
100
AcDbBlockEnd
  0
BLOCK
  5
5BA2
330
5BA1
100
AcDbEntity
  8
0
100
AcDbBlockBegin
  2
TU12-ISO
 70
     0
 10
0.0
 20
0.0
 30
0.0
  3
TU12-ISO
  1

  0
ELLIPSE
  5
5BA4
330
5BA1
100
AcDbEntity
  8
0
100
AcDbEllipse
 10
34.47175476907168
 20
14.39092497410016
 30
0.0
 11
6.0
 21
-0.0000000000003428
 31
0.0
210
0.0
220
0.0
230
1.0
 40
0.5773502691896272
 41
0.7853981633976055
 42
2.035710741542059
  0
LINE
  5
5BA5
330
5BA1
100
AcDbEntity
  8
0
100
AcDbLine
 10
33.12671586349568
 20
15.93913580626385
 30
0.0
 11
31.78167695791968
 21
17.48734663842754
 31
0.0
  0
ELLIPSE
  5
5BA6
330
5BA1
100
AcDbEntity
  8
0
100
AcDbEllipse
 10
34.47175476907168
 20
14.39092497410016
 30
0.0
 11
-3.0
 21
-0.0000000000001878
 31
0.0
210
0.0
220
0.0
230
1.0
 40
0.5773502691896267
 41
3.926990816986997
 42
5.177303395131616
  0
LINE
  5
5BA7
330
5BA1
100
AcDbEntity
  8
0
100
AcDbLine
 10
38.71439545619097
 20
16.84041471688333
 30
0.0
 11
36.59307511263133
 21
15.61566984549174
 31
0.0
  0
SPLINE
  5
5BA8
330
5BA1
100
AcDbEntity
  8
0
100
AcDbSpline
210
0.0
220
0.0
230
1.0
 70
     8
 71
     3
 72
    12
 73
     8
 74
     0
 42
0.000000001
 43
0.0000000001
 40
0.0
 40
0.0
 40
0.0
 40
0.0
 40
0.1237096560088969
 40
0.1237096560088969
 40
0.2024560230578842
 40
0.2024560230578842
 40
0.2812023894290632
 40
0.2812023894290632
 40
0.2812023894290632
 40
0.2812023894290632
 10
32.35043442551204
 20
-3.841081149959251
 30
0.0
 10
32.63428554250258
 20
-3.60016107424669
 30
0.0
 10
32.97224324564297
 20
-3.394554064606039
 30
0.0
 10
33.58102952266205
 20
-3.125924975653129
 30
0.0
 10
33.82912273046115
 20
-3.039332290332632
 30
0.0
 10
34.33585123457827
 20
-2.902970555239186
 30
0.0
 10
34.59241657411655
 20
-2.853755877712842
 30
0.0
 10
34.84594559210666
 20
-2.823118716310482
 30
0.0
  0
SPLINE
  5
5BA9
330
5BA1
100
AcDbEntity
  8
0
100
AcDbSpline
210
0.0
220
0.0
230
1.0
 70
     8
 71
     3
 72
    18
 73
    14
 74
     0
 42
0.000000001
 43
0.0000000001
 40
0.0
 40
0.0
 40
0.0
 40
0.0
 40
0.0471830120679743
 40
0.0471830120679743
 40
0.0950116998656786
 40
0.0950116998656786
 40
0.1538177585972697
 40
0.1538177585972697
 40
0.2246331071201076
 40
0.2246331071201076
 40
0.2730249789768527
 40
0.2730249789768527
 40
0.3384205720744892
 40
0.3384205720744892
 40
0.3384205720744892
 40
0.3384205720744892
 10
34.84594559210663
 20
-2.82311871631049
 30
0.0
 10
34.99786895197397
 20
-2.804813862295509
 30
0.0
 10
35.15189109423886
 20
-2.816529830188096
 30
0.0
 10
35.45416478985707
 20
-2.902055934454406
 30
0.0
 10
35.59594972257832
 20
-2.974733552176851
 30
0.0
 10
35.88240575965742
 20
-3.187250618009631
 30
0.0
 10
36.01539863562083
 20
-3.334733800961111
 30
0.0
 10
36.25778625323609
 20
-3.691727951428163
 30
0.0
 10
36.35606071175508
 20
-3.905892605973133
 30
0.0
 10
36.47703545323817
 20
-4.267429083683342
 30
0.0
 10
36.51389934651191
 20
-4.414899330325474
 30
0.0
 10
36.57620064327918
 20
-4.7557022694183
 30
0.0
 10
36.59308977026428
 20
-4.949010891484357
 30
0.0
 10
36.59307511263132
 20
-5.126105892194421
 30
0.0
  0
SPLINE
  5
5BAA
330
5BA1
100
AcDbEntity
  8
0
100
AcDbSpline
210
0.0
220
0.0
230
1.0
 70
     8
 71
     3
 72
     8
 73
     4
 74
     0
 42
0.000000001
 43
0.0000000001
 40
0.0800240034907047
 40
0.0800240034907047
 40
0.0800240034907047
 40
0.0800240034907047
 40
0.0831233211191462
 40
0.0831233211191462
 40
0.0831233211191462
 40
0.0831233211191462
 10
31.70125590084373
 20
17.46426520031251
 30
0.0
 10
31.72795363530474
 20
17.47185728818286
 30
0.0
 10
31.75476276275185
 20
17.47955247518605
 30
0.0
 10
31.78167695791969
 20
17.48734663842754
 30
0.0
  0
LINE
  5
5BAB
330
5BA1
100
AcDbEntity
  8
0
100
AcDbLine
 10
32.35043442551203
 20
15.94282815852853
 30
0.0
 11
31.94900988948249
 21
16.1745907224645
 31
0.0
  0
SPLINE
  5
5BAC
330
5BA1
100
AcDbEntity
  8
0
100
AcDbSpline
210
0.0
220
0.0
230
1.0
 70
     8
 71
     3
 72
    12
 73
     8
 74
     0
 42
0.000000001
 43
0.0000000001
 40
0.0
 40
0.0
 40
0.0
 40
0.0
 40
0.0463759660156932
 40
0.0463759660156932
 40
0.0752344047891089
 40
0.0752344047891089
 40
0.1065806592783623
 40
0.1065806592783623
 40
0.1065806592783623
 40
0.1065806592783623
 10
33.12671586349568
 20
15.93913580626386
 30
0.0
 10
32.98853713606594
 20
15.89911881080355
 30
0.0
 10
32.85859867963052
 20
15.87669145460683
 30
0.0
 10
32.6662037603066
 20
15.86932696216766
 30
0.0
 10
32.5980155026788
 20
15.87352006509861
 30
0.0
 10
32.46735673721433
 20
15.89611403734245
 30
0.0
 10
32.4102716260264
 20
15.91370849416988
 30
0.0
 10
32.35043442551203
 20
15.94282815852853
 30
0.0
  0
LINE
  5
5BAD
330
5BA1
100
AcDbEntity
  8
0
100
AcDbLine
 10
32.35043442551204
 20
-3.841081149959255
 30
0.0
 11
32.35043442551203
 21
15.94282815852853
 31
0.0
  0
LINE
  5
5BAE
330
5BA1
100
AcDbEntity
  8
0
100
AcDbLine
 10
36.59307511263133
 20
15.61566984549174
 30
0.0
 11
36.59307511263133
 21
-5.126105892194416
 31
0.0
  0
ELLIPSE
  5
5BAF
330
5BA1
100
AcDbEntity
  8
0
100
AcDbEllipse
 10
33.25667273700312
 20
17.97600408566848
 30
0.0
 11
-1.124999999999997
 21
-1.948557158514985
 31
0.0
210
0.0
220
0.0
230
1.0
 40
0.5773502691896257
 41
4.533017772515798
 42
6.462556515048483
  0
LINE
  5
5BB0
330
5BA1
100
AcDbEntity
  8
0
100
AcDbLine
 10
22.30332571823431
 20
34.9915946956709
 30
0.0
 11
32.35043442551202
 21
38.74665545511751
 31
0.0
  0
LINE
  5
5BB1
330
5BA1
100
AcDbEntity
  8
0
100
AcDbLine
 10
-15.41546820069648
 20
29.06696629778307
 30
0.0
 11
22.3033257182343
 21
34.9915946956709
 31
0.0
  0
LINE
  5
5BB2
330
5BA1
100
AcDbEntity
  8
0
100
AcDbLine
 10
-18.63821403676911
 20
27.20631312179677
 30
0.0
 11
-15.41546820069648
 21
29.06696629778307
 31
0.0
  0
ELLIPSE
  5
5BB3
330
5BA1
100
AcDbEntity
  8
0
100
AcDbEllipse
 10
-18.63821403676911
 20
25.57331995994132
 30
0.0
 11
1.000000000000108
 21
1.732050807568828
 31
0.0
210
0.0
220
0.0
230
1.0
 40
0.5773502691896258
 41
0.7853981633976215
 42
2.094395102393297
  0
LINE
  5
5BB4
330
5BA1
100
AcDbEntity
  8
0
100
AcDbLine
 10
-20.86019041583289
 20
21.02447497564495
 30
0.0
 11
-20.00423944055355
 21
25.20729455615689
 31
0.0
  0
LINE
  5
5BB5
330
5BA1
100
AcDbEntity
  8
0
100
AcDbLine
 10
-20.86019041583288
 20
16.12549549007858
 30
0.0
 11
-20.86019041583289
 21
21.02447497564495
 31
0.0
  0
ELLIPSE
  5
5BB6
330
5BA1
100
AcDbEntity
  8
0
100
AcDbEllipse
 10
-23.86539423587572
 20
14.39044025560715
 30
0.0
 11
2.124999999999778
 21
3.680607966083992
 31
0.0
210
0.0
220
0.0
230
1.0
 40
0.5773502691896257
 41
3.926990816986998
 42
5.497787143781895
  0
LINE
  5
5BB7
330
5BA1
100
AcDbEntity
  8
0
100
AcDbLine
 10
-24.9268813274357
 20
10.30747992861086
 30
0.0
 11
-23.86539423587571
 21
10.92032978666433
 31
0.0
  0
ELLIPSE
  5
5BB8
330
5BA1
100
AcDbEntity
  8
0
100
AcDbEllipse
 10
-24.92688132743571
 20
13.77759039755368
 30
0.0
 11
-2.125
 21
-3.680607966083868
 31
0.0
210
0.0
220
0.0
230
1.0
 40
0.5773502691896258
 41
4.797148676839546
 42
7.068583470577034
  0
LINE
  5
5BB9
330
5BA1
100
AcDbEntity
  8
0
100
AcDbLine
 10
-27.22415144651182
 20
17.35024036147017
 30
0.0
 11
-27.22415144651182
 21
14.68846150764577
 31
0.0
  0
LINE
  5
5BBA
330
5BA1
100
AcDbEntity
  8
0
100
AcDbLine
 10
-28.44889631790342
 20
19.0926233230668
 30
0.0
 11
-27.22415144651182
 21
17.35024036147017
 31
0.0
  0
ELLIPSE
  5
5BBB
330
5BA1
100
AcDbEntity
  8
0
100
AcDbEllipse
 10
-29.67364118929501
 20
17.56901996095252
 30
0.0
 11
0.9999999999999962
 21
1.732050807568872
 31
0.0
210
0.0
220
0.0
230
1.0
 40
0.5773502691896258
 41
6.021385919380437
 42
7.068583470577033
  0
LINE
  5
5BBC
330
5BA1
100
AcDbEntity
  8
0
100
AcDbLine
 10
-33.05778239130084
 20
17.24817828885417
 30
0.0
 11
-29.67364118929501
 21
19.20201312280797
 31
0.0
  0
ELLIPSE
  5
5BBD
330
5BA1
100
AcDbEntity
  8
0
100
AcDbEllipse
 10
-33.05778239130084
 20
15.61518512699874
 30
0.0
 11
1.000000000000099
 21
1.732050807568812
 31
0.0
210
0.0
220
0.0
230
1.0
 40
0.5773502691896258
 41
0.785398163397689
 42
2.356194490192587
  0
LINE
  5
5BBE
330
5BA1
100
AcDbEntity
  8
0
100
AcDbLine
 10
-34.4719959536739
 20
-58.68600373742435
 30
0.0
 11
-34.47199595367393
 21
14.79868854607102
 31
0.0
  0
ELLIPSE
  5
5BBF
330
5BA1
100
AcDbEntity
  8
0
100
AcDbEllipse
 10
-33.05778239130082
 20
-57.86950715649663
 30
0.0
 11
-0.9999999999999962
 21
-1.732050807568872
 31
0.0
210
0.0
220
0.0
230
1.0
 40
0.5773502691896258
 41
5.497787143782139
 42
7.068583470577033
  0
LINE
  5
5BC0
330
5BA1
100
AcDbEntity
  8
0
100
AcDbLine
 10
-15.41546820069643
 20
-49.31670547127867
 30
0.0
 11
-33.0577823913008
 21
-59.50250031835206
 31
0.0
  0
LINE
  5
5BC1
330
5BA1
100
AcDbEntity
  8
0
100
AcDbLine
 10
22.30332571823418
 20
-11.68742222396121
 30
0.0
 11
-15.41546820069643
 21
-49.31670547127867
 31
0.0
  0
LINE
  5
5BC2
330
5BA1
100
AcDbEntity
  8
0
100
AcDbLine
 10
32.35043442551204
 20
-3.841081149959255
 30
0.0
 11
22.30332571823418
 21
-11.68742222396121
 31
0.0
  0
LINE
  5
5BC3
330
5BA1
100
AcDbEntity
  8
0
100
AcDbLine
 10
30.22911408195237
 20
39.9714003265091
 30
0.0
 11
20.18200537467466
 21
36.21633956706248
 31
0.0
  0
LINE
  5
5BC4
330
5BA1
100
AcDbEntity
  8
0
100
AcDbLine
 10
22.30332571823431
 20
34.9915946956709
 30
0.0
 11
20.18200537467466
 21
36.21633956706248
 31
0.0
  0
ELLIPSE
  5
5BC5
330
5BA1
100
AcDbEntity
  8
0
100
AcDbEllipse
 10
-35.17910273486047
 20
-56.64476228510503
 30
0.0
 11
-0.9999999999999957
 21
-1.732050807568872
 31
0.0
210
0.0
220
0.0
230
1.0
 40
0.5773502691896258
 41
5.497787143782135
 42
6.28318530717958
  0
LINE
  5
5BC6
330
5BA1
100
AcDbEntity
  8
0
100
AcDbLine
 10
-36.59331629723359
 20
16.02343341746261
 30
0.0
 11
-36.59331629723355
 21
-57.46125886603277
 31
0.0
  0
ELLIPSE
  5
5BC7
330
5BA1
100
AcDbEntity
  8
0
100
AcDbEllipse
 10
-35.17910273486049
 20
16.83992999839033
 30
0.0
 11
-0.9999999999998923
 21
-1.732050807568931
 31
0.0
210
0.0
220
0.0
230
1.0
 40
0.5773502691896259
 41
3.926990816986998
 42
5.497787143781893
  0
LINE
  5
5BC8
330
5BA1
100
AcDbEntity
  8
0
100
AcDbLine
 10
-31.79496153285466
 20
20.42675799419956
 30
0.0
 11
-35.17910273486049
 21
18.47292316024576
 31
0.0
  0
ELLIPSE
  5
5BC9
330
5BA1
100
AcDbEntity
  8
0
100
AcDbEllipse
 10
-31.79496153285466
 20
18.79376483234411
 30
0.0
 11
0.9999999999999964
 21
1.732050807568872
 31
0.0
210
0.0
220
0.0
230
1.0
 40
0.5773502691896258
 41
0.0000000000000006
 42
0.7853981633974483
  0
ELLIPSE
  5
5BCA
330
5BA1
100
AcDbEntity
  8
0
100
AcDbEllipse
 10
-27.04820167099536
 20
15.00233526894527
 30
0.0
 11
-2.125
 21
-3.680607966083868
 31
0.0
210
0.0
220
0.0
230
1.0
 40
0.5773502691896258
 41
0.5225993223155188
 42
0.7853981633974474
  0
LINE
  5
5BCB
330
5BA1
100
AcDbEntity
  8
0
100
AcDbLine
 10
-25.98671457943535
 20
12.14507465805592
 30
0.0
 11
-27.04820167099534
 21
11.53222480000245
 31
0.0
  0
ELLIPSE
  5
5BCC
330
5BA1
100
AcDbEntity
  8
0
100
AcDbEllipse
 10
-25.98671457943537
 20
15.61518512699874
 30
0.0
 11
-2.125000000000217
 21
-3.680607966083738
 31
0.0
210
0.0
220
0.0
230
0.9999999999999998
 40
0.5773502691896257
 41
0.785398163397689
 42
2.356194490192585
  0
LINE
  5
5BCD
330
5BA1
100
AcDbEntity
  8
0
100
AcDbLine
 10
-22.98151075939253
 20
22.24921984703653
 30
0.0
 11
-22.98151075939252
 21
17.35024036147017
 31
0.0
  0
LINE
  5
5BCE
330
5BA1
100
AcDbEntity
  8
0
100
AcDbLine
 10
-22.1255597841132
 20
26.43203942754848
 30
0.0
 11
-22.98151075939253
 21
22.24921984703653
 31
0.0
  0
ELLIPSE
  5
5BCF
330
5BA1
100
AcDbEntity
  8
0
100
AcDbEllipse
 10
-20.75953438032875
 20
26.79806483133291
 30
0.0
 11
-0.9999999999999012
 21
-1.732050807568947
 31
0.0
210
0.0
220
0.0
230
1.0
 40
0.5773502691896258
 41
3.926990816986998
 42
5.235987755982812
  0
LINE
  5
5BD0
330
5BA1
100
AcDbEntity
  8
0
100
AcDbLine
 10
-17.53678854425612
 20
30.29171116917466
 30
0.0
 11
-20.75953438032875
 21
28.43105799318836
 31
0.0
  0
LINE
  5
5BD1
330
5BA1
100
AcDbEntity
  8
0
100
AcDbLine
 10
20.18200537467466
 20
36.21633956706248
 30
0.0
 11
-17.53678854425612
 21
30.29171116917466
 31
0.0
  0
LINE
  5
5BD2
330
5BA1
100
AcDbEntity
  8
0
100
AcDbLine
 10
-34.4719959536739
 20
-58.68600373742435
 30
0.0
 11
-36.59331629723355
 21
-57.46125886603277
 31
0.0
  0
LINE
  5
5BD3
330
5BA1
100
AcDbEntity
  8
0
100
AcDbLine
 10
-15.41546820069648
 20
29.06696629778307
 30
0.0
 11
-17.53678854425612
 21
30.29171116917466
 31
0.0
  0
LINE
  5
5BD4
330
5BA1
100
AcDbEntity
  8
0
100
AcDbLine
 10
-18.63821403676911
 20
27.20631312179677
 30
0.0
 11
-20.75953438032875
 21
28.43105799318836
 31
0.0
  0
LINE
  5
5BD5
330
5BA1
100
AcDbEntity
  8
0
100
AcDbLine
 10
-20.00423944055355
 20
25.20729455615689
 30
0.0
 11
-22.1255597841132
 21
26.43203942754848
 31
0.0
  0
LINE
  5
5BD6
330
5BA1
100
AcDbEntity
  8
0
100
AcDbLine
 10
-20.86019041583289
 20
21.02447497564495
 30
0.0
 11
-22.98151075939253
 21
22.24921984703653
 31
0.0
  0
LINE
  5
5BD7
330
5BA1
100
AcDbEntity
  8
0
100
AcDbLine
 10
-20.86019041583288
 20
16.12549549007858
 30
0.0
 11
-22.98151075939252
 21
17.35024036147017
 31
0.0
  0
LINE
  5
5BD8
330
5BA1
100
AcDbEntity
  8
0
100
AcDbLine
 10
-23.86539423587571
 20
10.92032978666433
 30
0.0
 11
-25.98671457943535
 21
12.14507465805592
 31
0.0
  0
LINE
  5
5BD9
330
5BA1
100
AcDbEntity
  8
0
100
AcDbLine
 10
-24.9268813274357
 20
10.30747992861086
 30
0.0
 11
-27.04820167099534
 21
11.53222480000245
 31
0.0
  0
LINE
  5
5BDA
330
5BA1
100
AcDbEntity
  8
0
100
AcDbLine
 10
-29.67364118929501
 20
19.20201312280797
 30
0.0
 11
-31.79496153285466
 21
20.42675799419956
 31
0.0
  0
LINE
  5
5BDB
330
5BA1
100
AcDbEntity
  8
0
100
AcDbLine
 10
-33.05778239130084
 20
17.24817828885417
 30
0.0
 11
-35.17910273486049
 21
18.47292316024576
 31
0.0
  0
LINE
  5
5BDC
330
5BA1
100
AcDbEntity
  8
0
100
AcDbLine
 10
-34.47199595367393
 20
14.79868854607102
 30
0.0
 11
-36.59331629723359
 21
16.02343341746261
 31
0.0
  0
ELLIPSE
  5
5BDD
330
5BA1
100
AcDbEntity
  8
0
100
AcDbEllipse
 10
31.82010433962209
 20
42.78735615798376
 30
0.0
 11
-1.125
 21
1.948557158514986
 31
0.0
210
0.0
220
0.0
230
0.9999999999999998
 40
0.577350269189626
 41
5.672320068981575
 42
7.068583470577032
  0
LINE
  5
5BDE
330
5BA1
100
AcDbEntity
  8
0
100
AcDbLine
 10
44.01769631509004
 20
40.09401995132709
 30
0.0
 11
31.5438317806919
 21
44.75606956146437
 31
0.0
  0
LINE
  5
5BDF
330
5BA1
100
AcDbEntity
  8
0
100
AcDbLine
 10
46.62270618394564
 20
39.68484155927745
 30
0.0
 11
44.01769631509004
 21
40.09401995132709
 31
0.0
  0
ELLIPSE
  5
5BE0
330
5BA1
100
AcDbEntity
  8
0
100
AcDbEllipse
 10
46.13901665864967
 20
41.49861146090068
 30
0.0
 11
1.00000000000001
 21
-1.732050807568893
 31
0.0
210
0.0
220
0.0
230
1.0
 40
0.577350269189626
 41
5.846852994181004
 42
7.068583470577032
  0
ELLIPSE
  5
5BE1
330
5BA1
100
AcDbEntity
  8
0
100
AcDbEllipse
 10
48.26033700220932
 20
42.72335633229227
 30
0.0
 11
1.000000000000009
 21
-1.732050807568894
 31
0.0
210
0.0
220
0.0
230
1.0
 40
0.5773502691896259
 41
0.0
 42
0.7853981633974483
  0
LINE
  5
5BE2
330
5BA1
100
AcDbEntity
  8
0
100
AcDbLine
 10
49.67455056458241
 20
41.90685975136455
 30
0.0
 11
47.55323022102276
 21
40.68211487997296
 31
0.0
  0
LINE
  5
5BE3
330
5BA1
100
AcDbEntity
  8
0
100
AcDbLine
 10
47.55323022102276
 20
48.68378137306468
 30
0.0
 11
47.55323022102276
 21
40.68211487997296
 31
0.0
  0
LINE
  5
5BE4
330
5BA1
100
AcDbEntity
  8
0
100
AcDbLine
 10
49.67455056458241
 20
41.90685975136455
 30
0.0
 11
49.67455056458241
 21
49.90852624445627
 31
0.0
  0
LINE
  5
5BE5
330
5BA1
100
AcDbEntity
  8
0
100
AcDbLine
 10
49.67455056458241
 20
49.90852624445627
 30
0.0
 11
47.55323022102276
 21
48.68378137306468
 31
0.0
  0
ELLIPSE
  5
5BE6
330
5BA1
100
AcDbEntity
  8
0
100
AcDbEllipse
 10
46.13901665864966
 20
49.5002779539924
 30
0.0
 11
0.9999999999998896
 21
-1.732050807568922
 31
0.0
210
0.0
220
0.0
230
1.0
 40
0.5773502691896258
 41
0.7853981633976908
 42
2.356194490192585
  0
ELLIPSE
  5
5BE7
330
5BA1
100
AcDbEntity
  8
0
100
AcDbEllipse
 10
48.26033700220932
 20
50.725022825384
 30
0.0
 11
-1.000000000000096
 21
1.732050807568803
 31
0.0
210
0.0
220
0.0
230
1.0
 40
0.5773502691896259
 41
3.926990816986997
 42
5.497787143781895
  0
LINE
  5
5BE8
330
5BA1
100
AcDbEntity
  8
0
100
AcDbLine
 10
48.26033700220932
 20
52.35801598723945
 30
0.0
 11
46.13901665864966
 21
51.13327111584786
 31
0.0
  0
LINE
  5
5BE9
330
5BA1
100
AcDbEntity
  8
0
100
AcDbLine
 10
34.44573165963359
 20
57.88439235774079
 30
0.0
 11
46.13901665864966
 21
51.13327111584786
 31
0.0
  0
LINE
  5
5BEA
330
5BA1
100
AcDbEntity
  8
0
100
AcDbLine
 10
48.26033700220932
 20
52.35801598723945
 30
0.0
 11
36.56705200319323
 21
59.10913722913239
 31
0.0
  0
LINE
  5
5BEB
330
5BA1
100
AcDbEntity
  8
0
100
AcDbLine
 10
36.56705200319323
 20
59.10913722913239
 30
0.0
 11
34.44573165963359
 21
57.88439235774079
 31
0.0
  0
LINE
  5
5BEC
330
5BA1
100
AcDbEntity
  8
0
100
AcDbLine
 10
33.41109459729182
 20
56.03225060141419
 30
0.0
 11
34.44573165963359
 21
57.88439235774079
 31
0.0
  0
LINE
  5
5BED
330
5BA1
100
AcDbEntity
  8
0
100
AcDbLine
 10
32.33022789571791
 20
59.10577902530918
 30
0.0
 11
33.41109459729182
 21
56.03225060141419
 31
0.0
  0
LINE
  5
5BEE
330
5BA1
100
AcDbEntity
  8
0
100
AcDbLine
 10
35.16561570105987
 20
58.30001760284357
 30
0.0
 11
34.45154823927756
 21
60.33052389670077
 31
0.0
  0
LINE
  5
5BEF
330
5BA1
100
AcDbEntity
  8
0
100
AcDbLine
 10
34.45154823927756
 20
60.33052389670077
 30
0.0
 11
32.33022789571791
 21
59.10577902530918
 31
0.0
  0
LINE
  5
5BF0
330
5BA1
100
AcDbEntity
  8
0
100
AcDbLine
 10
20.68317253593395
 20
65.83020957254692
 30
0.0
 11
32.33022789571791
 21
59.10577902530918
 31
0.0
  0
LINE
  5
5BF1
330
5BA1
100
AcDbEntity
  8
0
100
AcDbLine
 10
34.45154823927756
 20
60.33052389670077
 30
0.0
 11
22.80449287949359
 21
67.0549544439385
 31
0.0
  0
LINE
  5
5BF2
330
5BA1
100
AcDbEntity
  8
0
100
AcDbLine
 10
22.80449287949359
 20
67.0549544439385
 30
0.0
 11
20.68317253593395
 21
65.83020957254692
 31
0.0
  0
ELLIPSE
  5
5BF3
330
5BA1
100
AcDbEntity
  8
0
100
AcDbEllipse
 10
20.68317253593395
 20
64.19721641069147
 30
0.0
 11
-1.000000000000001
 21
1.732050807568877
 31
0.0
210
0.0
220
0.0
230
1.0
 40
0.5773502691896262
 41
5.497787143782137
 42
7.068583470577033
  0
ELLIPSE
  5
5BF4
330
5BA1
100
AcDbEntity
  8
0
100
AcDbEllipse
 10
22.80449287949359
 20
65.42196128208306
 30
0.0
 11
-1.000000000000001
 21
1.732050807568878
 31
0.0
210
0.0
220
0.0
230
1.0
 40
0.5773502691896259
 41
5.497787143782137
 42
6.283185307179587
  0
LINE
  5
5BF5
330
5BA1
100
AcDbEntity
  8
0
100
AcDbLine
 10
19.26895897356087
 20
36.07292404194642
 30
0.0
 11
19.26895897356085
 21
65.0137129916192
 31
0.0
  0
ELLIPSE
  5
5BF6
330
5BA1
100
AcDbEntity
  8
0
100
AcDbEllipse
 10
23.51159966068015
 20
57.66524376326964
 30
0.0
 11
-1.249999999999996
 21
2.16506350946109
 31
0.0
210
0.0
220
0.0
230
1.0
 40
0.5773502691896258
 41
0.0
 42
6.283185307179586
  0
ELLIPSE
  5
5BF7
330
5BA1
100
AcDbEntity
  8
0
100
AcDbEllipse
 10
25.6329200042398
 20
58.88998863466124
 30
0.0
 11
1.250000000000127
 21
-2.165063509461016
 31
0.0
210
0.0
220
0.0
230
1.0
 40
0.577350269189626
 41
4.154790153685038
 42
5.2699878070841
  0
ELLIPSE
  5
5BF8
330
5BA1
100
AcDbEntity
  8
0
100
AcDbEllipse
 10
43.31058953390349
 20
46.23429163028148
 30
0.0
 11
-1.250000000000003
 21
2.165063509461101
 31
0.0
210
0.0
220
0.0
230
1.0
 40
0.577350269189626
 41
0.0
 42
6.283185307179586
  0
ELLIPSE
  5
5BF9
330
5BA1
100
AcDbEntity
  8
0
100
AcDbEllipse
 10
45.43190987746313
 20
47.45903650167307
 30
0.0
 11
1.250000000000133
 21
-2.165063509461027
 31
0.0
210
0.0
220
0.0
230
1.0
 40
0.5773502691896259
 41
4.154790153685027
 42
5.26998780708411
  0
LINE
  5
5BFA
330
5BA1
100
AcDbEntity
  8
0
100
AcDbLine
 10
36.59307511263133
 20
15.61566984549174
 30
0.0
 11
46.13901665864971
 21
10.10431792422959
 31
0.0
  0
LINE
  5
5BFB
330
5BA1
100
AcDbEntity
  8
0
100
AcDbLine
 10
46.13901665864971
 20
10.10431792422959
 30
0.0
 11
48.26033700220934
 21
11.32906279562118
 31
0.0
  0
LINE
  5
5BFC
330
5BA1
100
AcDbEntity
  8
0
100
AcDbLine
 10
48.26033700220934
 20
11.32906279562118
 30
0.0
 11
38.71439545619097
 21
16.84041471688333
 31
0.0
  0
ELLIPSE
  5
5BFD
330
5BA1
100
AcDbEntity
  8
0
100
AcDbEllipse
 10
48.26033700220934
 20
9.696069633765734
 30
0.0
 11
-1.000000000000106
 21
1.732050807568823
 31
0.0
210
0.0
220
0.0
230
1.0
 40
0.5773502691896257
 41
3.926990816987002
 42
5.497787143781897
  0
ELLIPSE
  5
5BFE
330
5BA1
100
AcDbEntity
  8
0
100
AcDbEllipse
 10
46.13901665864971
 20
8.471324762374143
 30
0.0
 11
0.9999999999998998
 21
-1.732050807568943
 31
0.0
210
0.0
220
0.0
230
1.0
 40
0.5773502691896258
 41
0.785398163397689
 42
2.356194490192587
  0
LINE
  5
5BFF
330
5BA1
100
AcDbEntity
  8
0
100
AcDbLine
 10
47.5532302210228
 20
7.654828181446415
 30
0.0
 11
49.67455056458245
 21
8.879573052838008
 31
0.0
  0
LINE
  5
5C00
330
5BA1
100
AcDbEntity
  8
0
100
AcDbLine
 10
49.67455056458245
 20
-25.20915920089457
 30
0.0
 11
49.67455056458245
 21
8.87957305283801
 31
0.0
  0
LINE
  5
5C01
330
5BA1
100
AcDbEntity
  8
0
100
AcDbLine
 10
47.5532302210228
 20
7.654828181446415
 30
0.0
 11
47.55323022102281
 21
-26.43390407228616
 31
0.0
  0
LINE
  5
5C02
330
5BA1
100
AcDbEntity
  8
0
100
AcDbLine
 10
47.55323022102281
 20
-26.43390407228616
 30
0.0
 11
49.67455056458245
 21
-25.20915920089457
 31
0.0
  0
ELLIPSE
  5
5C03
330
5BA1
100
AcDbEntity
  8
0
100
AcDbEllipse
 10
48.26033700220939
 20
-24.39266261996687
 30
0.0
 11
0.9999999999999785
 21
-1.732050807568841
 31
0.0
210
0.0
220
0.0
230
1.0
 40
0.5773502691896257
 41
0.0000000000000017
 42
0.7853981633974598
  0
ELLIPSE
  5
5C04
330
5BA1
100
AcDbEntity
  8
0
100
AcDbEllipse
 10
46.13901665864974
 20
-25.61740749135847
 30
0.0
 11
0.9999999999999788
 21
-1.732050807568841
 31
0.0
210
0.0
220
0.0
230
1.0
 40
0.5773502691896257
 41
5.497787143782144
 42
7.068583470577045
  0
LINE
  5
5C05
330
5BA1
100
AcDbEntity
  8
0
100
AcDbLine
 10
46.13901665864974
 20
-27.25040065321389
 30
0.0
 11
34.49196129886576
 21
-20.52597010597613
 31
0.0
  0
LINE
  5
5C06
330
5BA1
100
AcDbEntity
  8
0
100
AcDbLine
 10
34.49196129886576
 20
-20.52597010597613
 30
0.0
 11
33.41109459729187
 21
-17.45244168208116
 31
0.0
  0
LINE
  5
5C07
330
5BA1
100
AcDbEntity
  8
0
100
AcDbLine
 10
33.41109459729187
 20
-17.45244168208116
 30
0.0
 11
32.37645753495009
 21
-19.30458343840775
 31
0.0
  0
LINE
  5
5C08
330
5BA1
100
AcDbEntity
  8
0
100
AcDbLine
 10
32.37645753495009
 20
-19.30458343840775
 30
0.0
 11
33.77789383708345
 21
-18.49546381211894
 31
0.0
  0
LINE
  5
5C09
330
5BA1
100
AcDbEntity
  8
0
100
AcDbLine
 10
32.37645753495009
 20
-19.30458343840775
 30
0.0
 11
21.15954034163204
 21
-12.82849327736783
 31
0.0
  0
LINE
  5
5C0A
330
5BA1
100
AcDbEntity
  8
0
100
AcDbLine
 10
36.55326960306363
 20
-4.635174608359875
 30
0.0
 11
33.10243051629012
 21
-3.345439340290017
 31
0.0
  0
LINE
  5
5C0B
330
5BA1
100
AcDbEntity
  8
0
100
AcDbLine
 10
31.27579933679652
 20
-4.680322934020408
 30
0.0
 11
35.27835741389178
 21
-6.176260642131339
 31
0.0
  0
LINE
  5
5C0C
330
5BA1
100
AcDbEntity
  8
0
100
AcDbLine
 10
35.27835741389178
 20
-6.176260642131339
 30
0.0
 11
36.56890439568164
 21
-5.43116299479311
 31
0.0
  0
ELLIPSE
  5
5C0D
330
5BA1
100
AcDbEntity
  8
0
100
AcDbEllipse
 10
45.43190987746315
 20
6.634207455286769
 30
0.0
 11
1.250000000000128
 21
-2.165063509461021
 31
0.0
210
0.0
220
0.0
230
1.0
 40
0.5773502691896255
 41
4.154790153685034
 42
5.269987807084108
  0
ELLIPSE
  5
5C0E
330
5BA1
100
AcDbEntity
  8
0
100
AcDbEllipse
 10
43.31058953390352
 20
5.409462583895177
 30
0.0
 11
1.249999999999999
 21
-2.165063509461095
 31
0.0
210
0.0
220
0.0
230
1.0
 40
0.5773502691896257
 41
0.0
 42
6.283185307179586
  0
ELLIPSE
  5
5C0F
330
5BA1
100
AcDbEntity
  8
0
100
AcDbEllipse
 10
45.43190987746316
 20
-17.86068997254502
 30
0.0
 11
1.250000000000129
 21
-2.165063509461023
 31
0.0
210
0.0
220
0.0
230
1.0
 40
0.5773502691896255
 41
4.154790153685038
 42
5.269987807084103
  0
ELLIPSE
  5
5C10
330
5BA1
100
AcDbEntity
  8
0
100
AcDbEllipse
 10
43.31058953390352
 20
-19.08543484393661
 30
0.0
 11
1.25
 21
-2.165063509461097
 31
0.0
210
0.0
220
0.0
230
1.0
 40
0.5773502691896257
 41
0.0
 42
6.283185307179586
  0
ELLIPSE
  5
5C11
330
5BA1
100
AcDbEntity
  8
0
100
AcDbEllipse
 10
23.51159966068019
 20
-7.654482710948444
 30
0.0
 11
1.25
 21
-2.165063509461095
 31
0.0
210
0.0
220
0.0
230
1.0
 40
0.5773502691896258
 41
6.164993447946589
 42
6.563064884268685
  0
ELLIPSE
  5
5C12
330
5BA1
100
AcDbEntity
  8
0
100
AcDbEllipse
 10
35.00208485496159
 20
-4.207547238650728
 30
0.0
 11
1.124999999999999
 21
-1.948557158514986
 31
0.0
210
0.0
220
0.0
230
1.0
 40
0.5773502691896254
 41
5.672320068981571
 42
7.068583470577033
  0
LINE
  5
5C13
330
5BA1
100
AcDbEntity
  8
0
100
AcDbLine
 10
-34.05778239130081
 20
-59.60155796406549
 30
0.0
 11
-36.17910273486046
 21
-58.3768130926739
 31
0.0
  0
LINE
  5
5C14
330
5BA1
100
AcDbEntity
  8
0
100
AcDbLine
 10
-28.67364118929502
 20
19.3010707685214
 30
0.0
 11
-30.79496153285467
 21
20.52581563991298
 31
0.0
  0
LINE
  5
5C15
330
5BA1
100
AcDbEntity
  8
0
100
AcDbLine
 10
49.26033700220934
 20
40.99130552472337
 30
0.0
 11
47.13901665864969
 21
39.76656065333179
 31
0.0
  0
LINE
  5
5C16
330
5BA1
100
AcDbEntity
  8
0
100
AcDbLine
 10
21.80449287949359
 20
67.15401208965193
 30
0.0
 11
19.68317253593395
 21
65.92926721826035
 31
0.0
  0
LINE
  5
5C17
330
5BA1
100
AcDbEntity
  8
0
100
AcDbLine
 10
47.13901665864972
 20
-27.34945829892731
 30
0.0
 11
49.26033700220937
 21
-26.12471342753572
 31
0.0
  0
ELLIPSE
  5
5C18
330
5BA1
100
AcDbEntity
  8
0
100
AcDbEllipse
 10
-23.86539423587567
 20
-5.205477686658253
 30
0.0
 11
-4.999999999999997
 21
-8.66025403784439
 31
0.0
210
0.0
220
0.0
230
1.0
 40
0.5773502691896258
 41
0.0
 42
6.283185307179586
  0
ELLIPSE
  5
5C19
330
5BA1
100
AcDbEntity
  8
0
100
AcDbEllipse
 10
-27.75448153240168
 20
-2.960112089106998
 30
0.0
 11
-2.125000000000218
 21
-3.680607966083739
 31
0.0
210
0.0
220
0.0
230
0.9999999999999998
 40
0.5773502691896258
 41
0.522599322315898
 42
2.618993331274653
  0
ELLIPSE
  5
5C1A
330
5BA1
100
AcDbEntity
  8
0
100
AcDbEllipse
 10
-25.63316118884204
 20
-4.184856960498586
 30
0.0
 11
2.124999999999998
 21
3.680607966083864
 31
0.0
210
0.0
220
0.0
230
1.0
 40
0.5773502691896258
 41
0.0
 42
6.283185307179586
  0
ELLIPSE
  5
5C1B
330
5BA1
100
AcDbEntity
  8
0
100
AcDbEllipse
 10
-25.63316118884205
 20
-4.184856960498595
 30
0.0
 11
3.07744766521428
 21
5.330295713785354
 31
0.0
210
0.0
220
0.0
230
0.9999999999999998
 40
0.5773502691896259
 41
2.063616828811488
 42
7.361161131957886
  0
ELLIPSE
  5
5C1C
330
5BA1
100
AcDbEntity
  8
0
100
AcDbEllipse
 10
-24.44771746744108
 20
-4.869273212158602
 30
0.0
 11
4.257680619757413
 21
7.374519155821196
 31
0.0
210
0.0
220
0.0
230
1.0
 40
0.5773502691896257
 41
2.684588922369302
 42
6.740189038400077
  0
SPLINE
  5
5C1D
330
5BA1
100
AcDbEntity
  8
0
100
AcDbSpline
210
0.0
220
0.0
230
1.0
 70
     8
 71
     3
 72
    22
 73
    18
 74
     0
 42
0.000000001
 43
0.0000000001
 40
2.813198221412834
 40
2.813198221412834
 40
2.813198221412834
 40
2.813198221412834
 40
3.11111310890511
 40
3.11111310890511
 40
3.395908919360115
 40
3.395908919360115
 40
3.686640010977064
 40
3.686640010977064
 40
3.982571149857848
 40
3.982571149857848
 40
4.279829374183508
 40
4.279829374183508
 40
4.574159548758476
 40
4.574159548758476
 40
4.862152843661362
 40
4.862152843661362
 40
5.040783412561647
 40
5.040783412561647
 40
5.040783412561647
 40
5.040783412561647
 10
-30.14721890427353
 20
-10.40231269253777
 30
0.0
 10
-30.30109441585186
 20
-9.969686678537073
 30
0.0
 10
-30.40400486719092
 20
-9.416466442144177
 30
0.0
 10
-30.43772277009921
 20
-8.158945139107807
 30
0.0
 10
-30.37646465007723
 20
-7.464183662003831
 30
0.0
 10
-30.08086756724178
 20
-5.980448627098988
 30
0.0
 10
-29.84337999589737
 20
-5.190173419076216
 30
0.0
 10
-29.20320917448992
 20
-3.601386019111973
 30
0.0
 10
-28.79785025193271
 20
-2.803162425305583
 30
0.0
 10
-27.8614167774453
 20
-1.295192448950626
 30
0.0
 10
-27.32987456601617
 20
-0.5860827799298374
 30
0.0
 10
-26.20877295188537
 20
0.6589024225454266
 30
0.0
 10
-25.61986124614334
 20
1.196039143395108
 30
0.0
 10
-24.46868004526208
 20
2.045597398165588
 30
0.0
 10
-23.90642481521362
 20
2.361802483156962
 30
0.0
 10
-23.07536572062306
 20
2.696813404922142
 30
0.0
 10
-22.77649773538848
 20
2.783360815741462
 30
0.0
 10
-22.50571543570669
 20
2.833159561233811
 30
0.0
  0
ELLIPSE
  5
5C1E
330
5BA1
100
AcDbEntity
  8
0
100
AcDbEllipse
 10
-23.86539423587567
 20
-24.80139562892369
 30
0.0
 11
-4.999999999999997
 21
-8.66025403784439
 31
0.0
210
0.0
220
0.0
230
1.0
 40
0.5773502691896258
 41
0.0
 42
6.283185307179586
  0
ELLIPSE
  5
5C1F
330
5BA1
100
AcDbEntity
  8
0
100
AcDbEllipse
 10
-23.86539423587567
 20
-44.39731357118912
 30
0.0
 11
-4.999999999999997
 21
-8.66025403784439
 31
0.0
210
0.0
220
0.0
230
1.0
 40
0.5773502691896258
 41
0.0
 42
6.283185307179586
  0
ELLIPSE
  5
5C20
330
5BA1
100
AcDbEntity
  8
0
100
AcDbEllipse
 10
-27.75448153240168
 20
-42.15194797363787
 30
0.0
 11
-2.125000000000216
 21
-3.680607966083737
 31
0.0
210
0.0
220
0.0
230
0.9999999999999998
 40
0.5773502691896259
 41
0.5225993223158972
 42
2.618993331274651
  0
ELLIPSE
  5
5C21
330
5BA1
100
AcDbEntity
  8
0
100
AcDbEllipse
 10
-25.63316118884203
 20
-43.37669284502945
 30
0.0
 11
2.124999999999998
 21
3.680607966083864
 31
0.0
210
0.0
220
0.0
230
1.0
 40
0.5773502691896258
 41
0.0
 42
6.283185307179586
  0
ELLIPSE
  5
5C22
330
5BA1
100
AcDbEntity
  8
0
100
AcDbEllipse
 10
-25.63316118884204
 20
-43.37669284502947
 30
0.0
 11
3.077447665214279
 21
5.330295713785353
 31
0.0
210
0.0
220
0.0
230
1.0
 40
0.5773502691896258
 41
2.063616828811481
 42
7.361161131957892
  0
ELLIPSE
  5
5C23
330
5BA1
100
AcDbEntity
  8
0
100
AcDbEllipse
 10
-24.44771746744106
 20
-44.06110909668948
 30
0.0
 11
4.257680619757413
 21
7.374519155821193
 31
0.0
210
0.0
220
0.0
230
1.0
 40
0.5773502691896259
 41
2.684588922369301
 42
6.740189038400078
  0
ELLIPSE
  5
5C24
330
5BA1
100
AcDbEntity
  8
0
100
AcDbEllipse
 10
-27.75448153240168
 20
-22.55603003137243
 30
0.0
 11
-2.125000000000216
 21
-3.680607966083737
 31
0.0
210
0.0
220
0.0
230
0.9999999999999998
 40
0.5773502691896259
 41
0.5225993223158972
 42
2.618993331274651
  0
ELLIPSE
  5
5C25
330
5BA1
100
AcDbEntity
  8
0
100
AcDbEllipse
 10
-25.63316118884204
 20
-23.78077490276403
 30
0.0
 11
2.124999999999998
 21
3.680607966083864
 31
0.0
210
0.0
220
0.0
230
1.0
 40
0.5773502691896258
 41
0.0
 42
6.283185307179586
  0
ELLIPSE
  5
5C26
330
5BA1
100
AcDbEntity
  8
0
100
AcDbEllipse
 10
-25.63316118884205
 20
-23.78077490276404
 30
0.0
 11
3.077447665214279
 21
5.330295713785354
 31
0.0
210
0.0
220
0.0
230
1.0
 40
0.5773502691896259
 41
2.063616828811488
 42
7.361161131957888
  0
ELLIPSE
  5
5C27
330
5BA1
100
AcDbEntity
  8
0
100
AcDbEllipse
 10
-24.44771746744106
 20
-24.46519115442403
 30
0.0
 11
4.257680619757413
 21
7.374519155821196
 31
0.0
210
0.0
220
0.0
230
1.0
 40
0.5773502691896257
 41
2.684588922369302
 42
6.740189038400077
  0
SPLINE
  5
5C28
330
5BA1
100
AcDbEntity
  8
0
100
AcDbSpline
210
0.0
220
0.0
230
1.0
 70
     8
 71
     3
 72
    22
 73
    18
 74
     0
 42
0.000000001
 43
0.0000000001
 40
2.813198221412836
 40
2.813198221412836
 40
2.813198221412836
 40
2.813198221412836
 40
3.111113108905111
 40
3.111113108905111
 40
3.395908919360116
 40
3.395908919360116
 40
3.686640010977065
 40
3.686640010977065
 40
3.98257114985785
 40
3.98257114985785
 40
4.27982937418351
 40
4.27982937418351
 40
4.574159548758478
 40
4.574159548758478
 40
4.862152843661363
 40
4.862152843661363
 40
5.040783412561645
 40
5.040783412561645
 40
5.040783412561645
 40
5.040783412561645
 10
-30.14721890427353
 20
-49.59414857706864
 30
0.0
 10
-30.30109441585186
 20
-49.16152256306794
 30
0.0
 10
-30.4040048671909
 20
-48.60830232667504
 30
0.0
 10
-30.4377227700992
 20
-47.35078102363867
 30
0.0
 10
-30.37646465007722
 20
-46.65601954653469
 30
0.0
 10
-30.08086756724175
 20
-45.17228451162984
 30
0.0
 10
-29.84337999589736
 20
-44.38200930360707
 30
0.0
 10
-29.20320917448992
 20
-42.79322190364283
 30
0.0
 10
-28.79785025193271
 20
-41.99499830983644
 30
0.0
 10
-27.8614167774453
 20
-40.48702833348148
 30
0.0
 10
-27.32987456601615
 20
-39.77791866446068
 30
0.0
 10
-26.20877295188535
 20
-38.53293346198542
 30
0.0
 10
-25.61986124614333
 20
-37.99579674113575
 30
0.0
 10
-24.46868004526207
 20
-37.14623848636528
 30
0.0
 10
-23.9064248152136
 20
-36.83003340137391
 30
0.0
 10
-23.07536572062305
 20
-36.49502247960874
 30
0.0
 10
-22.77649773538847
 20
-36.40847506878941
 30
0.0
 10
-22.5057154357067
 20
-36.35867632329707
 30
0.0
  0
SPLINE
  5
5C29
330
5BA1
100
AcDbEntity
  8
0
100
AcDbSpline
210
0.0
220
0.0
230
1.0
 70
     8
 71
     3
 72
    22
 73
    18
 74
     0
 42
0.000000001
 43
0.0000000001
 40
2.813198221412835
 40
2.813198221412835
 40
2.813198221412835
 40
2.813198221412835
 40
3.11111310890511
 40
3.11111310890511
 40
3.395908919360115
 40
3.395908919360115
 40
3.686640010977064
 40
3.686640010977064
 40
3.982571149857848
 40
3.982571149857848
 40
4.279829374183508
 40
4.279829374183508
 40
4.574159548758476
 40
4.574159548758476
 40
4.862152843661362
 40
4.862152843661362
 40
5.040783412561647
 40
5.040783412561647
 40
5.040783412561647
 40
5.040783412561647
 10
-30.14721890427353
 20
-29.99823063480321
 30
0.0
 10
-30.30109441585186
 20
-29.56560462080251
 30
0.0
 10
-30.4040048671909
 20
-29.01238438440961
 30
0.0
 10
-30.4377227700992
 20
-27.75486308137324
 30
0.0
 10
-30.37646465007723
 20
-27.06010160426926
 30
0.0
 10
-30.08086756724178
 20
-25.57636656936442
 30
0.0
 10
-29.84337999589736
 20
-24.78609136134165
 30
0.0
 10
-29.20320917448992
 20
-23.19730396137741
 30
0.0
 10
-28.79785025193271
 20
-22.39908036757102
 30
0.0
 10
-27.8614167774453
 20
-20.89111039121605
 30
0.0
 10
-27.32987456601617
 20
-20.18200072219527
 30
0.0
 10
-26.20877295188537
 20
-18.93701551972001
 30
0.0
 10
-25.61986124614334
 20
-18.39987879887033
 30
0.0
 10
-24.46868004526208
 20
-17.55032054409985
 30
0.0
 10
-23.90642481521362
 20
-17.23411545910847
 30
0.0
 10
-23.07536572062306
 20
-16.8991045373433
 30
0.0
 10
-22.77649773538848
 20
-16.81255712652397
 30
0.0
 10
-22.50571543570669
 20
-16.76275838103162
 30
0.0
  0
ELLIPSE
  5
5C2A
330
5BA1
100
AcDbEntity
  8
0
100
AcDbEllipse
 10
19.97522619769022
 20
24.18839922673991
 30
0.0
 11
2.000000000000208
 21
3.464101615137641
 31
0.0
210
0.0
220
0.0
230
1.0
 40
0.5773502691896257
 41
5.497787143782374
 42
8.639379797372171
  0
LINE
  5
5C2B
330
5BA1
100
AcDbEntity
  8
0
100
AcDbLine
 10
22.80365332243644
 20
25.82139238859537
 30
0.0
 11
22.80365332243643
 21
-1.122994782019608
 31
0.0
  0
ELLIPSE
  5
5C2C
330
5BA1
100
AcDbEntity
  8
0
100
AcDbEllipse
 10
19.97522619769024
 20
-2.755987943875064
 30
0.0
 11
-2.000000000000208
 21
-3.464101615137641
 31
0.0
210
0.0
220
0.0
230
1.0
 40
0.5773502691896257
 41
5.497787143782376
 42
8.639379797372171
  0
ELLIPSE
  5
5C2D
330
5BA1
100
AcDbEntity
  8
0
100
AcDbEllipse
 10
20.0847537362104
 20
-2.692752190026768
 30
0.0
 11
-2.5
 21
-0.0000000000001459
 31
0.0
210
0.0
220
0.0
230
1.0
 40
0.5773502691896248
 41
4.262671316763834
 42
5.497787143781984
  0
ELLIPSE
  5
5C2E
330
5BA1
100
AcDbEntity
  8
0
100
AcDbEllipse
 10
18.20745924472387
 20
-1.735367217715406
 30
0.0
 11
-0.0774476652142741
 21
-0.1341432910787077
 31
0.0
210
0.0
220
0.0
230
0.9999999999999998
 40
0.5773502691896258
 41
5.497787143782079
 42
8.639379797371871
  0
ELLIPSE
  5
5C2F
330
5BA1
100
AcDbEntity
  8
0
100
AcDbEllipse
 10
19.39290296612485
 20
-2.419783469375418
 30
0.0
 11
-1.257680619757535
 21
-2.178366733114468
 31
0.0
210
0.0
220
0.0
230
0.9999999999999998
 40
0.5773502691896259
 41
5.826181575959428
 42
8.639379797372171
  0
ELLIPSE
  5
5C30
330
5BA1
100
AcDbEntity
  8
0
100
AcDbEllipse
 10
21.56621645535997
 20
-0.4085602737078498
 30
0.0
 11
-1.75
 21
0.0000000000001074
 31
0.0
210
0.0
220
0.0
230
1.0
 40
0.577350269189625
 41
1.343305203365463
 42
2.356194490192589
  0
ELLIPSE
  5
5C31
330
5BA1
100
AcDbEntity
  8
0
100
AcDbEllipse
 10
20.08475373621041
 20
24.25163498058821
 30
0.0
 11
-2.5
 21
-0.0000000000001459
 31
0.0
210
0.0
220
0.0
230
1.0
 40
0.5773502691896248
 41
4.262671316763833
 42
5.497787143781984
  0
LINE
  5
5C32
330
5BA1
100
AcDbEntity
  8
0
100
AcDbLine
 10
18.31698678324404
 20
25.27225570674787
 30
0.0
 11
18.31698678324403
 21
-1.67213146386711
 31
0.0
  0
LINE
  5
5C33
330
5BA1
100
AcDbEntity
  8
0
100
AcDbLine
 10
21.17153195571958
 20
25.55149562717056
 30
0.0
 11
21.17153195571958
 21
-1.392891543444427
 31
0.0
  0
ELLIPSE
  5
5C34
330
5BA1
100
AcDbEntity
  8
0
100
AcDbEllipse
 10
21.56621645535999
 20
26.53582689690713
 30
0.0
 11
-1.75
 21
0.0000000000001074
 31
0.0
210
0.0
220
0.0
230
1.0
 40
0.577350269189625
 41
1.343305203365463
 42
2.356194490192589
  0
ELLIPSE
  5
5C35
330
5BA1
100
AcDbEntity
  8
0
100
AcDbEllipse
 10
18.20745924472383
 20
25.20901995289956
 30
0.0
 11
0.0774476652142697
 21
0.1341432910786999
 31
0.0
210
0.0
220
0.0
230
0.9999999999999998
 40
0.5773502691896258
 41
5.49778714378154
 42
5.62883140164922
  0
ELLIPSE
  5
5C36
330
5BA1
100
AcDbEntity
  8
0
100
AcDbEllipse
 10
19.39290296612481
 20
24.52460370123957
 30
0.0
 11
1.257680619757407
 21
2.178366733114547
 31
0.0
210
0.0
220
0.0
230
1.0
 40
0.5773502691896258
 41
5.497787143782113
 42
6.740189038400068
  0
SPLINE
  5
5C37
330
5BA1
100
AcDbEntity
  8
0
100
AcDbSpline
210
0.0
220
0.0
230
1.0
 70
     8
 71
     3
 72
    16
 73
    12
 74
     0
 42
0.000000001
 43
0.0000000001
 40
2.813198221412824
 40
2.813198221412824
 40
2.813198221412824
 40
2.813198221412824
 40
2.878877107848218
 40
2.878877107848218
 40
2.944555994283611
 40
2.944555994283611
 40
3.010234880719005
 40
3.010234880719005
 40
3.075913767154399
 40
3.075913767154399
 40
3.141592653589793
 40
3.141592653589793
 40
3.141592653589793
 40
3.141592653589793
 10
17.70932142501053
 20
-4.054193643434462
 30
0.0
 10
17.70535501524256
 20
-4.043041953147885
 30
0.0
 10
17.70087427692288
 20
-4.028981643671141
 30
0.0
 10
17.69172609628743
 20
-3.994984147932916
 30
0.0
 10
17.68706004740763
 20
-3.975049198250841
 30
0.0
 10
17.67830484425349
 20
-3.929461321356297
 30
0.0
 10
17.67421621090924
 20
-3.903810318997518
 30
0.0
 10
17.66726855156922
 20
-3.847099826486193
 30
0.0
 10
17.6644095152336
 20
-3.816041829735214
 30
0.0
 10
17.66045648541933
 20
-3.748925853847104
 30
0.0
 10
17.65936220586759
 20
-3.71286895495217
 30
0.0
 10
17.65936220586759
 20
-3.674546597418757
 30
0.0
  0
SPLINE
  5
5C38
330
5BA1
100
AcDbEntity
  8
0
100
AcDbSpline
210
0.0
220
0.0
230
1.0
 70
     8
 71
     3
 72
    22
 73
    18
 74
     0
 42
0.000000001
 43
0.0000000001
 40
3.141592653589793
 40
3.141592653589793
 40
3.141592653589793
 40
3.141592653589793
 40
3.363002096328806
 40
3.363002096328806
 40
3.600681815233283
 40
3.600681815233283
 40
3.852352465744874
 40
3.852352465744874
 40
4.11094898297121
 40
4.11094898297121
 40
4.367600266020787
 40
4.367600266020787
 40
4.613344275145487
 40
4.613344275145487
 40
4.841958289582596
 40
4.841958289582596
 40
5.040783412561639
 40
5.040783412561639
 40
5.040783412561639
 40
5.040783412561639
 10
17.65936220586757
 20
23.26984057319621
 30
0.0
 10
17.65936220586758
 20
23.39902869264256
 30
0.0
 10
17.67220252661157
 20
23.55400636582789
 30
0.0
 10
17.73428947509977
 20
23.90834136597854
 30
0.0
 10
17.78603166378358
 20
24.11002411391479
 30
0.0
 10
17.93303588952742
 20
24.53829327231206
 30
0.0
 10
18.03061238416526
 20
24.76561283006887
 30
0.0
 10
18.26475453522258
 20
25.21486102374171
 30
0.0
 10
18.40229736426616
 20
25.43643572474949
 30
0.0
 10
18.69817977625953
 20
25.84172563854706
 30
0.0
 10
18.85637056925906
 20
26.02564443557132
 30
0.0
 10
19.1654608901286
 20
26.3322751631453
 30
0.0
 10
19.31639729892393
 20
26.45711359566086
 30
0.0
 10
19.58203926761899
 20
26.64096246071943
 30
0.0
 10
19.69841305156309
 20
26.7037237291308
 30
0.0
 10
19.87024906266694
 20
26.77707942397316
 30
0.0
 10
19.93131338531464
 20
26.79335237585313
 30
0.0
 10
19.96655292650656
 20
26.79983317221664
 30
0.0
  0
LINE
  5
5C39
330
5BA1
100
AcDbEntity
  8
0
100
AcDbLine
 10
17.14679907294404
 20
-4.388981105730529
 30
0.0
 11
17.14679907294402
 21
22.55540606488445
 31
0.0
  0
ELLIPSE
  5
5C3A
330
5BA1
100
AcDbEntity
  8
0
100
AcDbEllipse
 10
19.86569865917007
 20
-2.819223697723356
 30
0.0
 11
2.5
 21
-0.0000000000001436
 31
0.0
210
0.0
220
0.0
230
1.0
 40
0.5773502691896271
 41
2.356194490192661
 42
2.652021452427462
  0
LINE
  5
5C3B
330
5BA1
100
AcDbEntity
  8
0
100
AcDbLine
 10
18.09793170620368
 20
24.89239223154648
 30
0.0
 11
18.09793170620372
 21
-1.798602971563694
 31
0.0
  0
ELLIPSE
  5
5C3C
330
5BA1
100
AcDbEntity
  8
0
100
AcDbEllipse
 10
15.90936220586756
 20
23.2698405731962
 30
0.0
 11
1.75
 21
0.0000000000000037
 31
0.0
210
0.0
220
0.0
230
1.0
 40
0.5773502691896272
 41
5.497787143782138
 42
6.283185307179587
  0
ELLIPSE
  5
5C3D
330
5BA1
100
AcDbEntity
  8
0
100
AcDbEllipse
 10
15.90936220586758
 20
-3.674546597418766
 30
0.0
 11
1.75
 21
0.0000000000000037
 31
0.0
210
0.0
220
0.0
230
1.0
 40
0.5773502691896272
 41
5.497787143782137
 42
6.28318530717959
  0
LINE
  5
5C3E
330
5BA1
100
AcDbEntity
  8
0
100
AcDbLine
 10
17.65936220586759
 20
-3.674546597418757
 30
0.0
 11
17.65936220586756
 21
23.2698405731962
 31
0.0
  0
LINE
  5
5C3F
330
5BA1
100
AcDbEntity
  8
0
100
AcDbLine
 10
32.35043442551202
 20
18.96274614662975
 30
0.0
 11
32.35043442551202
 21
38.74665545511751
 31
0.0
  0
ELLIPSE
  5
5C40
330
5BA1
100
AcDbEntity
  8
0
100
AcDbEllipse
 10
28.10779373839274
 20
21.7393942024497
 30
0.0
 11
6.000000000000001
 21
0.0000000000000688
 31
0.0
210
0.0
220
0.0
230
1.0
 40
0.5773502691896334
 41
5.818270892432495
 42
6.28318530717958
  0
SPLINE
  5
5C41
330
5BA1
100
AcDbEntity
  8
0
100
AcDbSpline
210
0.0
220
0.0
230
1.0
 70
     8
 71
     3
 72
    12
 73
     8
 74
     0
 42
0.000000001
 43
0.0000000001
 40
0.0
 40
0.0
 40
0.0
 40
0.0
 40
0.23767537848863
 40
0.23767537848863
 40
0.3944506176828553
 40
0.3944506176828553
 40
0.5512258570530229
 40
0.5512258570530229
 40
0.5512258570530229
 40
0.5512258570530229
 10
34.06093785825289
 20
41.10404091773833
 30
0.0
 10
34.15908015910737
 20
40.72881021716775
 30
0.0
 10
34.10270165048134
 20
40.34608347020379
 30
0.0
 10
33.75802950764941
 20
39.74419195836749
 30
0.0
 10
33.55666074106461
 20
39.51624060355329
 30
0.0
 10
33.0352633246054
 20
39.09763077940695
 30
0.0
 10
32.71743153021491
 20
38.90873889514347
 30
0.0
 10
32.35043442551202
 20
38.74665545511751
 30
0.0
  0
LINE
  5
5C42
330
5BA1
100
AcDbEntity
  8
0
100
AcDbLine
 10
31.08436579832281
 20
40.88800174533083
 30
0.0
 11
34.0609378582529
 21
41.10404091773833
 31
0.0
  0
SPLINE
  5
5C43
330
5BA1
100
AcDbEntity
  8
0
100
AcDbSpline
210
0.0
220
0.0
230
1.0
 70
     8
 71
     3
 72
    12
 73
     8
 74
     0
 42
0.000000001
 43
0.0000000001
 40
0.0
 40
0.0
 40
0.0
 40
0.0
 40
0.1237096560088968
 40
0.1237096560088968
 40
0.2024560230578827
 40
0.2024560230578827
 40
0.2812023894290549
 40
0.2812023894290549
 40
0.2812023894290549
 40
0.2812023894290549
 10
30.22911408195237
 20
39.9714003265091
 30
0.0
 10
30.51296519894291
 20
40.05824328840505
 30
0.0
 10
30.73697765621422
 20
40.17708990215465
 30
0.0
 10
30.98388505975786
 20
40.40249579001848
 30
0.0
 10
31.04927581648713
 20
40.49689315600509
 30
0.0
 10
31.11558744491376
 20
40.69137629569221
 30
0.0
 10
31.11623743791187
 20
40.79066495964546
 30
0.0
 10
31.08436579832281
 20
40.88800174533083
 30
0.0
  0
LINE
  5
5C44
330
5BA1
100
AcDbEntity
  8
0
100
AcDbLine
 10
30.93551128946846
 20
39.5635617085949
 30
0.0
 11
30.22911408195237
 21
39.9714003265091
 31
0.0
  0
LINE
  5
5C45
330
5BA1
100
AcDbEntity
  8
0
100
AcDbLine
 10
32.35043442551202
 20
38.74665545511751
 30
0.0
 11
30.93551128946846
 21
39.5635617085949
 31
0.0
  0
SPLINE
  5
5C46
330
5BA1
100
AcDbEntity
  8
0
100
AcDbSpline
210
0.0
220
0.0
230
1.0
 70
     8
 71
     3
 72
    18
 73
    14
 74
     0
 42
0.000000001
 43
0.0000000001
 40
0.0570169078954435
 40
0.0570169078954435
 40
0.0570169078954435
 40
0.0570169078954435
 40
0.0759466568711129
 40
0.0759466568711129
 40
0.1133684429731229
 40
0.1133684429731229
 40
0.1697492446639237
 40
0.1697492446639237
 40
0.2688410643610644
 40
0.2688410643610644
 40
0.382110548974237
 40
0.382110548974237
 40
0.4914954746732328
 40
0.4914954746732328
 40
0.4914954746732328
 40
0.4914954746732328
 10
32.4257713054426
 20
44.42645142164874
 30
0.0
 10
32.44192001307769
 20
44.36784292207537
 30
0.0
 10
32.46034934939336
 20
44.30887052762521
 30
0.0
 10
32.52100388608783
 20
44.13293750081922
 30
0.0
 10
32.56866579344708
 20
44.0161139654539
 30
0.0
 10
32.70016538067247
 20
43.7254932996551
 30
0.0
 10
32.78945505139044
 20
43.55400071605997
 30
0.0
 10
33.04250769300803
 20
43.09565632368034
 30
0.0
 10
33.21135315778724
 20
42.81828886732245
 30
0.0
 10
33.54004386129113
 20
42.26023454034424
 30
0.0
 10
33.6950056938508
 20
41.98534530078638
 30
0.0
 10
33.93087944093199
 20
41.49742461043341
 30
0.0
 10
34.01369007295696
 20
41.28481002916837
 30
0.0
 10
34.06093785825289
 20
41.10404091773832
 30
0.0
  0
LINE
  5
5C47
330
5BA1
100
AcDbEntity
  8
0
100
AcDbLine
 10
30.22911408195236
 20
43.70591481152745
 30
0.0
 11
31.84990207324239
 21
44.64167719459806
 31
0.0
  0
SPLINE
  5
5C48
330
5BA1
100
AcDbEntity
  8
0
100
AcDbSpline
210
0.0
220
0.0
230
1.0
 70
     8
 71
     3
 72
    18
 73
    14
 74
     0
 42
0.000000001
 43
0.0000000001
 40
0.0
 40
0.0
 40
0.0
 40
0.0
 40
0.0471830120678907
 40
0.0471830120678907
 40
0.0950116998656097
 40
0.0950116998656097
 40
0.1538177585970938
 40
0.1538177585970938
 40
0.2246331071199031
 40
0.2246331071199031
 40
0.2730249789767294
 40
0.2730249789767294
 40
0.3384205720743678
 40
0.3384205720743678
 40
0.3384205720743678
 40
0.3384205720743678
 10
31.08436579832281
 20
40.8880017453308
 30
0.0
 10
31.06526720909926
 20
40.94638330840199
 30
0.0
 10
31.03385191534012
 20
41.0288863732839
 30
0.0
 10
30.94679793900749
 20
41.23866964041595
 30
0.0
 10
30.89278563038679
 20
41.36202280629136
 30
0.0
 10
30.76114803503639
 20
41.66392434113189
 30
0.0
 10
30.68355252771823
 20
41.84339120978297
 30
0.0
 10
30.52342618471362
 20
42.24787892929031
 30
0.0
 10
30.44411046890413
 20
42.47298941904237
 30
0.0
 10
30.34006724250442
 20
42.84430131154222
 30
0.0
 10
30.30574367370104
 20
42.99323821520101
 30
0.0
 10
30.24642689011782
 20
43.33576426378368
 30
0.0
 10
30.22909942431941
 20
43.52881981081752
 30
0.0
 10
30.22911408195236
 20
43.70591481152745
 30
0.0
  0
SPLINE
  5
5C49
330
5BA1
100
AcDbEntity
  8
0
100
AcDbSpline
210
0.0
220
0.0
230
1.0
 70
     8
 71
     3
 72
    10
 73
     6
 74
     0
 42
0.000000001
 43
0.0000000001
 40
0.0
 40
0.0
 40
0.0
 40
0.0
 40
0.0492998671178942
 40
0.0492998671178942
 40
0.0831233211128236
 40
0.0831233211128236
 40
0.0831233211128236
 40
0.0831233211128236
 10
32.35043442551202
 20
18.96274614662976
 30
0.0
 10
32.45599383349372
 20
19.07978440236114
 30
0.0
 10
32.6871053299516
 20
19.32847195224406
 30
0.0
 10
33.15193574890136
 20
19.82848884631755
 30
0.0
 10
33.32362806595132
 20
20.01669873489932
 30
0.0
 10
33.47095338266473
 20
20.18627705404007
 30
0.0
  0
LINE
  5
5C4A
330
5BA1
100
AcDbEntity
  8
0
100
AcDbLine
 10
30.22911408195236
 20
39.9714003265091
 30
0.0
 11
30.22911408195236
 21
43.70591481152745
 31
0.0
  0
LINE
  5
5C4B
330
5BA1
100
AcDbEntity
  8
0
100
AcDbLine
 10
34.10779373839274
 20
21.73939420244973
 30
0.0
 11
34.10779373839273
 21
40.74396199191354
 31
0.0
  0
ENDBLK
  5
5BA3
330
5BA1
100
AcDbEntity
  8
0
100
AcDbBlockEnd
  0
ENDSEC
  0
SECTION
  2
ENTITIES
  0
INSERT
  5
5C4C
330
1F
100
AcDbEntity
  8
0
100
AcDbBlockReference
  2
TU12-Front
 10
0.0
 20
0.0
 30
0.0
  0
INSERT
  5
5C4D
330
1F
100
AcDbEntity
  8
0
100
AcDbBlockReference
  2
TU12-Left
 10
48.8000823827522
 20
0.0
 30
0.0
  0
INSERT
  5
5C4E
330
1F
100
AcDbEntity
  8
0
100
AcDbBlockReference
  2
TU12-Right
 10
-48.80008336104665
 20
0.0
 30
0.0
  0
INSERT
  5
5C4F
330
1F
100
AcDbEntity
  8
0
100
AcDbBlockReference
  2
TU12-Top
 10
0.0
 20
-76.80000000000001
 30
0.0
  0
INSERT
  5
5C50
330
1F
100
AcDbEntity
  8
0
100
AcDbBlockReference
  2
TU12-Bottom
 10
0.0
 20
76.80000000000003
 30
0.0
  0
INSERT
  5
5C51
330
1F
100
AcDbEntity
  8
0
100
AcDbBlockReference
  2
TU12-ISO
 10
85.39331580808637
 20
-144.0477031404336
 30
0.0
  0
MTEXT
  5
5C52
330
1F
100
AcDbEntity
  8
0
100
AcDbMText
 10
0.0
 20
-206.1011873129767
 30
0.0
 40
9.600000000000003
 41
0.0
 71
     5
 72
     5
  1
TU12
 73
     1
 44
1.0
1001
ACAD
1000
MTEXTBEGIN
1070
    73
1070
     1
1070
    44
1040
1.0
1070
    74
1070
     0
1000
MTEXTEND
  0
ENDSEC
  0
SECTION
  2
OBJECTS
  0
DICTIONARY
  5
C
330
0
100
AcDbDictionary
281
     1
  3
ACAD_CIP_PREVIOUS_PRODUCT_INFO
350
216
  3
ACAD_COLOR
350
6B
  3
ACAD_DETAILVIEWSTYLE
350
21B
  3
ACAD_GROUP
350
D
  3
ACAD_LAYOUT
350
1A
  3
ACAD_MATERIAL
350
6A
  3
ACAD_MLEADERSTYLE
350
12D
  3
ACAD_MLINESTYLE
350
17
  3
ACAD_PLOTSETTINGS
350
19
  3
ACAD_PLOTSTYLENAME
350
E
  3
ACAD_SCALELIST
350
10C
  3
ACAD_SECTIONVIEWSTYLE
350
219
  3
ACAD_TABLESTYLE
350
7E
  3
ACAD_VISUALSTYLE
350
EF
  3
ACDB_RECOMPOSE_DATA
350
5D53
  3
AcDbVariableDictionary
350
5E
  3
DWGPROPS
350
5D54
  0
DICTIONARY
  5
5CA3
330
8
100
AcDbDictionary
280
     1
281
     1
  0
DICTIONARY
  5
1FF
330
2
100
AcDbDictionary
280
     1
281
     1
  3
ACAD_LAYERSTATES
360
200
  0
DICTIONARY
  5
13C
330
10
100
AcDbDictionary
280
     1
281
     1
  0
DICTIONARY
  5
1CE
330
1F
100
AcDbDictionary
280
     1
281
     1
  3
ACAD_LAYOUTSELFREF
360
5CAB
  0
DICTIONARY
  5
5C56
330
D2
100
AcDbDictionary
280
     1
281
     1
  3
ACAD_LAYOUTSELFREF
360
5CB4
  0
DICTIONARY
  5
5C58
330
D6
100
AcDbDictionary
280
     1
281
     1
  3
ACAD_LAYOUTSELFREF
360
5CB7
  0
XRECORD
  5
216
102
{ACAD_REACTORS
330
C
102
}
330
C
100
AcDbXrecord
280
     1
300
ACD
300
2021
300

  0
DICTIONARY
  5
6B
102
{ACAD_REACTORS
330
C
102
}
330
C
100
AcDbDictionary
281
     1
  0
DICTIONARY
  5
21B
102
{ACAD_REACTORS
330
C
102
}
330
C
100
AcDbDictionary
281
     1
  3
Metric50
350
21C
  0
DICTIONARY
  5
D
102
{ACAD_REACTORS
330
C
102
}
330
C
100
AcDbDictionary
281
     1
  0
DICTIONARY
  5
1A
102
{ACAD_REACTORS
330
C
102
}
330
C
100
AcDbDictionary
281
     1
  3
Layout1
350
D3
  3
Layout2
350
D7
  3
Model
350
22
  0
DICTIONARY
  5
6A
102
{ACAD_REACTORS
330
C
102
}
330
C
100
AcDbDictionary
281
     1
  3
ByBlock
350
ED
  3
ByLayer
350
EC
  3
Global
350
EE
  0
DICTIONARY
  5
12D
102
{ACAD_REACTORS
330
C
102
}
330
C
100
AcDbDictionary
281
     1
  3
Standard
350
12E
  0
DICTIONARY
  5
17
102
{ACAD_REACTORS
330
C
102
}
330
C
100
AcDbDictionary
281
     1
  3
Standard
350
18
  0
DICTIONARY
  5
19
102
{ACAD_REACTORS
330
C
102
}
330
C
100
AcDbDictionary
281
     1
  0
ACDBDICTIONARYWDFLT
  5
E
102
{ACAD_REACTORS
330
C
102
}
330
C
100
AcDbDictionary
281
     1
  3
Normal
350
F
100
AcDbDictionaryWithDefault
340
F
  0
DICTIONARY
  5
10C
102
{ACAD_REACTORS
330
C
102
}
330
C
100
AcDbDictionary
281
     1
  3
A0
350
10D
  3
A1
350
1BE
  3
A2
350
1BF
  3
A3
350
1C0
  3
A4
350
1C1
  3
A5
350
1C2
  3
A6
350
1C3
  3
A7
350
1C4
  3
A8
350
1C5
  3
A9
350
1C6
  3
B0
350
1C7
  3
B1
350
1C8
  3
B2
350
1C9
  3
B3
350
1CA
  3
B4
350
1CB
  3
B5
350
1CC
  3
B6
350
1CD
  0
DICTIONARY
  5
219
102
{ACAD_REACTORS
330
C
102
}
330
C
100
AcDbDictionary
281
     1
  3
Metric50
350
21A
  0
DICTIONARY
  5
7E
102
{ACAD_REACTORS
330
C
102
}
330
C
100
AcDbDictionary
281
     1
  3
Standard
350
7F
  0
DICTIONARY
  5
EF
102
{ACAD_REACTORS
330
C
102
}
330
C
100
AcDbDictionary
281
     1
  3
2dWireframe
350
F5
  3
Basic
350
F4
  3
Brighten
350
FB
  3
ColorChange
350
FF
  3
Conceptual
350
F8
  3
Dim
350
FA
  3
EdgeColorOff
350
1E6
  3
Facepattern
350
FE
  3
Flat
350
F0
  3
FlatWithEdges
350
F1
  3
Gouraud
350
F2
  3
GouraudWithEdges
350
F3
  3
Hidden
350
F7
  3
JitterOff
350
1E4
  3
Linepattern
350
FD
  3
OverhangOff
350
1E5
  3
Realistic
350
F9
  3
Shaded
350
1F3
  3
Shaded with edges
350
1F2
  3
Shades of Gray
350
1EF
  3
Sketchy
350
1F0
  3
Thicken
350
FC
  3
Wireframe
350
F6
  3
X-Ray
350
1F1
  0
XRECORD
  5
5D53
102
{ACAD_REACTORS
330
C
102
}
330
C
100
AcDbXrecord
280
     1
 90
        1
330
7F
  0
DICTIONARY
  5
5E
102
{ACAD_REACTORS
330
C
102
}
330
C
100
AcDbDictionary
281
     1
  3
CANNOSCALE
350
146
  3
CENTEREXE
350
259
  3
CENTERLTYPEFILE
350
25A
  3
CMLEADERSTYLE
350
145
  3
CTABLESTYLE
350
84
  3
CVIEWDETAILSTYLE
350
227
  3
CVIEWSECTIONSTYLE
350
228
  3
DIMASSOC
350
5F
  3
HIDETEXT
350
63
  3
INDEXCTL
350
5D00
  3
LAYEREVAL
350
1AE
  3
LAYERNOTIFY
350
1AF
  3
LIGHTINGUNITS
350
5CFE
  3
MSLTSCALE
350
5CFD
  3
PSOLHEIGHT
350
5D50
  3
PSOLWIDTH
350
5D4F
  3
SORTENTS
350
5CFF
  3
XCLIPFRAME
350
5D51
  0
XRECORD
  5
5D54
102
{ACAD_REACTORS
330
C
102
}
330
C
100
AcDbXrecord
280
     1
  1
DWGPROPS COOKIE
  2

  3

  4

  6

  7

  8
tronnguyen
  9

300
=
301
=
302
=
303
=
304
=
305
=
306
=
307
=
308
=
309
=
 40
0.00375
 41
2460367.705740741
 42
2460367.713703703
  1

 90
        0
  0
DICTIONARY
  5
200
102
{ACAD_REACTORS
330
1FF
102
}
330
1FF
100
AcDbDictionary
281
     1
  0
XRECORD
  5
5CAB
102
{ACAD_REACTORS
330
1CE
102
}
330
1CE
100
AcDbXrecord
280
     1
340
1F
  0
XRECORD
  5
5CB4
102
{ACAD_REACTORS
330
5C56
102
}
330
5C56
100
AcDbXrecord
280
     1
340
D2
  0
XRECORD
  5
5CB7
102
{ACAD_REACTORS
330
5C58
102
}
330
5C58
100
AcDbXrecord
280
     1
340
D6
  0
ACDBDETAILVIEWSTYLE
  5
21C
102
{ACAD_XDICTIONARY
360
5D93
102
}
102
{ACAD_REACTORS
330
21B
102
}
330
21B
100
AcDbModelDocViewStyle
 70
     0
  3
Metric50
290
     0
100
AcDbDetailViewStyle
 70
     0
 71
     0
 90
        3
 71
     1
340
11
 40
5.0
340
0
 40
5.0
300

 40
0.0
280
     1
 71
     2
340
16
 90
       25
 71
     3
340
11
 40
5.0
 90
        0
 40
15.0
 90
        1
300
%<\AcVar ViewDetailId>% (%<\AcVar ViewScale \f "%sn">%)
 71
     4
340
16
 90
       25
340
16
 90
       25
280
     0
  0
LAYOUT
  5
D3
102
{ACAD_XDICTIONARY
360
5D58
102
}
102
{ACAD_REACTORS
330
1A
102
}
330
1A
100
AcDbPlotSettings
  1

  2
C:\Documents and Settings\basas\Application Data\Autodesk\AutoCAD 2005\R16.1\enu\plotters\Default Windows System Printer.pc3
  4

  6

 40
0.0
 41
0.0
 42
0.0
 43
0.0
 44
0.0
 45
0.0
 46
0.0
 47
0.0
 48
0.0
 49
0.0
140
0.0
141
0.0
142
1.0
143
1.0
 70
   688
 72
     0
 73
     0
 74
     5
  7

 75
    16
147
1.0
148
0.0
149
0.0
100
AcDbLayout
  1
Layout1
 70
     1
 71
     1
 10
0.0
 20
0.0
 11
12.0
 21
9.0
 12
0.0
 22
0.0
 32
0.0
 14
0.0
 24
0.0
 34
0.0
 15
0.0
 25
0.0
 35
0.0
146
0.0
 13
0.0
 23
0.0
 33
0.0
 16
1.0
 26
0.0
 36
0.0
 17
0.0
 27
1.0
 37
0.0
 76
     0
330
D2
  0
LAYOUT
  5
D7
102
{ACAD_XDICTIONARY
360
5D5A
102
}
102
{ACAD_REACTORS
330
1A
102
}
330
1A
100
AcDbPlotSettings
  1

  2
C:\Documents and Settings\basas\Application Data\Autodesk\AutoCAD 2005\R16.1\enu\plotters\Default Windows System Printer.pc3
  4

  6

 40
0.0
 41
0.0
 42
0.0
 43
0.0
 44
0.0
 45
0.0
 46
0.0
 47
0.0
 48
0.0
 49
0.0
140
0.0
141
0.0
142
1.0
143
1.0
 70
   688
 72
     0
 73
     0
 74
     5
  7

 75
    16
147
1.0
148
0.0
149
0.0
100
AcDbLayout
  1
Layout2
 70
     1
 71
     2
 10
0.0
 20
0.0
 11
12.0
 21
9.0
 12
0.0
 22
0.0
 32
0.0
 14
0.0
 24
0.0
 34
0.0
 15
0.0
 25
0.0
 35
0.0
146
0.0
 13
0.0
 23
0.0
 33
0.0
 16
1.0
 26
0.0
 36
0.0
 17
0.0
 27
1.0
 37
0.0
 76
     0
330
D6
  0
LAYOUT
  5
22
102
{ACAD_XDICTIONARY
360
5D55
102
}
102
{ACAD_REACTORS
330
1A
102
}
330
1A
100
AcDbPlotSettings
  1

  2
none_device
  4
ISO_A4_(210.00_x_297.00_MM)
  6

 40
7.5
 41
20.0
 42
7.5
 43
20.0
 44
210.0
 45
297.0
 46
11.54999923706054
 47
-13.65000009536743
 48
0.0
 49
0.0
140
0.0
141
0.0
142
1.0
143
8.704084754739808
 70
 11952
 72
     1
 73
     0
 74
     0
  7

 75
     0
147
0.1148885871608098
148
0.0
149
0.0
100
AcDbLayout
  1
Model
 70
     1
 71
     0
 10
0.0
 20
0.0
 11
12.0
 21
9.0
 12
0.0
 22
0.0
 32
0.0
 14
0.0
 24
0.0
 34
0.0
 15
0.0
 25
0.0
 35
0.0
146
0.0
 13
0.0
 23
0.0
 33
0.0
 16
1.0
 26
0.0
 36
0.0
 17
0.0
 27
1.0
 37
0.0
 76
     0
330
1F
331
EA
1001
ACAD_PSEXT
1000
None
1000
None
1000
Not applicable
1000
The layout will not be plotted unless a new plotter configuration name is selected.
1070
     0
  0
MATERIAL
  5
ED
102
{ACAD_XDICTIONARY
360
1F9
102
}
102
{ACAD_REACTORS
330
6A
102
}
330
6A
100
AcDbMaterial
  1
ByBlock
  0
MATERIAL
  5
EC
102
{ACAD_XDICTIONARY
360
1F7
102
}
102
{ACAD_REACTORS
330
6A
102
}
330
6A
100
AcDbMaterial
  1
ByLayer
  0
MATERIAL
  5
EE
102
{ACAD_XDICTIONARY
360
173
102
}
102
{ACAD_REACTORS
330
6A
102
}
330
6A
100
AcDbMaterial
  1
Global
 43
0.0007999999797903
 43
0.0
 43
0.0
 43
0.0
 43
0.0
 43
0.0007999999797903
 43
0.0
 43
0.0
 43
0.0
 43
0.0
 43
1.0
 43
0.0
 43
0.0
 43
0.0
 43
0.0
 43
1.0
 49
0.0007999999797903
 49
0.0
 49
0.0
 49
0.0
 49
0.0
 49
0.0007999999797903
 49
0.0
 49
0.0
 49
0.0
 49
0.0
 49
1.0
 49
0.0
 49
0.0
 49
0.0
 49
0.0
 49
1.0
142
0.0007999999797903
142
0.0
142
0.0
142
0.0
142
0.0
142
0.0007999999797903
142
0.0
142
0.0
142
0.0
142
0.0
142
1.0
142
0.0
142
0.0
142
0.0
142
0.0
142
1.0
144
0.0007999999797903
144
0.0
144
0.0
144
0.0
144
0.0
144
0.0007999999797903
144
0.0
144
0.0
144
0.0
144
0.0
144
1.0
144
0.0
144
0.0
144
0.0
144
0.0
144
1.0
1001
ACAD
1070
    -1
1070
     3
1070
     0
1000

1071
        0
1070
     0
  0
MLEADERSTYLE
  5
12E
102
{ACAD_XDICTIONARY
360
5D7F
102
}
102
{ACAD_REACTORS
330
12D
102
}
330
12D
100
AcDbMLeaderStyle
170
     2
171
     1
172
     0
 90
        2
 40
0.0
 41
0.0
173
     1
 91
-1056964608
340
14
 92
       -2
290
     1
 42
2.0
291
     1
 43
8.0
  3
Standard
 44
4.0
300

342
11
174
     1
178
     1
175
     1
176
     0
 93
-1056964608
 45
4.0
292
     0
297
     0
 46
4.0
 94
-1056964608
 47
1.0
 49
1.0
140
1.0
293
     1
141
0.0
294
     1
177
     0
142
1.0
295
     0
296
     0
143
3.75
1001
ACAD_MLEADERVER
1070
     2
  0
MLINESTYLE
  5
18
102
{ACAD_REACTORS
330
17
102
}
330
17
100
AcDbMlineStyle
  2
STANDARD
 70
     0
  3

 62
   256
 51
90.0
 52
90.0
 71
     2
 49
0.5
 62
   256
  6
BYLAYER
 49
-0.5
 62
   256
  6
BYLAYER
  0
ACDBPLACEHOLDER
  5
F
102
{ACAD_REACTORS
330
E
102
}
330
E
  0
SCALE
  5
10D
102
{ACAD_REACTORS
330
10C
102
}
330
10C
100
AcDbScale
 70
     0
300
1:1
140
1.0
141
1.0
290
     1
  0
SCALE
  5
1BE
102
{ACAD_REACTORS
330
10C
102
}
330
10C
100
AcDbScale
 70
     0
300
1:2
140
1.0
141
2.0
290
     0
  0
SCALE
  5
1BF
102
{ACAD_REACTORS
330
10C
102
}
330
10C
100
AcDbScale
 70
     0
300
1:4
140
1.0
141
4.0
290
     0
  0
SCALE
  5
1C0
102
{ACAD_REACTORS
330
10C
102
}
330
10C
100
AcDbScale
 70
     0
300
1:5
140
1.0
141
5.0
290
     0
  0
SCALE
  5
1C1
102
{ACAD_REACTORS
330
10C
102
}
330
10C
100
AcDbScale
 70
     0
300
1:8
140
1.0
141
8.0
290
     0
  0
SCALE
  5
1C2
102
{ACAD_REACTORS
330
10C
102
}
330
10C
100
AcDbScale
 70
     0
300
1:10
140
1.0
141
10.0
290
     0
  0
SCALE
  5
1C3
102
{ACAD_REACTORS
330
10C
102
}
330
10C
100
AcDbScale
 70
     0
300
1:16
140
1.0
141
16.0
290
     0
  0
SCALE
  5
1C4
102
{ACAD_REACTORS
330
10C
102
}
330
10C
100
AcDbScale
 70
     0
300
1:20
140
1.0
141
20.0
290
     0
  0
SCALE
  5
1C5
102
{ACAD_REACTORS
330
10C
102
}
330
10C
100
AcDbScale
 70
     0
300
1:30
140
1.0
141
30.0
290
     0
  0
SCALE
  5
1C6
102
{ACAD_REACTORS
330
10C
102
}
330
10C
100
AcDbScale
 70
     0
300
1:40
140
1.0
141
40.0
290
     0
  0
SCALE
  5
1C7
102
{ACAD_REACTORS
330
10C
102
}
330
10C
100
AcDbScale
 70
     0
300
1:50
140
1.0
141
50.0
290
     0
  0
SCALE
  5
1C8
102
{ACAD_REACTORS
330
10C
102
}
330
10C
100
AcDbScale
 70
     0
300
1:100
140
1.0
141
100.0
290
     0
  0
SCALE
  5
1C9
102
{ACAD_REACTORS
330
10C
102
}
330
10C
100
AcDbScale
 70
     0
300
2:1
140
2.0
141
1.0
290
     0
  0
SCALE
  5
1CA
102
{ACAD_REACTORS
330
10C
102
}
330
10C
100
AcDbScale
 70
     0
300
4:1
140
4.0
141
1.0
290
     0
  0
SCALE
  5
1CB
102
{ACAD_REACTORS
330
10C
102
}
330
10C
100
AcDbScale
 70
     0
300
8:1
140
8.0
141
1.0
290
     0
  0
SCALE
  5
1CC
102
{ACAD_REACTORS
330
10C
102
}
330
10C
100
AcDbScale
 70
     0
300
10:1
140
10.0
141
1.0
290
     0
  0
SCALE
  5
1CD
102
{ACAD_REACTORS
330
10C
102
}
330
10C
100
AcDbScale
 70
     0
300
100:1
140
100.0
141
1.0
290
     0
  0
ACDBSECTIONVIEWSTYLE
  5
21A
102
{ACAD_XDICTIONARY
360
5D91
102
}
102
{ACAD_REACTORS
330
219
102
}
330
219
100
AcDbModelDocViewStyle
 70
     0
  3
Metric50
290
     0
100
AcDbSectionViewStyle
 70
     0
 71
     0
 90
      102
 71
     1
340
11
 40
5.0
340
0
340
0
 40
5.0
300
I, O, Q, S, X, Z
 40
10.0
 90
        0
 40
2.5
 90
        0
 71
     2
340
16
 90
       25
340
16
 90
       50
 40
5.0
 40
2.5
 40
5.0
 71
     3
340
11
 40
5.0
 90
        0
 40
15.0
 90
        1
300
%<\AcVar ViewSectionStartId>%-%<\AcVar ViewSectionEndId>% (%<\AcVar ViewScale \f "%sn">%)
 71
     4
300
ANSI31
 40
1.0
 90
        0
290
     0
290
     0
 90
        6
 40
0.0
 40
1.570796326794896
 40
0.2617993877991494
 40
1.308996938995747
 40
-0.2617993877991494
 40
1.832595714594046
  0
TABLESTYLE
  5
7F
102
{ACAD_XDICTIONARY
360
162
102
}
102
{ACAD_REACTORS
330
7E
102
}
330
7E
100
AcDbTableStyle
  3
Standard
 70
     0
 71
     0
 40
1.5
 41
1.5
280
     0
281
     0
  7
Standard
140
4.5
170
     2
 62
     0
 63
     7
283
     0
274
    -2
284
     1
 64
     0
275
    -2
285
     1
 65
     0
276
    -2
286
     1
 66
     0
277
    -2
287
     1
 67
     0
278
    -2
288
     1
 68
     0
279
    -2
289
     1
 69
     0
  7
Standard
140
6.0
170
     5
 62
     0
 63
     7
283
     0
274
    -2
284
     1
 64
     0
275
    -2
285
     1
 65
     0
276
    -2
286
     1
 66
     0
277
    -2
287
     1
 67
     0
278
    -2
288
     1
 68
     0
279
    -2
289
     1
 69
     0
  7
Standard
140
4.5
170
     5
 62
     0
 63
     7
283
     0
274
    -2
284
     1
 64
     0
275
    -2
285
     1
 65
     0
276
    -2
286
     1
 66
     0
277
    -2
287
     1
 67
     0
278
    -2
288
     1
 68
     0
279
    -2
289
     1
 69
     0
  0
VISUALSTYLE
  5
F5
102
{ACAD_XDICTIONARY
360
5D69
102
}
102
{ACAD_REACTORS
330
EF
102
}
330
EF
100
AcDbVisualStyle
  2
2dWireframe
 70
     4
 71
     0
 72
     2
 73
     1
 90
        0
 40
-0.6
 41
-30.0
 62
     5
 63
     7
 74
     1
 91
        4
 64
     7
 65
   257
 75
     1
175
     1
 42
1.0
 92
        0
 66
   257
 43
1.0
 76
     1
 77
     6
 78
     2
 67
     7
 79
     5
170
     0
171
     0
290
     0
174
     0
 93
        1
 44
0.0
173
     0
291
     0
 45
0.0
1001
ACAD
1000
AcDbSavedByObjectVersion
1070
     0
  0
VISUALSTYLE
  5
F4
102
{ACAD_XDICTIONARY
360
5D67
102
}
102
{ACAD_REACTORS
330
EF
102
}
330
EF
100
AcDbVisualStyle
  2
Basic
 70
     7
 71
     1
 72
     0
 73
     1
 90
        0
 40
-0.6
 41
-30.0
 62
     5
 63
     7
 74
     0
 91
        4
 64
     7
 65
   257
 75
     1
175
     1
 42
1.0
 92
        8
 66
     7
 43
1.0
 76
     1
 77
     6
 78
     2
 67
     7
 79
     5
170
     0
171
     0
290
     0
174
     0
 93
        1
 44
0.0
173
     0
291
     1
 45
0.0
1001
ACAD
1000
AcDbSavedByObjectVersion
1070
     0
  0
VISUALSTYLE
  5
FB
102
{ACAD_XDICTIONARY
360
5D75
102
}
102
{ACAD_REACTORS
330
EF
102
}
330
EF
100
AcDbVisualStyle
  2
Brighten
 70
    12
 71
     2
 72
     2
 73
     1
 90
        0
 40
-0.6
 41
-30.0
 62
     5
 63
     7
 74
     1
 91
        4
 64
     7
 65
   257
 75
     1
175
     1
 42
1.0
 92
        8
 66
     7
 43
1.0
 76
     1
 77
     6
 78
     2
 67
     7
 79
     5
170
     0
171
     0
290
     0
174
     0
 93
        1
 44
50.0
173
     0
291
     1
 45
0.0
1001
ACAD
1000
AcDbSavedByObjectVersion
1070
     0
  0
VISUALSTYLE
  5
FF
102
{ACAD_XDICTIONARY
360
5D7D
102
}
102
{ACAD_REACTORS
330
EF
102
}
330
EF
100
AcDbVisualStyle
  2
ColorChange
 70
    16
 71
     2
 72
     2
 73
     3
 90
        0
 40
-0.6
 41
-30.0
 62
     5
 63
     8
 74
     1
 91
        4
 64
     7
 65
   257
 75
     1
175
     1
 42
1.0
 92
        8
 66
     8
 43
1.0
 76
     1
 77
     6
 78
     2
 67
     7
 79
     5
170
     0
171
     0
290
     0
174
     0
 93
        1
 44
0.0
173
     0
291
     1
 45
0.0
1001
ACAD
1000
AcDbSavedByObjectVersion
1070
     0
  0
VISUALSTYLE
  5
F8
102
{ACAD_XDICTIONARY
360
5D6F
102
}
102
{ACAD_REACTORS
330
EF
102
}
330
EF
100
AcDbVisualStyle
  2
Conceptual
 70
     9
 71
     3
 72
     2
 73
     1
 90
        0
 40
-0.6
 41
-30.0
 62
     5
 63
     7
 74
     2
 91
        2
 64
     7
 65
   257
 75
     1
175
     1
 42
40.0
 92
        8
 66
     7
 43
1.0
 76
     1
 77
     6
 78
     2
 67
     7
 79
     3
170
     0
171
     0
290
     0
174
     0
 93
        1
 44
0.0
173
     0
291
     0
 45
0.0
1001
ACAD
1000
AcDbSavedByObjectVersion
1070
     0
  0
VISUALSTYLE
  5
FA
102
{ACAD_XDICTIONARY
360
5D73
102
}
102
{ACAD_REACTORS
330
EF
102
}
330
EF
100
AcDbVisualStyle
  2
Dim
 70
    11
 71
     2
 72
     2
 73
     1
 90
        0
 40
-0.6
 41
-30.0
 62
     5
 63
     7
 74
     1
 91
        4
 64
     7
 65
   257
 75
     1
175
     1
 42
1.0
 92
        8
 66
     7
 43
1.0
 76
     1
 77
     6
 78
     2
 67
     7
 79
     5
170
     0
171
     0
290
     0
174
     0
 93
        1
 44
-50.0
173
     0
291
     1
 45
0.0
1001
ACAD
1000
AcDbSavedByObjectVersion
1070
     0
  0
VISUALSTYLE
  5
1E6
102
{ACAD_XDICTIONARY
360
5D85
102
}
102
{ACAD_REACTORS
330
EF
102
}
330
EF
100
AcDbVisualStyle
  2
EdgeColorOff
 70
    22
 71
     2
 72
     2
 73
     0
 90
        0
 40
-0.6
 41
-30.0
 62
     5
 63
     7
 74
     1
 91
        4
 64
     7
 65
   257
 75
     1
175
     1
 42
1.0
 92
        8
 66
     7
 43
1.0
 76
     1
 77
     6
 78
     2
 67
     7
 79
     5
170
     0
171
     0
290
     0
174
     0
 93
        1
 44
0.0
173
     0
291
     1
 45
0.0
1001
ACAD
1000
AcDbSavedByObjectVersion
1070
     0
  0
VISUALSTYLE
  5
FE
102
{ACAD_XDICTIONARY
360
5D7B
102
}
102
{ACAD_REACTORS
330
EF
102
}
330
EF
100
AcDbVisualStyle
  2
Facepattern
 70
    15
 71
     2
 72
     2
 73
     1
 90
        0
 40
-0.6
 41
-30.0
 62
     5
 63
     7
 74
     1
 91
        4
 64
     7
 65
   257
 75
     1
175
     1
 42
1.0
 92
        8
 66
     7
 43
1.0
 76
     1
 77
     6
 78
     2
 67
     7
 79
     5
170
     0
171
     0
290
     0
174
     0
 93
        1
 44
0.0
173
     0
291
     1
 45
0.0
1001
ACAD
1000
AcDbSavedByObjectVersion
1070
     0
  0
VISUALSTYLE
  5
F0
102
{ACAD_XDICTIONARY
360
5D5F
102
}
102
{ACAD_REACTORS
330
EF
102
}
330
EF
100
AcDbVisualStyle
  2
Flat
 70
     0
 71
     2
 72
     1
 73
     1
 90
        2
 40
-0.6
 41
30.0
 62
     5
 63
     7
 74
     0
 91
        0
 64
     7
 65
   257
 75
     1
175
     1
 42
1.0
 92
        8
 66
     7
 43
1.0
 76
     1
 77
     6
 78
     2
 67
     7
 79
     5
170
     0
171
     0
290
     0
174
     0
 93
       13
 44
0.0
173
     0
291
     1
 45
0.0
1001
ACAD
1000
AcDbSavedByObjectVersion
1070
     0
  0
VISUALSTYLE
  5
F1
102
{ACAD_XDICTIONARY
360
5D61
102
}
102
{ACAD_REACTORS
330
EF
102
}
330
EF
100
AcDbVisualStyle
  2
FlatWithEdges
 70
     1
 71
     2
 72
     1
 73
     1
 90
        2
 40
-0.6
 41
30.0
 62
     5
 63
     7
 74
     1
 91
        0
 64
     7
 65
   257
 75
     1
175
     1
 42
1.0
 92
        0
 66
   257
 43
1.0
 76
     1
 77
     6
 78
     2
 67
     7
 79
     5
170
     0
171
     0
290
     0
174
     0
 93
       13
 44
0.0
173
     0
291
     1
 45
0.0
1001
ACAD
1000
AcDbSavedByObjectVersion
1070
     0
  0
VISUALSTYLE
  5
F2
102
{ACAD_XDICTIONARY
360
5D63
102
}
102
{ACAD_REACTORS
330
EF
102
}
330
EF
100
AcDbVisualStyle
  2
Gouraud
 70
     2
 71
     2
 72
     2
 73
     1
 90
        2
 40
-0.6
 41
30.0
 62
     5
 63
     7
 74
     0
 91
        0
 64
     7
 65
   257
 75
     1
175
     1
 42
1.0
 92
        0
 66
     7
 43
1.0
 76
     1
 77
     6
 78
     2
 67
     7
 79
     5
170
     0
171
     0
290
     0
174
     0
 93
       13
 44
0.0
173
     0
291
     1
 45
0.0
1001
ACAD
1000
AcDbSavedByObjectVersion
1070
     0
  0
VISUALSTYLE
  5
F3
102
{ACAD_XDICTIONARY
360
5D65
102
}
102
{ACAD_REACTORS
330
EF
102
}
330
EF
100
AcDbVisualStyle
  2
GouraudWithEdges
 70
     3
 71
     2
 72
     2
 73
     1
 90
        2
 40
-0.6
 41
30.0
 62
     5
 63
     7
 74
     1
 91
        0
 64
     7
 65
   257
 75
     1
175
     1
 42
1.0
 92
        0
 66
   257
 43
1.0
 76
     1
 77
     6
 78
     2
 67
     7
 79
     5
170
     0
171
     0
290
     0
174
     0
 93
       13
 44
0.0
173
     0
291
     1
 45
0.0
1001
ACAD
1000
AcDbSavedByObjectVersion
1070
     0
  0
VISUALSTYLE
  5
F7
102
{ACAD_XDICTIONARY
360
5D6D
102
}
102
{ACAD_REACTORS
330
EF
102
}
330
EF
100
AcDbVisualStyle
  2
Hidden
 70
     6
 71
     1
 72
     2
 73
     2
 90
        0
 40
-0.6
 41
-30.0
 62
     5
 63
     7
 74
     2
 91
        2
 64
     7
 65
   257
 75
     2
175
     1
 42
40.0
 92
        0
 66
   257
 43
1.0
 76
     1
 77
     6
 78
     2
 67
     7
 79
     3
170
     0
171
     0
290
     0
174
     0
 93
        1
 44
0.0
173
     0
291
     0
 45
0.0
1001
ACAD
1000
AcDbSavedByObjectVersion
1070
     0
  0
VISUALSTYLE
  5
1E4
102
{ACAD_XDICTIONARY
360
5D81
102
}
102
{ACAD_REACTORS
330
EF
102
}
330
EF
100
AcDbVisualStyle
  2
JitterOff
 70
    20
 71
     2
 72
     2
 73
     0
 90
        0
 40
-0.6
 41
-30.0
 62
     5
 63
     7
 74
     1
 91
        4
 64
     7
 65
   257
 75
     1
175
     1
 42
1.0
 92
       10
 66
     7
 43
1.0
 76
     1
 77
     6
 78
     2
 67
     7
 79
     5
170
     0
171
     0
290
     0
174
     0
 93
        1
 44
0.0
173
     0
291
     1
 45
0.0
1001
ACAD
1000
AcDbSavedByObjectVersion
1070
     0
  0
VISUALSTYLE
  5
FD
102
{ACAD_XDICTIONARY
360
5D79
102
}
102
{ACAD_REACTORS
330
EF
102
}
330
EF
100
AcDbVisualStyle
  2
Linepattern
 70
    14
 71
     2
 72
     2
 73
     1
 90
        0
 40
-0.6
 41
-30.0
 62
     5
 63
     7
 74
     1
 91
        4
 64
     7
 65
   257
 75
     7
175
     7
 42
1.0
 92
        8
 66
     7
 43
1.0
 76
     1
 77
     6
 78
     2
 67
     7
 79
     5
170
     0
171
     0
290
     0
174
     0
 93
        1
 44
0.0
173
     0
291
     1
 45
0.0
1001
ACAD
1000
AcDbSavedByObjectVersion
1070
     0
  0
VISUALSTYLE
  5
1E5
102
{ACAD_XDICTIONARY
360
5D83
102
}
102
{ACAD_REACTORS
330
EF
102
}
330
EF
100
AcDbVisualStyle
  2
OverhangOff
 70
    21
 71
     2
 72
     2
 73
     0
 90
        0
 40
-0.6
 41
-30.0
 62
     5
 63
     7
 74
     1
 91
        4
 64
     7
 65
   257
 75
     1
175
     1
 42
1.0
 92
        9
 66
     7
 43
1.0
 76
     1
 77
     6
 78
     2
 67
     7
 79
     5
170
     0
171
     0
290
     0
174
     0
 93
        1
 44
0.0
173
     0
291
     1
 45
0.0
1001
ACAD
1000
AcDbSavedByObjectVersion
1070
     0
  0
VISUALSTYLE
  5
F9
102
{ACAD_XDICTIONARY
360
5D71
102
}
102
{ACAD_REACTORS
330
EF
102
}
330
EF
100
AcDbVisualStyle
  2
Realistic
 70
     8
 71
     2
 72
     2
 73
     0
 90
        2
 40
-0.6
 41
30.0
 62
     5
 63
     7
 74
     0
 91
        0
 64
     7
 65
   257
 75
     1
175
     1
 42
1.0
 92
        8
 66
   257
 43
1.0
 76
     1
 77
     6
 78
     2
 67
     7
 79
     3
170
     0
171
     0
290
     0
174
     0
 93
       13
 44
0.0
173
     0
291
     0
 45
0.0
1001
ACAD
1000
AcDbSavedByObjectVersion
1070
     0
  0
VISUALSTYLE
  5
1F3
102
{ACAD_XDICTIONARY
360
5D8F
102
}
102
{ACAD_REACTORS
330
EF
102
}
330
EF
100
AcDbVisualStyle
  2
Shaded
 70
    27
 71
     2
 72
     2
 73
     1
 90
        2
 40
-0.6
 41
30.0
 62
     5
 63
     7
 74
     0
 91
        4
 64
     7
 65
   257
 75
     1
175
     1
 42
1.0
 92
        8
 66
   257
 43
1.0
 76
     1
 77
     6
 78
     2
 67
     8
 79
     3
170
     0
171
     0
290
     0
174
     0
 93
        5
 44
0.0
173
     0
291
     0
 45
0.0
1001
ACAD
1000
AcDbSavedByObjectVersion
1070
     0
  0
VISUALSTYLE
  5
1F2
102
{ACAD_XDICTIONARY
360
5D8D
102
}
102
{ACAD_REACTORS
330
EF
102
}
330
EF
100
AcDbVisualStyle
  2
Shaded with edges
 70
    26
 71
     2
 72
     2
 73
     1
 90
        2
 40
-0.6
 41
30.0
 62
     5
 63
     7
 74
     1
 91
        2
 64
     7
 65
   257
 75
     2
175
     1
 42
1.0
 92
        8
 66
   257
 43
1.0
 76
     1
 77
     6
 78
     2
 67
     7
 79
     3
170
     0
171
     0
290
     0
174
     0
 93
        5
 44
0.0
173
     0
291
     0
 45
0.0
1001
ACAD
1000
AcDbSavedByObjectVersion
1070
     0
  0
VISUALSTYLE
  5
1EF
102
{ACAD_XDICTIONARY
360
5D87
102
}
102
{ACAD_REACTORS
330
EF
102
}
330
EF
100
AcDbVisualStyle
  2
Shades of Gray
 70
    23
 71
     2
 72
     2
 73
     3
 90
        0
 40
-0.6
 41
-30.0
 62
     5
 63
     7
 74
     2
 91
        2
 64
     7
 65
     7
 75
     1
175
     1
 42
40.0
 92
        8
 66
     7
 43
1.0
 76
     1
 77
     6
 78
     2
 67
     7
 79
     3
170
     0
171
     0
290
     0
174
     0
 93
        1
 44
0.0
173
     0
291
     0
 45
0.0
1001
ACAD
1000
AcDbSavedByObjectVersion
1070
     0
  0
VISUALSTYLE
  5
1F0
102
{ACAD_XDICTIONARY
360
5D89
102
}
102
{ACAD_REACTORS
330
EF
102
}
330
EF
100
AcDbVisualStyle
  2
Sketchy
 70
    24
 71
     1
 72
     2
 73
     2
 90
        0
 40
-0.6
 41
-30.0
 62
     5
 63
     7
 74
     2
 91
        2
 64
     7
 65
     7
 75
     1
175
     1
 42
40.0
 92
       11
 66
     7
 43
1.0
 76
     1
 77
     6
 78
     2
 67
     7
 79
     6
170
     0
171
     0
290
     0
174
     0
 93
        1
 44
0.0
173
     0
291
     0
 45
0.0
1001
ACAD
1000
AcDbSavedByObjectVersion
1070
     0
  0
VISUALSTYLE
  5
FC
102
{ACAD_XDICTIONARY
360
5D77
102
}
102
{ACAD_REACTORS
330
EF
102
}
330
EF
100
AcDbVisualStyle
  2
Thicken
 70
    13
 71
     2
 72
     2
 73
     1
 90
        0
 40
-0.6
 41
-30.0
 62
     5
 63
     7
 74
     1
 91
        4
 64
     7
 65
   257
 75
     1
175
     1
 42
1.0
 92
       12
 66
     7
 43
1.0
 76
     1
 77
     6
 78
     2
 67
     7
 79
     5
170
     0
171
     0
290
     0
174
     0
 93
        1
 44
0.0
173
     0
291
     1
 45
0.0
1001
ACAD
1000
AcDbSavedByObjectVersion
1070
     0
  0
VISUALSTYLE
  5
F6
102
{ACAD_XDICTIONARY
360
5D6B
102
}
102
{ACAD_REACTORS
330
EF
102
}
330
EF
100
AcDbVisualStyle
  2
Wireframe
 70
     5
 71
     0
 72
     2
 73
     0
 90
        0
 40
-0.6
 41
-30.0
 62
     5
 63
     7
 74
     1
 91
        4
 64
     7
 65
   257
 75
     1
175
     1
 42
1.0
 92
        0
 66
   257
 43
1.0
 76
     1
 77
     6
 78
     2
 67
     7
 79
     3
170
     0
171
     0
290
     0
174
     0
 93
        1
 44
0.0
173
     0
291
     0
 45
0.0
1001
ACAD
1000
AcDbSavedByObjectVersion
1070
     0
  0
VISUALSTYLE
  5
1F1
102
{ACAD_XDICTIONARY
360
5D8B
102
}
102
{ACAD_REACTORS
330
EF
102
}
330
EF
100
AcDbVisualStyle
  2
X-Ray
 70
    25
 71
     2
 72
     2
 73
     1
 90
        1
 40
0.5
 41
-30.0
 62
     5
 63
     7
 74
     1
 91
        0
 64
     7
 65
   257
 75
     1
175
     1
 42
1.0
 92
        8
 66
     7
 43
1.0
 76
     1
 77
     6
 78
     2
 67
     7
 79
     3
170
     0
171
     0
290
     0
174
     0
 93
       13
 44
0.0
173
     0
291
     0
 45
0.0
1001
ACAD
1000
AcDbSavedByObjectVersion
1070
     0
  0
DICTIONARYVAR
  5
146
102
{ACAD_REACTORS
330
5E
102
}
330
5E
100
DictionaryVariables
280
     0
  1
1:1
  0
DICTIONARYVAR
  5
259
102
{ACAD_REACTORS
330
5E
102
}
330
5E
100
DictionaryVariables
280
     0
  1
3.500000
  0
DICTIONARYVAR
  5
25A
102
{ACAD_REACTORS
330
5E
102
}
330
5E
100
DictionaryVariables
280
     0
  1
acadiso.lin
  0
DICTIONARYVAR
  5
145
102
{ACAD_REACTORS
330
5E
102
}
330
5E
100
DictionaryVariables
280
     0
  1
STANDARD
  0
DICTIONARYVAR
  5
84
102
{ACAD_REACTORS
330
5E
102
}
330
5E
100
DictionaryVariables
280
     0
  1
STANDARD
  0
DICTIONARYVAR
  5
227
102
{ACAD_REACTORS
330
5E
102
}
330
5E
100
DictionaryVariables
280
     0
  1
Metric50
  0
DICTIONARYVAR
  5
228
102
{ACAD_REACTORS
330
5E
102
}
330
5E
100
DictionaryVariables
280
     0
  1
Metric50
  0
DICTIONARYVAR
  5
5F
102
{ACAD_REACTORS
330
5E
102
}
330
5E
100
DictionaryVariables
280
     0
  1
2
  0
DICTIONARYVAR
  5
63
102
{ACAD_REACTORS
330
5E
102
}
330
5E
100
DictionaryVariables
280
     0
  1
1
  0
DICTIONARYVAR
  5
5D00
102
{ACAD_REACTORS
330
5E
102
}
330
5E
100
DictionaryVariables
280
     0
  1
0
  0
DICTIONARYVAR
  5
1AE
102
{ACAD_REACTORS
330
5E
102
}
330
5E
100
DictionaryVariables
280
     0
  1
0
  0
DICTIONARYVAR
  5
1AF
102
{ACAD_REACTORS
330
5E
102
}
330
5E
100
DictionaryVariables
280
     0
  1
0
  0
DICTIONARYVAR
  5
5CFE
102
{ACAD_REACTORS
330
5E
102
}
330
5E
100
DictionaryVariables
280
     0
  1
2
  0
DICTIONARYVAR
  5
5CFD
102
{ACAD_REACTORS
330
5E
102
}
330
5E
100
DictionaryVariables
280
     0
  1
1
  0
DICTIONARYVAR
  5
5D50
102
{ACAD_REACTORS
330
5E
102
}
330
5E
100
DictionaryVariables
280
     0
  1
80.000000
  0
DICTIONARYVAR
  5
5D4F
102
{ACAD_REACTORS
330
5E
102
}
330
5E
100
DictionaryVariables
280
     0
  1
5.000000
  0
DICTIONARYVAR
  5
5CFF
102
{ACAD_REACTORS
330
5E
102
}
330
5E
100
DictionaryVariables
280
     0
  1
127
  0
DICTIONARYVAR
  5
5D51
102
{ACAD_REACTORS
330
5E
102
}
330
5E
100
DictionaryVariables
280
     0
  1
2
  0
DICTIONARY
  5
5D93
330
21C
100
AcDbDictionary
280
     1
281
     1
  3
ACAD_XREC_ROUNDTRIP
360
5D94
  0
DICTIONARY
  5
5D58
330
D3
100
AcDbDictionary
280
     1
281
     1
  3
ACAD_XREC_ROUNDTRIP
360
5D59
  0
DICTIONARY
  5
5D5A
330
D7
100
AcDbDictionary
280
     1
281
     1
  3
ACAD_XREC_ROUNDTRIP
360
5D5B
  0
DICTIONARY
  5
5D55
330
22
100
AcDbDictionary
280
     1
281
     1
  3
ACAD_XREC_ROUNDTRIP
360
5D56
  0
DICTIONARY
  5
1F9
330
ED
100
AcDbDictionary
280
     1
281
     1
  3
ACAD_XREC_ROUNDTRIP
360
5D5D
  3
FBXASSET
360
1FA
  0
DICTIONARY
  5
1F7
330
EC
100
AcDbDictionary
280
     1
281
     1
  3
ACAD_XREC_ROUNDTRIP
360
5D5C
  3
FBXASSET
360
1F8
  0
DICTIONARY
  5
173
330
EE
100
AcDbDictionary
280
     1
281
     1
  3
ACAD_XREC_ROUNDTRIP
360
5D5E
  3
BUMPTILE
360
175
  3
DIFFUSETILE
360
174
  3
FBXASSET
360
1FB
  3
OPACITYTILE
360
176
  3
REFLECTIONTILE
360
177
  0
DICTIONARY
  5
5D7F
330
12E
100
AcDbDictionary
280
     1
281
     1
  3
ACAD_XREC_ROUNDTRIP
360
5D80
  0
DICTIONARY
  5
5D91
330
21A
100
AcDbDictionary
280
     1
281
     1
  3
ACAD_XREC_ROUNDTRIP
360
5D92
  0
DICTIONARY
  5
162
330
7F
100
AcDbDictionary
280
     1
281
     1
  3
ACAD_ROUNDTRIP_2008_TABLESTYLE_CELLSTYLEMAP
360
5D52
  3
ACAD_XREC_ROUNDTRIP
360
5D57
  0
DICTIONARY
  5
5D69
330
F5
100
AcDbDictionary
280
     1
281
     1
  3
ACAD_XREC_ROUNDTRIP
360
5D6A
  0
DICTIONARY
  5
5D67
330
F4
100
AcDbDictionary
280
     1
281
     1
  3
ACAD_XREC_ROUNDTRIP
360
5D68
  0
DICTIONARY
  5
5D75
330
FB
100
AcDbDictionary
280
     1
281
     1
  3
ACAD_XREC_ROUNDTRIP
360
5D76
  0
DICTIONARY
  5
5D7D
330
FF
100
AcDbDictionary
280
     1
281
     1
  3
ACAD_XREC_ROUNDTRIP
360
5D7E
  0
DICTIONARY
  5
5D6F
330
F8
100
AcDbDictionary
280
     1
281
     1
  3
ACAD_XREC_ROUNDTRIP
360
5D70
  0
DICTIONARY
  5
5D73
330
FA
100
AcDbDictionary
280
     1
281
     1
  3
ACAD_XREC_ROUNDTRIP
360
5D74
  0
DICTIONARY
  5
5D85
330
1E6
100
AcDbDictionary
280
     1
281
     1
  3
ACAD_XREC_ROUNDTRIP
360
5D86
  0
DICTIONARY
  5
5D7B
330
FE
100
AcDbDictionary
280
     1
281
     1
  3
ACAD_XREC_ROUNDTRIP
360
5D7C
  0
DICTIONARY
  5
5D5F
330
F0
100
AcDbDictionary
280
     1
281
     1
  3
ACAD_XREC_ROUNDTRIP
360
5D60
  0
DICTIONARY
  5
5D61
330
F1
100
AcDbDictionary
280
     1
281
     1
  3
ACAD_XREC_ROUNDTRIP
360
5D62
  0
DICTIONARY
  5
5D63
330
F2
100
AcDbDictionary
280
     1
281
     1
  3
ACAD_XREC_ROUNDTRIP
360
5D64
  0
DICTIONARY
  5
5D65
330
F3
100
AcDbDictionary
280
     1
281
     1
  3
ACAD_XREC_ROUNDTRIP
360
5D66
  0
DICTIONARY
  5
5D6D
330
F7
100
AcDbDictionary
280
     1
281
     1
  3
ACAD_XREC_ROUNDTRIP
360
5D6E
  0
DICTIONARY
  5
5D81
330
1E4
100
AcDbDictionary
280
     1
281
     1
  3
ACAD_XREC_ROUNDTRIP
360
5D82
  0
DICTIONARY
  5
5D79
330
FD
100
AcDbDictionary
280
     1
281
     1
  3
ACAD_XREC_ROUNDTRIP
360
5D7A
  0
DICTIONARY
  5
5D83
330
1E5
100
AcDbDictionary
280
     1
281
     1
  3
ACAD_XREC_ROUNDTRIP
360
5D84
  0
DICTIONARY
  5
5D71
330
F9
100
AcDbDictionary
280
     1
281
     1
  3
ACAD_XREC_ROUNDTRIP
360
5D72
  0
DICTIONARY
  5
5D8F
330
1F3
100
AcDbDictionary
280
     1
281
     1
  3
ACAD_XREC_ROUNDTRIP
360
5D90
  0
DICTIONARY
  5
5D8D
330
1F2
100
AcDbDictionary
280
     1
281
     1
  3
ACAD_XREC_ROUNDTRIP
360
5D8E
  0
DICTIONARY
  5
5D87
330
1EF
100
AcDbDictionary
280
     1
281
     1
  3
ACAD_XREC_ROUNDTRIP
360
5D88
  0
DICTIONARY
  5
5D89
330
1F0
100
AcDbDictionary
280
     1
281
     1
  3
ACAD_XREC_ROUNDTRIP
360
5D8A
  0
DICTIONARY
  5
5D77
330
FC
100
AcDbDictionary
280
     1
281
     1
  3
ACAD_XREC_ROUNDTRIP
360
5D78
  0
DICTIONARY
  5
5D6B
330
F6
100
AcDbDictionary
280
     1
281
     1
  3
ACAD_XREC_ROUNDTRIP
360
5D6C
  0
DICTIONARY
  5
5D8B
330
1F1
100
AcDbDictionary
280
     1
281
     1
  3
ACAD_XREC_ROUNDTRIP
360
5D8C
  0
XRECORD
  5
5D94
102
{ACAD_REACTORS
330
5D93
102
}
330
5D93
100
AcDbXrecord
280
     1
102
DISPLAYNAME
  1
Metric50
102
FLAGS
 90
        0
  0
XRECORD
  5
5D59
102
{ACAD_REACTORS
330
5D58
102
}
330
5D58
100
AcDbXrecord
280
     1
102
SHADEPLOT
 70
     0
102
SHADEPLOTRESLEVEL
 70
     2
102
SHADEPLOTCUSTOMDPI
 70
   300
  0
XRECORD
  5
5D5B
102
{ACAD_REACTORS
330
5D5A
102
}
330
5D5A
100
AcDbXrecord
280
     1
102
SHADEPLOT
 70
     0
102
SHADEPLOTRESLEVEL
 70
     2
102
SHADEPLOTCUSTOMDPI
 70
   300
  0
XRECORD
  5
5D56
102
{ACAD_REACTORS
330
5D55
102
}
330
5D55
100
AcDbXrecord
280
     1
102
SHADEPLOT
 70
     0
102
SHADEPLOTRESLEVEL
 70
     2
102
SHADEPLOTCUSTOMDPI
 70
   300
  0
XRECORD
  5
5D5D
102
{ACAD_REACTORS
330
1F9
102
}
330
1F9
100
AcDbXrecord
280
     1
102
MATERIAL
148
0.0
149
0.0
149
0.0
 93
        0
 94
       63
282
     0
 72
     1
 77
     1
171
     1
175
     1
179
     1
273
     0
  0
XRECORD
  5
1FA
102
{ACAD_REACTORS
330
1F9
102
}
330
1F9
100
AcDbXrecord
280
     1
 70
     1
 90
429727718
  1
D62C5603-E3A1-4AEA-B7FB-FE5D8D0755AF
310
504B03040A0000080000CC70623B3DEE336E79000000790000001B0000006175746F6465736B2D64657369676E2D7061636B6167652E786D6C3C3F786D6C2076657273696F6E3D22312E302220656E636F64696E673D227574662D3822203F3E3C666F726D6174733E3C666F726D61743E687474703A2F2F736368656D612E
310
6175746F6465736B2E636F6D2F64657369676E2D7061636B6167652F323030393C2F666F726D61743E3C2F666F726D6174733E504B0304140006080800CC70623BD486FD9CA0000000F4000000130000005B436F6E74656E745F54797065735D2E786D6C7D8EC10E82300C865F65E91D8A1E8C310C0EEA1BF002731658846E
310
D98AC1B77784ABF1D8FE5FBFBF75BBCE937A534CCEB38643598122B6FEE978D0B0485F9C41B54DDD7D022595594E1A469170414C76A4D9A4D207E29CF43ECE46F218070CC6BECC4078ACAA135ACF422C856C0E68EA1BF5669944DDD7BCDE7B1F8E415D77AECB980613C2E4AC91FC167A2B244592486606FC29C8FD7F045B9A
310
EF7053A7E60B504B0304140006080800CC70623B853B8169EB0000007C01000008000000636F72652E786D6C8D90416EC3201045AF62CDB6C206821CC7C244919D9CA01740401C94182C03558F5F9C3852BBEB6A467FFE9B197D7EFC9E1EC5975982F5AE035262288C535E5B377690E21535501C055FBC8FBF6C503839990E
310
5619041F179FE64D52DE45E362569DD7661365082642A11EB9E920A89B99642953CC8E702F67A9EE7234257977194EC9EAE275C4EABCCF5EAD5940D4AC6F0E35A568B8F43562CD7046CD199FD07E60174276A7BE677B5EADB0E0D14EEFFB6A31321A0D82627C4084204C3F096B71DD52F6819B16635EADF63F509AF53FA164
310
5DDCD1EDDD17164090FCC8732078B56691CB33A85CD7DCC40F504B0304140006080800CC70623B55019EA25F0000007C00000007000000636E782E786D6C4DCB3B0E80201045D1AD90E915ED2CF8AC45050C11660C8261F98AB1B07AC9C97D42D718D865D3E909258CFD00CCE24AC6E326A164D74DC0B4128928FF32603847
310
2BA13128B1252AC747C6BAB984FC68F0B87FE8960A5C09FE86CFB69FBA01504B0304140006080800CC70623BDBABAAF470010000D40300000C0000006662782F636F72652E786D6CC553D16E823014FD95A6AF4B694182CC941A83FA05FB810A9511A125A5257EFE2E82712ECEB8A7F100CD39F7F69E734AF9FADC366850B6
310
AF8DCE7018308C942E4C59EB2AC3DE1D498AD15A706B8CFB56869196ADCAF00863C12B6B7C374385D14E6907A836A59A41D9F7CA615434B0C8705F7CAA5606D23BA8E84F41278B93AC54100640439DE0BDB320004D43C63716C7C399D30917DCFBBA9CD9BA8469F5B156168B24CED3F7248AC8769F27244EB73B92EED8862C
310
B7F13E0C179B3C8F979C8ECD82BBBABDAA2BAC924E9558448CBD9330242CFA08E3154B5651FCC6D215639C8EE5774DBE2B5F6CF2B5768B68963BB5F5588420E442FC700B1139D4CB01F450C1E918227C2E09DF070D8140C84E1E9AAB8F1340832A9CB13130A5F1376A908D57309505ECF2A0DF179C4E9D30F5B239B87E3823
310
7A79C6F31DE1A8A5AEC08474B03C7837EAE4938639B44E5932B833D2C6B6B279CDC613877FA26EE21F4A2A4C63EC7F29A2F301D1F9F7A0E37D145F504B0304140006080800CC70623B9C113CC27E0000009D0000000B0000006662782F636E782E786D6C4DCCDF0A83201C86E15B91DFB94BFB330DD428C8FB886521330DA7
310
6397BF1A1DECE883878F57749FCDA1B7892F1BBC047A23808C7F84D9FA55424E0BE6803A256208E9EF06C84F9B91703228B1C690F78B66B34CD9A5439DF5CF0BFBF65E35BCA1B8D6A5C6F540381E886698B5741C695F9503EBA150A2F8958E3DC3EA0B504B0304140006080800CC70623B7DF2F77C2A010000120200003100
310
00006662782F41393633353835312D344632462D344230382D423046372D3739314545314133324237412F636F72652E786D6C8D51DB8EC22014FC15C2939B0D2DB4B45643319AE817EC0F6041255A68B86CFCFC856D4D76DF7CE190393373060EDB3DC707F856CE6B6B7A480A0C81328395DA5C7B18C3057510EC3873D686
310
3F34088C18550F330C39BB3A1BA7051AAC09CA84841A2BD5020AEF55806078A44B0FFD7053A328440C89E1EFC52486BBB8AA8214A99D789CF9E05200300FC927E4FB4D5B375D43103D5527440FB843077C5AA3F5861C8F645F5787F59E95B390B318B55CE45AA638FAA2957BD7248B390B7A7CC51F9C124149C82B8C378810
310
84AB2F42B7B8DD56F413775B8C5999E9FF4471926F8AA236A1AE96B8B3CC434E5839373893369E1FAF30EA395917409EB7F26AF8801C171837A4A6AC9C89E9F9C9B1A58BA30FD6A5EF5DDDCF894B9AD9B6A59C957943A9FCAE2FD5BC4DFE03504B0304140006080800CC70623BAD7543B64E01000033030000300000006662
310
782F41393633353835312D344632462D344230382D423046372D3739314545314133324237412F636E782E786D6CD593CD6EC32010845F0571AD6CE3D48AD20813A9873E410FBD12D82434182C7EAAE6EDBB2424CD25871E7B41D6EC30B3FA84F9E67BB2E40B4234DE8DB46F1925E094D7C6ED479AD3AE5951B2113C789FEE
310
6C943839C1488B4C05DF079FE72A69D8C96C13AAD6B8631503449F83828872B949AC57D26200B826A308D316B4064D6E46FCDA41C05550DC9E483A00797BFD207EFB092A45DE9514C1BBD22178396BD39D891265658C238DEA00936C654E5E433CB65A26D9F6EDB5EBC14EBF49A45CB856E66048291F6939A9A81BB5C89177
310
38143CA680F4AA299D66A042CEB3354A2684DC9D8D178FE0D9B8B41CAAD720F880EE7EF93C0C18769E099ECC04D5A102C8049A8A05632F4DDF376CF1DE0F6BB65C2F8627B65A33C6BB62177CEBBDAD973006829F89F22E814B54F4BC2BE347F8AA8F681390B50FA73F804400B5F542E796F19FF974E7F78DB802FE05E20750
310
4B0304140006080800CC70623BE75B7789680500003C100000340000006662782F41393633353835312D344632462D344230382D423046372D3739314545314133324237412F6F626A656374732E786D6CAD575B8F9B3818FD2B887D06C22499CB8AA1CA655245D5B455A356FB305264C061D8018C6C3393D95FBFC7600890
310
A4CD5EF210B0B1BFEBF98E3F7B1FF6596ABC522E1296DF9BAE3D320D9A872C4AF2F8DE2CE5CEBA358D0FBEC719939D65A691938CDE9B6ADAF4BD98B3B2D05311DD91329583D9D5FC0F438434A7A611A644887B5384CF34233629258BA878B12322891DEFF6B66BD70BFB62634E8AE781D082709A4B588AF91C528CDA28B73F
310
1C998EEF39EABBEFA97FBD6A7C7E9553F9D3D79FE442923C3C523610337627CB87ABE99D359D4CC6D6E4FACAB5E6ABF9D2726FC6A3C5F56271377BB88362213924694B38DD99FE47C48627A1E7D49F5A8BB5E1A74C0A599ED3B0F21F1E56366B89112D681E218F0915D0D6F17AD41FBA2A369DCF6335D62ABBD39779D5DDD1
310
11D4D8DE3CBB96B2E04FB8202E41051754A1AA8E8F76B4C6DFE810B580B1547F4B84911149794252234D024EF8BBE963A95AE27B3D310A9D5C215C7960FAEE415ED75694C6AFB17BCACA5D99A60A9AA65F217B0BFC53292ACB92BF283FAD0D3621576592CB5BED907C2FA8E9DF794E35E97BEA31BED21FEB401ABB94C44839
310
DCACBF0E1C5DA8DA5B2F4DFFD32AD86F543D9E565E7056502E157C00AD2671CD534549AB752FCA9CDA00677A313F04E51B22FF19E57B300579E3C97EB29F682D92935CEC18CF901B7B54FD8C51F362B56FC72FE0B3C1EAE335EDCCBF5AEC39ADB17DC238973F804BA5E6F6BFE7AF1FB32E523BE9F3BD571418E3631DCA4D48
310
5250CF639223210A9446CA30052EDF057BD35F8329C1ECD84552BF0DC8D18BE7BCE23BFE6BD960AB4A7DE79923A103BEBD80F911CBAA2C60DB19B01CF164A5583B772EE6D3FFA56666CBCDA74DC97724A48F9A58967497E489C4D979006FD7A05E227A1EBDD0F737C623387A9C844D3709995625106D157315F8B8392CD4E0
310
A0B9A720C4BE9829CEF37EA1E13111214D53925356365ADA634861B52519DD27A00AEB808EAF0628E6F435519D446F45CF2C9CF5214F0A15B2F6D06B79DA3EE3CBF7F56780D2F4E7EF73A0F5E5B02A38D07DC852C6B7C1FBB6664213E0C39E3EBA7FF4E1AD23EA2829407C85E586727488B751B2DB9502BC7B228A3FD68B6E
310
A65A22397E690AA8D158D7E404EC8CDA235CC3B7D1898680131CEC2CDF2638C65196279577750F15884AEE19F94199155B92B13297978469D4F8D358DF0AEF7631E28DC8F0D9F437D5D39A83B2231A1D52D543813A824EF8D44BCFF2FA6A31BD1E8DAD87F1CCB526B3879935BF59CDADD5C37479BB1CDD4CA7B3556B516589
310
EF352754B706114D9C885EC9131DE6EFEB43D99AFE2391C2F958179413D7CFEF6B1B6DB1E7600F00DE6E5C67454A339A4BA2E0FBA85ED26F045D454F463DBFCE484C2F90F2E5E3666003662ED8F755951A7D1BECD5B30B550B2785C8E7320B7292A4838DDA71BBC863ED7613CAF659337A3354231D4FF4A182A54904C2898C
310
98B28C4AD0CE056CCF332A80986E571EE9DBC305BB5FEB7E509220A58D25CF042D712A806AC0AD0C657FDEF80D2D9CEAA2EE4D1C76F60BFE74219A06527D6F82DF6412526107381E55E353090704D085B52408A8913C4ED159D79BDA71BB4BC506F4831350EB6F975CD22D69BF7AC49B91A2C0A9DDA3D5CA36AD20FC478E37
310
E61844E2352865EBCB61A275A65283CAAA9DD27703B4102F5AF51EF5F573B75CBB5AD38BC845F7A49F82A0966A49C2E3EA5EA0ECD326CD965F1DB402C6FA8B51A4658C5C5E2EC9E214602E55810345408596591009A82E7E7FFACA19EEA299B14A0081A705CB3296EBC14CDF658DCD336EA6D1136881AAEB87B81AB9EE53D5
310
F5EB8BC8362082DA24122F98680A4E7930C01A0079749CEA14382A0783E5EBA5A10F8C098456A03D6A4AEB6BB881E2513747552A5DB22C7EDAF83BD5528081A365F7FF06504B0304140006080000CC70623B000000000000000000000000350000006662782F41393633353835312D344632462D344230382D423046372D37
310
39314545314133324237412F76657274696365732E62696E504B0304140006080800CC70623BF270F1330600000004000000360000006662782F41393633353835312D344632462D344230382D423046372D3739314545314133324237412F747269616E676C65732E62696E636660600000504B0304140006080000CC7062
310
3B000000000000000000000000370000006662782F41393633353835312D344632462D344230382D423046372D3739314545314133324237412F617474726962757465732E62696E504B0304140006080800CC70623B08DA0BD19000000041010000360000006662782F41393633353835312D344632462D344230382D4230
310
46372D3739314545314133324237412F6469726563746F72792E786D6C858F410AC3201045AF22B36F53E9A60B35CBEEBAE80D244E44489C6234F4F835464A48035D0DF398FF9F8AF63D0E6CC63039F212F8F9020C7D47C6792B21C5FE7403D62A1188E2E60C98D7234A5830286103A55745067B9D86B8A3CF9C7F90C11DE6
310
07FB144396D7B6A82D282E9A152AD114D5EF2CB866EEE831B8EEA07A7BB5A8D7D61A2BAAEB7FD5F70921FF497D00504B0304140006080800CC70623BEDD1DC58FD000000A00100003B0000006662782F41393633353835312D344632462D344230382D423046372D3739314545314133324237412F7265736F75726365732F
310
636F72652E786D6C8D504B6E833010BD0A9A6D65B00922041947112427E8052C33A156828DFCA97AFC9A40A576D7CDCCE87D344F8F9FBFE667F689CE6B6B3A6039850C8DB2A336530731DC4903D95970676DF82583CCC8193B5861107C72362E3BA4AC096842428D1D7107A5F7182053CF7474E0D507CE32973124857FE48B
310
540F3961CEF244279DE03EB81420DB9EAC1384436FA353E879B1B182C7A8C75DA3C7F453DF353A1075D537A7BA6464B8F535A99AE14A9A2BBD90E350DD183B5CFABE3AF262350B1EF4FC9351399401471025A527C218A1E53BAB5A5AB765F5469B96525EACF23FA6B88CFF34456DC2A1DCE36E360F82A5202F42F062ED2BAD
310
579969AFDD8A6F504B010214000A0000080000CC70623B3DEE336E79000000790000001B00000000000000000000000000000000006175746F6465736B2D64657369676E2D7061636B6167652E786D6C504B01021400140006080800CC70623BD486FD9CA0000000F40000001300000000000000000000000000B20000005B
310
436F6E74656E745F54797065735D2E786D6C504B01021400140006080800CC70623B853B8169EB0000007C010000080000000000000000000000000083010000636F72652E786D6C504B01021400140006080800CC70623B55019EA25F0000007C000000070000000000000000000000000094020000636E782E786D6C504B
310
01021400140006080800CC70623BDBABAAF470010000D40300000C00000000000000000000000000180300006662782F636F72652E786D6C504B01021400140006080800CC70623B9C113CC27E0000009D0000000B00000000000000000000000000B20400006662782F636E782E786D6C504B01021400140006080800CC70
310
623B7DF2F77C2A010000120200003100000000000000000000000000590500006662782F41393633353835312D344632462D344230382D423046372D3739314545314133324237412F636F72652E786D6C504B01021400140006080800CC70623BAD7543B64E010000330300003000000000000000000000000000D2060000
310
6662782F41393633353835312D344632462D344230382D423046372D3739314545314133324237412F636E782E786D6C504B01021400140006080800CC70623BE75B7789680500003C10000034000000000000000000000000006E0800006662782F41393633353835312D344632462D344230382D423046372D3739314545
310
314133324237412F6F626A656374732E786D6C504B01021400140006080000CC70623B0000000000000000000000003500000000000000000000000000280E00006662782F41393633353835312D344632462D344230382D423046372D3739314545314133324237412F76657274696365732E62696E504B01021400140006
310
080800CC70623BF270F133060000000400000036000000000000000000000000007B0E00006662782F41393633353835312D344632462D344230382D423046372D3739314545314133324237412F747269616E676C65732E62696E504B01021400140006080000CC70623B0000000000000000000000003700000000000000
310
000000000000D50E00006662782F41393633353835312D344632462D344230382D423046372D3739314545314133324237412F617474726962757465732E62696E504B01021400140006080800CC70623B08DA0BD1900000004101000036000000000000000000000000002A0F00006662782F41393633353835312D344632
310
462D344230382D423046372D3739314545314133324237412F6469726563746F72792E786D6C504B01021400140006080800CC70623BEDD1DC58FD000000A00100003B000000000000000000000000000E1000006662782F41393633353835312D344632462D344230382D423046372D3739314545314133324237412F7265
310
736F75726365732F636F72652E786D6C504B0506000000000E000E0080040000641100000000
  0
XRECORD
  5
5D5C
102
{ACAD_REACTORS
330
1F7
102
}
330
1F7
100
AcDbXrecord
280
     1
102
MATERIAL
148
0.0
149
0.0
149
0.0
 93
        0
 94
       63
282
     0
 72
     1
 77
     1
171
     1
175
     1
179
     1
273
     0
  0
XRECORD
  5
1F8
102
{ACAD_REACTORS
330
1F7
102
}
330
1F7
100
AcDbXrecord
280
     1
 70
     1
 90
429727718
  1
30362254-06B7-45E0-A893-8CFA70E3D6BC
310
504B03040A0000080000CC70623B3DEE336E79000000790000001B0000006175746F6465736B2D64657369676E2D7061636B6167652E786D6C3C3F786D6C2076657273696F6E3D22312E302220656E636F64696E673D227574662D3822203F3E3C666F726D6174733E3C666F726D61743E687474703A2F2F736368656D612E
310
6175746F6465736B2E636F6D2F64657369676E2D7061636B6167652F323030393C2F666F726D61743E3C2F666F726D6174733E504B0304140006080800CC70623BD486FD9CA0000000F4000000130000005B436F6E74656E745F54797065735D2E786D6C7D8EC10E82300C865F65E91D8A1E8C310C0EEA1BF002731658846E
310
D98AC1B77784ABF1D8FE5FBFBF75BBCE937A534CCEB38643598122B6FEE978D0B0485F9C41B54DDD7D022595594E1A469170414C76A4D9A4D207E29CF43ECE46F218070CC6BECC4078ACAA135ACF422C856C0E68EA1BF5669944DDD7BCDE7B1F8E415D77AECB980613C2E4AC91FC167A2B244592486606FC29C8FD7F045B9A
310
EF7053A7E60B504B0304140006080800CC70623B1EC5D7A3EB0000007C01000008000000636F72652E786D6C8D90416EC3201045AF82665B6103C6756C6122AB4D4ED00B204C5C94182C03558F5F9C3852BBEB6A467FFE9B197D71FC9E6FE8CBACC17AD7032D0820E3B41FAD9B7A48F1820F808E52ACDEC75F36404ECDA687
310
4D0629A6D5A76597B477D1B89855E747B38B2A041301E95B6E7A08FAD3CCAA50296647B8168BD2573599823EBB0CA76447F43862C7BCCF5EAC59410E4DDD9C7973C2755553CCCFA4C603E3040F1565ED3B1FDE4E432BCA0D9622DAF9795FAF464533826484B498524CD807E51D79ED187F21878E10516EF63F505AC67F42C9
310
BA58B1FDDD071640D2FCC87D2045B96591CB3DA85CB7DCE40F504B0304140006080800CC70623B55019EA25F0000007C00000007000000636E782E786D6C4DCB3B0E80201045D1AD90E915ED2CF8AC45050C11660C8261F98AB1B07AC9C97D42D718D865D3E909258CFD00CCE24AC6E326A164D74DC0B4128928FF32603847
310
2BA13128B1252AC747C6BAB984FC68F0B87FE8960A5C09FE86CFB69FBA01504B0304140006080800CC70623B8C9102E971010000D40300000C0000006662782F636F72652E786D6CC5535B6E833010BC8AE5DF0A6C08340F1947A84D4ED00B38C6A128602363A31CBFCB234A53A551FA553EC09AD9F5CE8C31DB9E9B1AF5CA
310
7695D1198E428A91D2D214952E33ECDD315861B4E5CC1AE3BE9561A445A3323CC098B3D21ADFCE9034DA29ED00D5A6503328BA4E398C640D8B0C77F253352214DE4145770A5B214FA2546114020D759C75CE8200340D19DE981F0F6746269C33EFAB6266AB02A655C74A59CCF365BADC27CB5D902ED22848F6340DF238A141
310
BE88E2F57B92BFEDF23523433367AE6A2EEAA455C2A902F398D2751045018D3FA264435F3771F242571B4A1919CA6F9A7C5B3CD9E42BED16F12C776AEB308F40C848FC700B1139D4891EF410CEC810227CC6846F8386402064270EF5C5C709A05E49676C024C61FC95EA45ED154CA5211D1FF4FB8291A913A68E9B83EBBB33
310
E2A7673CDE118E5AE8124C0807CB8377834E366998436B950D7A7746DAD846D4CFD978E0F04FD455FC5D49D2D4C6FE9722321F10997F0F32DC47FE05504B0304140006080800CC70623BFFEA85907E0000009D0000000B0000006662782F636E782E786D6C4DCCD10A83201886E15B91FFDC95D95A811AB6F23E625948A6C3
310
E9D8E5AF46073BFAE0E1E365ED67B3E8ADC3CB78C7815C7240DA3DFC64DCC221C519D7805AC182F7F1EF06C88D9BE6703008B6049F9E274D7A1E938DBB5AE3D6131B2589BA0D3D965551E0B2EA732C9B9A624AAEB41E3A557677029960D9AFB4EF11165F504B0304140006080800CC70623B4FEEA4082C0100001202000031
310
0000006662782F39464131463745442D413632322D343644302D413938332D3331353338454246344243312F636F72652E786D6C8D515B6EC32010BC0AE2AB55850DD871ED0813254D72825EC00192A2C460F1A872FC42ED48ED5F7E00CDCECCCEB26C731F6FE05B39AFADE921293004CA082BB5B9F43086336A21D870E6AC
310
0D7F68109861543DCC30E4ECE26C9C164858139409093556AA051CBC570102714B8F1E7AF1A5C6A11862480C7F2DA6415C878B2A4891CA89C7990F2E050073937C42DE1DB7E4F87ED8A36D4329AA9B3D46DBAEAD504556557BD81DEBDD0761E52CE42C462D17B996298E3E6BE59E35C962CE821E1FF18553435012728A7187
310
0841987E927A8D9B35ADDF70BBC6989599FE4F1427F9A4286A132ABAC49D651EF234CD5CE04CDA78BA3DC2A8FB645D00B9DF8B57E215725C60BCA2A463E54C4CE327C7A65E1C7DB02E7DEFCBF594B864C5CA6CDBD49C957943E9FA5D5FBAF336F90F504B0304140006080800CC70623BAD7543B64E01000033030000300000
310
006662782F39464131463745442D413632322D343644302D413938332D3331353338454246344243312F636E782E786D6CD593CD6EC32010845F0571AD6CE3D48AD20813A9873E410FBD12D82434182C7EAAE6EDBB2424CD25871E7B41D6EC30B3FA84F9E67BB2E40B4234DE8DB46F1925E094D7C6ED479AD3AE5951B2113C
310
789FEE6C943839C1488B4C05DF079FE72A69D8C96C13AAD6B8631503449F83828872B949AC57D26200B826A308D316B4064D6E46FCDA41C05550DC9E483A00797BFD207EFB092A45DE9514C1BBD22178396BD39D891265658C238DEA00936C654E5E433CB65A26D9F6EDB5EBC14EBF49A45CB856E66048291F6939A9A81BB5
310
C8917738143CA680F4AA299D66A042CEB3354A2684DC9D8D178FE0D9B8B41CAAD720F880EE7EF93C0C18769E099ECC04D5A102C8049A8A05632F4DDF376CF1DE0F6BB65C2F8627B65A33C6BB62177CEBBDAD973006829F89F22E814B54F4BC2BE347F8AA8F681390B50FA73F804400B5F542E796F19FF974E7F78DB802FE05
310
E207504B0304140006080800CC70623B16AB87BA640500003C100000340000006662782F39464131463745442D413632322D343644302D413938332D3331353338454246344243312F6F626A656374732E786D6CAD575B6FA33818FD2B887DE6924B3BED8A326A92B68A663B534DD4D13E548A0C38942D60649B369D5FBFC7
310
600890A493BDE42160637FD7F31D7FF63E6FB3D478A55C242CBF3247B66B1A340F5994E4F19559CA8D75611A9F7D8F33263BCB4C232719BD32D5B4E97B316765A1A722BA21652A07B3B7B33F0D11D29C9A46981221AE4C113ED38CD8A4942CA2E2C58E882476BCD9DA23BB5ED8171B73523C0F841684D35CC252CCE79062D4
310
468DFA43D7747CCF51DF7D4FFDEB5593E3AB9CCA9FBEFE241792E4E19EB28198C968BAB8199F5D5A67D3E9C49A9E8F47D6EC76B6B0469F26EEFC7C3EBFBCBEB98462213924694B38DD98FE1D62C393D073EA4FADC5DAF04326852CCF6958F90F0F2B9BB5C48816348F90C7840A68EB78EDF68723159BCEE7891A6B95DDE9D3
310
BCEAEEE8086A6C6F9E5D4B59F0175C10A7A0820BAA5055C7473B5AE3CFDD452D602CD5DF12616444529E90D448938013FE6EFA58AA96F85E4F8C42275708571E98FE6827AF6B2B4AE3D7D83D64E5A64C53054DD3AF90BD06FEA9149565C94FCA0F6B834DC85599E4F2423B24DF0B6AFA979E534DFA9E7A4CC6FA631D486393
310
921829879BF5D781A373557BCB85E97FB90DB62B558F8795179C15944B051F40AB495CF35451D26A4727654E6D8033BD98EF82F21D91FF8AF2DD9982BCF1643BDD4EB516C9492E368C67C88DED563FC36D5EACF66DFF057C3658BDBFA69DF9578B3DA735B64F18C7F20770A9D45CFCF7FCF563D6456A277DBEF78A02637CA2
310
43B90A490AEAB94F72244481D24819A6C0E59B606BFA4B3025981DBB48EAB701D97BF19C577CC77F2D1B6C55A9EF3C732474C0B727303F625995056C3B02963D9EAC146BE78EC5FCEC7FA999EBC5EACBAAE41B12D27B4D2C0BBA49F244E2ECDC81B76B502F113D8F5EE8FB1BE3111CDD4FC2AA9B844CAB1288B68AB90A7CDC
310
1C166AB0D3DC5310625FCC14E779BFD0709F8890A629C9292B1B2DED31A4B0DA928CEE135085754027E3018A397D4D5427D15BD1330B677DC8934285AC3DF45A9EB68FF8F2B8FC0A509AFEECFD0FF2DE25CC6047F7214B195F07EFEB9A094D800F7BFAE8FED187B78EA8A3A400F115961BCAD1215E47C966530AF0EE8128FE
310
58CEBB996A8964FFA529A046635D9353B0336A8F700DDF46271A024E70B0B37C9DE01847591E54DED53D54202AB947E4076556AC49C6CA5C9E1226B7F1A7B1BE15DEED62C41B91E1B3E9AFAAA735036547343A925075041DF0A9979E893B391F8FCFA6967B3EFB644DCF6E5CEBFAE272625DCC6FAF3FB93793C5F90CE1EF57
310
407342756B10D1C489E8953CD1617E5CEECAD6F4EF8914CE5D5D504E5C3F1F9736DA62CFC11E00BCDDB8CC8A9466349744C1F75EBDA4DF09BA8A9E8C7A7E9991989E20E5DBDD6A6003664ED8F7A04A8DBE0DF6EAD9B9AA858342E47399053949D2C146EDB85DE4B176BB0965FBAC19BD19AA918E27FA50C1D22402E144464C
310
59462568E704B6E71915404CB72B8FF4EDE184DDAF753F284990D2C6926782963815403548A70C657FDEF80D2D9CEAA2AE4C1C76F60BFE74219A06527D6582DF6412526107381E55E353090704D085B52408D0933C4ED159D79BDA71BB4BC506F4831350EB6F979CD22D69BF7AC49B91A2C0A9DDA3D5CA36AD20FC478E37E6
310
1844E2352865EBCB6EA275A652E3836BE04EFB400BF1A2556F515F1FBB35B2AB35BD889C744FFA1004B5544B121E57F70215746DD2F5E2C1412B602CBF19455AC6C8E5E9922C4E01E65215385004546899059180EAFCF7A707CE7017CD8CDB0410789AB32C63B91E5CEBBBACB17AC6CD347A022D5075FD106377347AAABA7E
310
7D11590744509B44E205134DC1290F06580320F78E537D3D73540E06CB970B431F185308AD40BBD794D6D77003C5A36E8EAA54BA64597CD8F83BD552A080A365F7FF06504B0304140006080000CC70623B000000000000000000000000350000006662782F39464131463745442D413632322D343644302D413938332D3331
310
353338454246344243312F76657274696365732E62696E504B0304140006080800CC70623BF270F1330600000004000000360000006662782F39464131463745442D413632322D343644302D413938332D3331353338454246344243312F747269616E676C65732E62696E636660600000504B0304140006080000CC70623B
310
000000000000000000000000370000006662782F39464131463745442D413632322D343644302D413938332D3331353338454246344243312F617474726962757465732E62696E504B0304140006080800CC70623B08DA0BD19000000041010000360000006662782F39464131463745442D413632322D343644302D413938
310
332D3331353338454246344243312F6469726563746F72792E786D6C858F410AC3201045AF22B36F53E9A60B35CBEEBAE80D244E44489C6234F4F835464A48035D0DF398FF9F8AF63D0E6CC63039F212F8F9020C7D47C6792B21C5FE7403D62A1188E2E60C98D7234A5830286103A55745067B9D86B8A3CF9C7F90C11DE607
310
FB144396D7B6A82D282E9A152AD114D5EF2CB866EEE831B8EEA07A7BB5A8D7D61A2BAAEB7FD5F70921FF497D00504B0304140006080800CC70623B0D6EF93BFE000000A00100003B0000006662782F39464131463745442D413632322D343644302D413938332D3331353338454246344243312F7265736F75726365732F63
310
6F72652E786D6C8D50596E833010BD0A9ADFCA60B334011947A8694ED00B586642AC041B79A97AFC9A40A5F6AF3F33A3B7689E1E3F7DCD8FEC139DD7D6F4C0720A191A65476DA61E62B892236427C19DB5E1970C322367EC618541F0C9D9B8EC90B226A009093576C41D94DE63804C3DD2D18357379C652E63480A7FCF17A9
310
EE72C29CE5894E3AC17D702940B63D59270887DE46A7D0F36263058F518FBB468FE9A7BE6A7420864373B8D4873369AA8691FA421B3294352543C5CAF65C0F6FEF43CB8BD52C78D0F34F46E550061C419494B6843142CB0F5677F4B52BEB177AEC28E5C52AFF638ACBF84F53D42654E51E77B379102C05791282176B5F693D
310
CB4C7BED567C03504B010214000A0000080000CC70623B3DEE336E79000000790000001B00000000000000000000000000000000006175746F6465736B2D64657369676E2D7061636B6167652E786D6C504B01021400140006080800CC70623BD486FD9CA0000000F40000001300000000000000000000000000B20000005B
310
436F6E74656E745F54797065735D2E786D6C504B01021400140006080800CC70623B1EC5D7A3EB0000007C010000080000000000000000000000000083010000636F72652E786D6C504B01021400140006080800CC70623B55019EA25F0000007C000000070000000000000000000000000094020000636E782E786D6C504B
310
01021400140006080800CC70623B8C9102E971010000D40300000C00000000000000000000000000180300006662782F636F72652E786D6C504B01021400140006080800CC70623BFFEA85907E0000009D0000000B00000000000000000000000000B30400006662782F636E782E786D6C504B01021400140006080800CC70
310
623B4FEEA4082C0100001202000031000000000000000000000000005A0500006662782F39464131463745442D413632322D343644302D413938332D3331353338454246344243312F636F72652E786D6C504B01021400140006080800CC70623BAD7543B64E010000330300003000000000000000000000000000D5060000
310
6662782F39464131463745442D413632322D343644302D413938332D3331353338454246344243312F636E782E786D6C504B01021400140006080800CC70623B16AB87BA640500003C1000003400000000000000000000000000710800006662782F39464131463745442D413632322D343644302D413938332D3331353338
310
454246344243312F6F626A656374732E786D6C504B01021400140006080000CC70623B0000000000000000000000003500000000000000000000000000270E00006662782F39464131463745442D413632322D343644302D413938332D3331353338454246344243312F76657274696365732E62696E504B01021400140006
310
080800CC70623BF270F133060000000400000036000000000000000000000000007A0E00006662782F39464131463745442D413632322D343644302D413938332D3331353338454246344243312F747269616E676C65732E62696E504B01021400140006080000CC70623B0000000000000000000000003700000000000000
310
000000000000D40E00006662782F39464131463745442D413632322D343644302D413938332D3331353338454246344243312F617474726962757465732E62696E504B01021400140006080800CC70623B08DA0BD190000000410100003600000000000000000000000000290F00006662782F39464131463745442D413632
310
322D343644302D413938332D3331353338454246344243312F6469726563746F72792E786D6C504B01021400140006080800CC70623B0D6EF93BFE000000A00100003B000000000000000000000000000D1000006662782F39464131463745442D413632322D343644302D413938332D3331353338454246344243312F7265
310
736F75726365732F636F72652E786D6C504B0506000000000E000E0080040000641100000000
  0
XRECORD
  5
5D5E
102
{ACAD_REACTORS
330
173
102
}
330
173
100
AcDbXrecord
280
     1
102
MATERIAL
148
0.0
149
0.0
149
0.0
 93
        0
 94
       63
282
     0
 72
     1
 77
     1
171
     1
175
     1
179
     1
273
     0
  0
XRECORD
  5
175
102
{ACAD_REACTORS
330
173
102
}
330
173
100
AcDbXrecord
280
     1
270
     1
271
     1
  0
XRECORD
  5
174
102
{ACAD_REACTORS
330
173
102
}
330
173
100
AcDbXrecord
280
     1
270
     1
271
     1
  0
XRECORD
  5
1FB
102
{ACAD_REACTORS
330
173
102
}
330
173
100
AcDbXrecord
280
     1
 70
     0
 90
1673772943
  1
ECE7A1D2-D628-4531-984C-D00F80459256
310
504B03040A0000080000CC70623B3DEE336E79000000790000001B0000006175746F6465736B2D64657369676E2D7061636B6167652E786D6C3C3F786D6C2076657273696F6E3D22312E302220656E636F64696E673D227574662D3822203F3E3C666F726D6174733E3C666F726D61743E687474703A2F2F736368656D612E
310
6175746F6465736B2E636F6D2F64657369676E2D7061636B6167652F323030393C2F666F726D61743E3C2F666F726D6174733E504B0304140006080800CC70623BD486FD9CA0000000F4000000130000005B436F6E74656E745F54797065735D2E786D6C7D8EC10E82300C865F65E91D8A1E8C310C0EEA1BF002731658846E
310
D98AC1B77784ABF1D8FE5FBFBF75BBCE937A534CCEB38643598122B6FEE978D0B0485F9C41B54DDD7D022595594E1A469170414C76A4D9A4D207E29CF43ECE46F218070CC6BECC4078ACAA135ACF422C856C0E68EA1BF5669944DDD7BCDE7B1F8E415D77AECB980613C2E4AC91FC167A2B244592486606FC29C8FD7F045B9A
310
EF7053A7E60B504B0304140006080800CC70623BD9DDAED0EC0000007C01000008000000636F72652E786D6C8D90416EC3201045AF82665B61836D9CD8C2444DD39CA01740405C94182C03558F5F9C3852BBEB6A467FFE9B197D7EF89E6EE8CB2CC17A37002D0820E394D7D68D03A478C17B4007C117EFE32F1B20272733C0
310
2A83E0E3E2D3BC49CABB685CCCAAF3DA6CA20CC14440EA969B0182FA34932C648AD911AEC52CD5558EA6A0CF2EC329598D1E47ACCEFBECC59A050463A7EA5833865FEBDD0E37353BE3EE8DBDE3F6786A48D375FBF6CC78B9C282473B3DEFABC5C86834888A900E538A49F5419B9EB47DD5BC907D4F082F57FB1F28CDFA9F50
310
B22ED6D5F6EE030B20687EE43E10BC5CB3C8E51E54AE6B6EE207504B0304140006080800CC70623B55019EA25F0000007C00000007000000636E782E786D6C4DCB3B0E80201045D1AD90E915ED2CF8AC45050C11660C8261F98AB1B07AC9C97D42D718D865D3E909258CFD00CCE24AC6E326A164D74DC0B4128928FF326038
310
472BA13128B1252AC747C6BAB984FC68F0B87FE8960A5C09FE86CFB69FBA01504B0304140006080800CC70623BA24EB22D72010000D40300000C0000006662782F636F72652E786D6CC5535B6E833010BC8AE5DF0A6C5E49888CA3A6694ED00B38E05014B091B1518EDFE511A5A9D228FD2A1F60CDEC7A67C6986DCE4D8D7A
310
69BA4AAB0C073EC548AA5C17952A33ECECD15B61B4E1CC686DBF9561A44423333CC098B3D268D7CE50AE9595CA02AA74216750749DB418E5352C32DCE59FB211BE70162ABA93DF8AFC244AE9073ED050C759670D0840D390E18DF9F1706664C23973AE2A66B62A605A75ACA4C13C4976E1364A12EF355A2EBD384AF65EFA96
310
BC7B8BED2EA6719AAE16FB8491A199335B351775B991C2CA02F390D2D40B028F861F41BCA68B7518BFD0D59A524686F29B26D7164F36B94AD9289CE54E6D1DE6010819891F6E21228B3AD1831EC219194284CF98F06DD01008846CC5A1BEF83801D4CBDC6A1303536877A57A513B0953A94FC707FDBE6064EA84A9E3E6E0FA
310
EE8CF0E9198F7784A316AA0413C2C2F2E0ECA0934D1AE6D05A69BCDE9E91D2A611F573361E38FC1375157F5752AE6B6DFE4B11990F88CCBF0719EE23FF02504B0304140006080800CC70623B408A7D3B7C0000009D0000000B0000006662782F636E782E786D6C4DCCD10A83201886E15B91FFDC552A92A0064DBC8F581632
310
D3703A76F9ABD1C18E3E78F878E5F0D9027ABBFCF2292AE86E2D20171F69F6715550CB827B40839639A5F2770314A7CD293819B45C73AAFB45B35BA61ACAA1C1C7E7855C58C15BC331339661262CC762340413D68D77DA5B42298546CBE6573AF60CEB2F504B0304140006080800CC70623B449FB9BD290100001202000031
310
0000006662782F36394639363044362D344446342D343946362D394244322D3234314243333846323333332F636F72652E786D6C8D515B6EC32010BC0AE22B55850D98B871848994463E412FE002495162B07854397EA176A4F62F3F2C9A9D991D587EB84F37F0AD7D30CEF6905418026DA553C65E7A98E219ED203808EE9D
310
8B7F6810D871D23D2C3014FCE25D9A57483A1BB58D19B54EE9151C43D0110279CB971E06F9A5A7B11A53CC8C70ADE6515EC78BAE4895DB992778883E0700CB907242D17643D7E2538BD869608875438BBAE38922CAC8F1BDD90DB4691A5E2F42C153326A951B95E398B3D1FE599322163C9AE9115F7A3D46ADA0A018778810
310
84E907617BDCEE297BC5BB3DC6BC2EF47FA234AB2745C9D8D8D035EE220B50105E2F0DC1954B9FB747187D9F9D8FA0CCDB042D5FA0C015C65B42DF78BD10F3F3B363CB56C7109DCFDFBBB97E662ED92EB62D13BC2E1BCAE5777DB9966D8A1F504B0304140006080800CC70623BAD7543B64E01000033030000300000006662
310
782F36394639363044362D344446342D343946362D394244322D3234314243333846323333332F636E782E786D6CD593CD6EC32010845F0571AD6CE3D48AD20813A9873E410FBD12D82434182C7EAAE6EDBB2424CD25871E7B41D6EC30B3FA84F9E67BB2E40B4234DE8DB46F1925E094D7C6ED479AD3AE5951B2113C789FEE
310
6C943839C1488B4C05DF079FE72A69D8C96C13AAD6B8631503449F83828872B949AC57D26200B826A308D316B4064D6E46FCDA41C05550DC9E483A00797BFD207EFB092A45DE9514C1BBD22178396BD39D891265658C238DEA00936C654E5E433CB65A26D9F6EDB5EBC14EBF49A45CB856E66048291F6939A9A81BB5C89177
310
38143CA680F4AA299D66A042CEB3354A2684DC9D8D178FE0D9B8B41CAAD720F880EE7EF93C0C18769E099ECC04D5A102C8049A8A05632F4DDF376CF1DE0F6BB65C2F8627B65A33C6BB62177CEBBDAD973006829F89F22E814B54F4BC2BE347F8AA8F681390B50FA73F804400B5F542E796F19FF974E7F78DB802FE05E20750
310
4B0304140006080800CC70623B8D05915C650500003B100000340000006662782F36394639363044362D344446342D343946362D394244322D3234314243333846323333332F6F626A656374732E786D6CAD575B6FA33814FE2B887D06429276DA1565D4266D158D3A339A6846FB502932E050B66023DB74D2FDF5FB190C01
310
9276B2973C046C8ECFF53B17071F77456EBD502133CEAE6CDF9DD81665314F32965ED995DA3A17B6F5310C04E7AA47665B8C14F4CAD6DB7618A48257A5D94AE89654B91AEDDEDDFC61C998326A5B714EA4BCB265FC440BE2924AF184CA6737218AB8E976E7FA6E4338649B0A523E8D98964450A6A029F619B8588D52FE7039
310
B1BD30F0F4F730D0FF866AF6369557DB33949F31A9088B0F848DD8CCFCF9F2767A76E99CCDE733677E3EF59D9BBB9BA5E37F984D16E78BC5E5F5ED25044B25C0C96822E8D60EEFE11B91C581D77CEA34368A1F5329E68CD1B8B61F16D63A1B8E092D294B10C78C4A48EB593D192E7DED9BDEE7995E1B91FDEDD3ACEA9FE831
310
6A756F9F7D4D79F4274C90A7A04248AA51D5F8C718DAE06FB2F75AC4796EBE65D22A88A22223B995679120E2D50E41AA49C260C046A35368846B0BECD0DFF3EBEB8AD4F835768F69B9ADF25C43D30E6B646F807FAA64AD59F61715C7A54127C4AACA98BA3006A9D792DAE165E0D59B61A01FB3A9F9D838D2DAE62445C86166
310
F37564E842E7DE6A69879FEEA2DD5AE7E371E1A5E025154AC307D06A03D73EB5978C58FFA4C8E9033066E0F3BD53BEC1F39F91BE7B55103791EDE6BBB991A2046172CB4581D8B893FA674DDA17A77B3B7C413D1B511FD2743BFF8A38F03A658705E3ADF8015C3A3417FF3D7E439FF591DA0B5F18BC20C1B8981957AE6392A3
310
F43C640C01D1A0B4728E2DD4F26DB4B3C3152A252A3B4E913CEC1C72F012782FF88EFF8637AA552DBEF76408E8A8DE9E50F9E1CB3A2DA0DB1B6039A893B56063DC5B3E3FFB5F72E67AB9FEB4AEC496C4F4C1149625DD662C53E89D7BF0F6151A046260D1337DFDC94502430F83B0EE07A130A224BCAD7DAE1D9FB6CD422FF6
310
920702629C4BB9AE79C12F243C6432A6794E18E5552BA56B431AAB5D91317302B2B071E86C3A42B1A02F999E24061403B5D0EB639195DA655DD3EBEAB4FB862DDF579F014AD0E73C22F99E28DA57FB98E75C6CA2D74D53086D600F4786E0FE3144B771A8A7B900F03594DB8A633CBC49B2EDB69228BB479CF863B5E807AAAB
310
23872F6DFEB4129B949CA33823F58830E86D65621E10047D9DB34D862E8EAC3C2ABC2F7B2C40D67CDFE01F5545B92105AF983AC54D93D69E56FB8E797F88913F898A9FEC705D3F9D1B54EC8426FB500D40A03BD0119B06E1B95DDC7EB8F6975367793EBD70E66733DFB9BC982F9CE564727731999F5D4ECFCE3B8D6A4DC2A0
310
6D50FD148437D110834A64C6CDDF57FBACB5C307A2A477DFE4939736CFEF2B175371E0E10CF0DD1D5C15654E0BCA14D1E87DD02FF93782A162C0A3D95F1524A52770F972BF1EE9809D13CE7DD599467F8ECE9ADD85CE85A34CD45355448C64F9E8A031DC2D596ACC6E5DD93D9B82DE2EF5CAF81363A8E47996A0DE24564A79
310
4115AACE09C55E14540231FDA13C319787134EBF34E3A022514E5B4D9E0826E25C02D5805B15ABE1BEF51B26383D445DD9E875EE33FE4C22DA16427D65A3BCA92CA6D28DD01DF5DC53330704308475351050232CCD31583787BA75774AFB06E5070DD0C8EF484E19968C5D83BA5B90B244D31E54D55A372320FE4786B7EA58
310
44E135AA5467CB7EA333A61683CC6A8C3257034C10CF46F40EF9F5BE59BE5BD30C3C72D235E95D10345C1D45445A5F0BB47E46A5EBE5570F9380B5FA629579952296A773720405982B9DE04011506178964401AA8BDF1FBF0A8EAB6861DD6580C0E38217056766716DAEB2D6FA0917D3E4116581EADB879C4E7CFFB11EFACD
310
3D641311495D92C8676CB409A72D18610D803CE8A626049E8EC1887CB5B44CC39883690DDA8399B4B9855B481E7D71D4A9D22F96E5BB73BF5793020C02137BF837504B0304140006080000CC70623B000000000000000000000000350000006662782F36394639363044362D344446342D343946362D394244322D32343142
310
43333846323333332F76657274696365732E62696E504B0304140006080800CC70623BF270F1330600000004000000360000006662782F36394639363044362D344446342D343946362D394244322D3234314243333846323333332F747269616E676C65732E62696E636660600000504B0304140006080000CC70623B0000
310
00000000000000000000370000006662782F36394639363044362D344446342D343946362D394244322D3234314243333846323333332F617474726962757465732E62696E504B0304140006080800CC70623B08DA0BD19000000041010000360000006662782F36394639363044362D344446342D343946362D394244322D
310
3234314243333846323333332F6469726563746F72792E786D6C858F410AC3201045AF22B36F53E9A60B35CBEEBAE80D244E44489C6234F4F835464A48035D0DF398FF9F8AF63D0E6CC63039F212F8F9020C7D47C6792B21C5FE7403D62A1188E2E60C98D7234A5830286103A55745067B9D86B8A3CF9C7F90C11DE607FB14
310
4396D7B6A82D282E9A152AD114D5EF2CB866EEE831B8EEA07A7BB5A8D7D61A2BAAEB7FD5F70921FF497D00504B0304140006080800CC70623BCA768048FE000000A00100003B0000006662782F36394639363044362D344446342D343946362D394244322D3234314243333846323333332F7265736F75726365732F636F72
310
652E786D6C8D50596E833010BD0A9ADFCA60D600328E9AA639412F609909B1126CE4A5EAF16B0295DABFFECC8CDEA2797AECF8353F924FB44E193D409E5248504B332A3D0D10FC95B4901C39B3C6F85F3248B49871801506CE266BC2B243D2688FDA47549B11775038871E12F988C7004EDE7016A9083E2ADC3D5D84BC8B09
310
D33C8D74D471E6BC8D0192EDC93A815B742658898E651BCB59086ADC356A8C3FD555A1055ED7E7E254D615792D0F075295F585746FF53B694EE78A565DD736979A65AB9933AFE69F8CD2A2F038022F28ED489E135A7CE4554F9BBEA85E68DB53CAB255FEC71496F19FA6A0B42F8B3DEE6673C0F318E4497096AD7DC5F52C33
310
EEB55BFE0D504B010214000A0000080000CC70623B3DEE336E79000000790000001B00000000000000000000000000000000006175746F6465736B2D64657369676E2D7061636B6167652E786D6C504B01021400140006080800CC70623BD486FD9CA0000000F40000001300000000000000000000000000B20000005B436F
310
6E74656E745F54797065735D2E786D6C504B01021400140006080800CC70623BD9DDAED0EC0000007C010000080000000000000000000000000083010000636F72652E786D6C504B01021400140006080800CC70623B55019EA25F0000007C000000070000000000000000000000000095020000636E782E786D6C504B0102
310
1400140006080800CC70623BA24EB22D72010000D40300000C00000000000000000000000000190300006662782F636F72652E786D6C504B01021400140006080800CC70623B408A7D3B7C0000009D0000000B00000000000000000000000000B50400006662782F636E782E786D6C504B01021400140006080800CC70623B
310
449FB9BD290100001202000031000000000000000000000000005A0500006662782F36394639363044362D344446342D343946362D394244322D3234314243333846323333332F636F72652E786D6C504B01021400140006080800CC70623BAD7543B64E010000330300003000000000000000000000000000D20600006662
310
782F36394639363044362D344446342D343946362D394244322D3234314243333846323333332F636E782E786D6C504B01021400140006080800CC70623B8D05915C650500003B10000034000000000000000000000000006E0800006662782F36394639363044362D344446342D343946362D394244322D32343142433338
310
46323333332F6F626A656374732E786D6C504B01021400140006080000CC70623B0000000000000000000000003500000000000000000000000000250E00006662782F36394639363044362D344446342D343946362D394244322D3234314243333846323333332F76657274696365732E62696E504B010214001400060808
310
00CC70623BF270F13306000000040000003600000000000000000000000000780E00006662782F36394639363044362D344446342D343946362D394244322D3234314243333846323333332F747269616E676C65732E62696E504B01021400140006080000CC70623B00000000000000000000000037000000000000000000
310
00000000D20E00006662782F36394639363044362D344446342D343946362D394244322D3234314243333846323333332F617474726962757465732E62696E504B01021400140006080800CC70623B08DA0BD190000000410100003600000000000000000000000000270F00006662782F36394639363044362D344446342D
310
343946362D394244322D3234314243333846323333332F6469726563746F72792E786D6C504B01021400140006080800CC70623BCA768048FE000000A00100003B000000000000000000000000000B1000006662782F36394639363044362D344446342D343946362D394244322D3234314243333846323333332F7265736F
310
75726365732F636F72652E786D6C504B0506000000000E000E0080040000621100000000
  0
XRECORD
  5
176
102
{ACAD_REACTORS
330
173
102
}
330
173
100
AcDbXrecord
280
     1
270
     1
271
     1
  0
XRECORD
  5
177
102
{ACAD_REACTORS
330
173
102
}
330
173
100
AcDbXrecord
280
     1
270
     1
271
     1
  0
XRECORD
  5
5D80
102
{ACAD_REACTORS
330
5D7F
102
}
330
5D7F
100
AcDbXrecord
280
     1
102
ACAD_ROUNDTRIP_2012_MLEADER_STYLE
298
     1
  0
XRECORD
  5
5D92
102
{ACAD_REACTORS
330
5D91
102
}
330
5D91
100
AcDbXrecord
280
     1
102
DISPLAYNAME
  1
Metric50
102
FLAGS
 90
        0
  0
CELLSTYLEMAP
  5
5D52
102
{ACAD_REACTORS
330
162
102
}
330
162
100
AcDbCellStyleMap
 90
        3
300
CELLSTYLE
  1
TABLEFORMAT_BEGIN
 90
        5
170
     1
 91
        0
 92
    32768
 62
   257
 93
        1
300
CONTENTFORMAT
  1
CONTENTFORMAT_BEGIN
 90
        0
 91
        0
 92
      512
 93
        0
300

 40
0.0
140
1.0
 94
        5
 62
     0
340
11
144
6.0
309
CONTENTFORMAT_END
171
     1
301
MARGIN
  1
CELLMARGIN_BEGIN
 40
1.5
 40
1.5
 40
1.5
 40
1.5
 40
4.5
 40
4.5
309
CELLMARGIN_END
 94
        6
 95
        1
302
GRIDFORMAT
  1
GRIDFORMAT_BEGIN
 90
        0
 91
        1
 62
     0
 92
       -2
340
14
 93
        0
 40
1.125
309
GRIDFORMAT_END
 95
        2
302
GRIDFORMAT
  1
GRIDFORMAT_BEGIN
 90
        0
 91
        1
 62
     0
 92
       -2
340
14
 93
        0
 40
1.125
309
GRIDFORMAT_END
 95
        4
302
GRIDFORMAT
  1
GRIDFORMAT_BEGIN
 90
        0
 91
        1
 62
     0
 92
       -2
340
14
 93
        0
 40
1.125
309
GRIDFORMAT_END
 95
        8
302
GRIDFORMAT
  1
GRIDFORMAT_BEGIN
 90
        0
 91
        1
 62
     0
 92
       -2
340
14
 93
        0
 40
1.125
309
GRIDFORMAT_END
 95
       16
302
GRIDFORMAT
  1
GRIDFORMAT_BEGIN
 90
        0
 91
        1
 62
     0
 92
       -2
340
14
 93
        0
 40
1.125
309
GRIDFORMAT_END
 95
       32
302
GRIDFORMAT
  1
GRIDFORMAT_BEGIN
 90
        0
 91
        1
 62
     0
 92
       -2
340
14
 93
        0
 40
1.125
309
GRIDFORMAT_END
309
TABLEFORMAT_END
  1
CELLSTYLE_BEGIN
 90
        1
 91
        1
300
_TITLE
309
CELLSTYLE_END
300
CELLSTYLE
  1
TABLEFORMAT_BEGIN
 90
        5
170
     1
 91
        0
 92
        0
 62
   257
 93
        1
300
CONTENTFORMAT
  1
CONTENTFORMAT_BEGIN
 90
        0
 91
        0
 92
      512
 93
        0
300

 40
0.0
140
1.0
 94
        5
 62
     0
340
11
144
4.5
309
CONTENTFORMAT_END
171
     1
301
MARGIN
  1
CELLMARGIN_BEGIN
 40
1.5
 40
1.5
 40
1.5
 40
1.5
 40
4.5
 40
4.5
309
CELLMARGIN_END
 94
        6
 95
        1
302
GRIDFORMAT
  1
GRIDFORMAT_BEGIN
 90
        0
 91
        1
 62
     0
 92
       -2
340
14
 93
        0
 40
1.125
309
GRIDFORMAT_END
 95
        2
302
GRIDFORMAT
  1
GRIDFORMAT_BEGIN
 90
        0
 91
        1
 62
     0
 92
       -2
340
14
 93
        0
 40
1.125
309
GRIDFORMAT_END
 95
        4
302
GRIDFORMAT
  1
GRIDFORMAT_BEGIN
 90
        0
 91
        1
 62
     0
 92
       -2
340
14
 93
        0
 40
1.125
309
GRIDFORMAT_END
 95
        8
302
GRIDFORMAT
  1
GRIDFORMAT_BEGIN
 90
        0
 91
        1
 62
     0
 92
       -2
340
14
 93
        0
 40
1.125
309
GRIDFORMAT_END
 95
       16
302
GRIDFORMAT
  1
GRIDFORMAT_BEGIN
 90
        0
 91
        1
 62
     0
 92
       -2
340
14
 93
        0
 40
1.125
309
GRIDFORMAT_END
 95
       32
302
GRIDFORMAT
  1
GRIDFORMAT_BEGIN
 90
        0
 91
        1
 62
     0
 92
       -2
340
14
 93
        0
 40
1.125
309
GRIDFORMAT_END
309
TABLEFORMAT_END
  1
CELLSTYLE_BEGIN
 90
        2
 91
        1
300
_HEADER
309
CELLSTYLE_END
300
CELLSTYLE
  1
TABLEFORMAT_BEGIN
 90
        5
170
     1
 91
        0
 92
        0
 62
   257
 93
        1
300
CONTENTFORMAT
  1
CONTENTFORMAT_BEGIN
 90
        0
 91
        0
 92
      512
 93
        0
300

 40
0.0
140
1.0
 94
        2
 62
     0
340
11
144
4.5
309
CONTENTFORMAT_END
171
     1
301
MARGIN
  1
CELLMARGIN_BEGIN
 40
1.5
 40
1.5
 40
1.5
 40
1.5
 40
4.5
 40
4.5
309
CELLMARGIN_END
 94
        6
 95
        1
302
GRIDFORMAT
  1
GRIDFORMAT_BEGIN
 90
        0
 91
        1
 62
     0
 92
       -2
340
14
 93
        0
 40
1.125
309
GRIDFORMAT_END
 95
        2
302
GRIDFORMAT
  1
GRIDFORMAT_BEGIN
 90
        0
 91
        1
 62
     0
 92
       -2
340
14
 93
        0
 40
1.125
309
GRIDFORMAT_END
 95
        4
302
GRIDFORMAT
  1
GRIDFORMAT_BEGIN
 90
        0
 91
        1
 62
     0
 92
       -2
340
14
 93
        0
 40
1.125
309
GRIDFORMAT_END
 95
        8
302
GRIDFORMAT
  1
GRIDFORMAT_BEGIN
 90
        0
 91
        1
 62
     0
 92
       -2
340
14
 93
        0
 40
1.125
309
GRIDFORMAT_END
 95
       16
302
GRIDFORMAT
  1
GRIDFORMAT_BEGIN
 90
        0
 91
        1
 62
     0
 92
       -2
340
14
 93
        0
 40
1.125
309
GRIDFORMAT_END
 95
       32
302
GRIDFORMAT
  1
GRIDFORMAT_BEGIN
 90
        0
 91
        1
 62
     0
 92
       -2
340
14
 93
        0
 40
1.125
309
GRIDFORMAT_END
309
TABLEFORMAT_END
  1
CELLSTYLE_BEGIN
 90
        3
 91
        2
300
_DATA
309
CELLSTYLE_END
  0
XRECORD
  5
5D57
102
{ACAD_REACTORS
330
162
102
}
330
162
100
AcDbXrecord
280
     1
102
ACAD_ROUNDTRIP_PRE2007_TABLESTYLE
 90
      512
 91
        0
  1

 92
      512
 93
        0
  2

 94
      512
 95
        0
  3

  0
XRECORD
  5
5D6A
102
{ACAD_REACTORS
330
5D69
102
}
330
5D69
100
AcDbXrecord
280
     1
102
RTVSPost2010Prop28
280
     1
102
RTVSPost2010PropOp28
 70
     1
102
RTVSPost2010Prop29
280
     1
102
RTVSPost2010PropOp29
 70
     1
102
RTVSPost2010Prop30
280
     0
102
RTVSPost2010PropOp30
 70
     1
102
RTVSPost2010Prop31
280
     0
102
RTVSPost2010PropOp31
 70
     1
102
RTVSPost2010Prop32
280
     0
102
RTVSPost2010PropOp32
 70
     1
102
RTVSPost2010Prop33
280
     0
102
RTVSPost2010PropOp33
 70
     1
102
RTVSPost2010Prop34
280
     0
102
RTVSPost2010PropOp34
 70
     1
102
RTVSPost2010Prop35
280
     0
102
RTVSPost2010PropOp35
 70
     1
102
RTVSPost2010Prop36
280
     0
102
RTVSPost2010PropOp36
 70
     1
102
RTVSPost2010Prop37
 90
       50
102
RTVSPost2010PropOp37
 70
     1
102
RTVSPost2010Prop38
140
0.0
102
RTVSPost2010PropOp38
 70
     1
102
RTVSPost2010Prop39
140
1.0
102
RTVSPost2010PropOp39
 70
     1
102
RTVSPost2010Prop40
 90
        0
102
RTVSPost2010PropOp40
 70
     1
102
RTVSPost2010Prop41ColorIndex
 90
       18
102
RTVSPost2010Prop41ColorRGB
 90
        0
102
RTVSPost2010PropOp41
 70
     1
102
RTVSPost2010Prop42
 90
       50
102
RTVSPost2010PropOp42
 70
     1
102
RTVSPost2010Prop43
 90
        3
102
RTVSPost2010PropOp43
 70
     1
102
RTVSPost2010Prop44ColorIndex
 90
        5
102
RTVSPost2010Prop44ColorRGB
 90
      255
102
RTVSPost2010PropOp44
 70
     1
102
RTVSPost2010Prop45
280
     0
102
RTVSPost2010PropOp45
 70
     1
102
RTVSPost2010Prop46
 90
       50
102
RTVSPost2010PropOp46
 70
     1
102
RTVSPost2010Prop47
 90
       50
102
RTVSPost2010PropOp47
 70
     1
102
RTVSPost2010Prop48
 90
       50
102
RTVSPost2010PropOp48
 70
     1
102
RTVSPost2010Prop49
280
     0
102
RTVSPost2010PropOp49
 70
     1
102
RTVSPost2010Prop50
 90
       50
102
RTVSPost2010PropOp50
 70
     1
102
RTVSPost2010Prop51ColorIndex
 90
      256
102
RTVSPost2010Prop51ColorRGB
 90
-16777216
102
RTVSPost2010PropOp51
 70
     0
102
RTVSPost2010Prop52
140
1.0
102
RTVSPost2010PropOp52
 70
     0
102
RTVSPost2010Prop53
 90
        2
102
RTVSPost2010PropOp53
 70
     1
102
RTVSPost2010Prop54
  1
strokes_ogs.tif
102
RTVSPost2010PropOp54
 70
     1
102
RTVSPost2010Prop55
280
     0
102
RTVSPost2010PropOp55
 70
     1
102
RTVSPost2010Prop56
140
1.0
102
RTVSPost2010PropOp56
 70
     1
102
RTVSPost2010Prop57
140
1.0
102
RTVSPost2010PropOp57
 70
     1
102
RTVSPropertyOp0
 70
     1
102
RTVSPropertyOp1
 70
     1
102
RTVSPropertyOp2
 70
     1
102
RTVSPropertyOp3
 70
     1
102
RTVSPropertyOp4
 70
     1
102
RTVSPropertyOp5
 70
     1
102
RTVSPropertyOp6
 70
     1
102
RTVSPropertyOp7
 70
     1
102
RTVSPropertyOp8
 70
     1
102
RTVSPropertyOp9
 70
     1
102
RTVSPropertyOp10
 70
     1
102
RTVSPropertyOp11
 70
     1
102
RTVSPropertyOp12
 70
     1
102
RTVSPropertyOp13
 70
     1
102
RTVSPropertyOp14
 70
     1
102
RTVSPropertyOp15
 70
     1
102
RTVSPropertyOp16
 70
     1
102
RTVSPropertyOp17
 70
     1
102
RTVSPropertyOp18
 70
     1
102
RTVSPropertyOp19
 70
     1
102
RTVSPropertyOp20
 70
     1
102
RTVSPropertyOp21
 70
     1
102
RTVSPropertyOp22
 70
     1
102
RTVSPropertyOp23
 70
     1
102
RTVSPropertyOp24
 70
     1
102
RTVSPropertyOp25
 70
     1
102
RTVSPropertyOp26
 70
     1
102
RTVSPropertyOp27
 70
     1
102
RTVSPropertyOp28
 70
     1
102
RTVSPropertyOp29
 70
     1
102
RTVSPropertyOp30
 70
     1
102
RTVSPropertyOp31
 70
     1
102
RTVSPropertyOp32
 70
     1
102
RTVSPropertyOp33
 70
     1
102
RTVSPropertyOp34
 70
     1
102
RTVSPropertyOp35
 70
     1
102
RTVSPropertyOp36
 70
     1
102
RTVSPropertyOp37
 70
     1
102
RTVSPropertyOp38
 70
     1
102
RTVSPropertyOp39
 70
     1
102
RTVSPropertyOp40
 70
     1
102
RTVSPropertyOp41
 70
     1
102
RTVSPropertyOp42
 70
     1
102
RTVSPropertyOp43
 70
     1
102
RTVSPropertyOp44
 70
     1
102
RTVSPropertyOp45
 70
     1
102
RTVSPropertyOp46
 70
     1
102
RTVSPropertyOp47
 70
     1
102
RTVSPropertyOp48
 70
     1
102
RTVSPropertyOp49
 70
     1
102
RTVSPropertyOp50
 70
     1
102
RTVSPropertyOp51
 70
     0
102
RTVSPropertyOp52
 70
     0
102
RTVSPropertyOp53
 70
     1
102
RTVSPropertyOp54
 70
     1
102
RTVSPropertyOp55
 70
     1
102
RTVSPropertyOp56
 70
     1
102
RTVSPropertyOp57
 70
     1
102
RTVSPropertyOp58
 70
     1
102
RTVSPropertyOp59
 70
     1
102
RTVSPropertyOp60
 70
     1
102
RTVSPropertyOp61
 70
     1
102
RTVSPropertyOp62
 70
     1
  0
XRECORD
  5
5D68
102
{ACAD_REACTORS
330
5D67
102
}
330
5D67
100
AcDbXrecord
280
     1
102
RTVSPost2010Prop28
280
     0
102
RTVSPost2010PropOp28
 70
     1
102
RTVSPost2010Prop29
280
     1
102
RTVSPost2010PropOp29
 70
     1
102
RTVSPost2010Prop30
280
     1
102
RTVSPost2010PropOp30
 70
     1
102
RTVSPost2010Prop31
280
     0
102
RTVSPost2010PropOp31
 70
     1
102
RTVSPost2010Prop32
280
     0
102
RTVSPost2010PropOp32
 70
     1
102
RTVSPost2010Prop33
280
     0
102
RTVSPost2010PropOp33
 70
     1
102
RTVSPost2010Prop34
280
     0
102
RTVSPost2010PropOp34
 70
     1
102
RTVSPost2010Prop35
280
     0
102
RTVSPost2010PropOp35
 70
     1
102
RTVSPost2010Prop36
280
     0
102
RTVSPost2010PropOp36
 70
     1
102
RTVSPost2010Prop37
 90
       50
102
RTVSPost2010PropOp37
 70
     1
102
RTVSPost2010Prop38
140
0.0
102
RTVSPost2010PropOp38
 70
     1
102
RTVSPost2010Prop39
140
1.0
102
RTVSPost2010PropOp39
 70
     1
102
RTVSPost2010Prop40
 90
        0
102
RTVSPost2010PropOp40
 70
     1
102
RTVSPost2010Prop41ColorIndex
 90
       18
102
RTVSPost2010Prop41ColorRGB
 90
        0
102
RTVSPost2010PropOp41
 70
     1
102
RTVSPost2010Prop42
 90
       50
102
RTVSPost2010PropOp42
 70
     1
102
RTVSPost2010Prop43
 90
        3
102
RTVSPost2010PropOp43
 70
     1
102
RTVSPost2010Prop44ColorIndex
 90
        5
102
RTVSPost2010Prop44ColorRGB
 90
      255
102
RTVSPost2010PropOp44
 70
     1
102
RTVSPost2010Prop45
280
     0
102
RTVSPost2010PropOp45
 70
     1
102
RTVSPost2010Prop46
 90
       50
102
RTVSPost2010PropOp46
 70
     1
102
RTVSPost2010Prop47
 90
       50
102
RTVSPost2010PropOp47
 70
     1
102
RTVSPost2010Prop48
 90
       50
102
RTVSPost2010PropOp48
 70
     1
102
RTVSPost2010Prop49
280
     0
102
RTVSPost2010PropOp49
 70
     1
102
RTVSPost2010Prop50
 90
       50
102
RTVSPost2010PropOp50
 70
     1
102
RTVSPost2010Prop51ColorIndex
 90
      256
102
RTVSPost2010Prop51ColorRGB
 90
-16777216
102
RTVSPost2010PropOp51
 70
     0
102
RTVSPost2010Prop52
140
1.0
102
RTVSPost2010PropOp52
 70
     0
102
RTVSPost2010Prop53
 90
        2
102
RTVSPost2010PropOp53
 70
     1
102
RTVSPost2010Prop54
  1
strokes_ogs.tif
102
RTVSPost2010PropOp54
 70
     1
102
RTVSPost2010Prop55
280
     0
102
RTVSPost2010PropOp55
 70
     1
102
RTVSPost2010Prop56
140
1.0
102
RTVSPost2010PropOp56
 70
     1
102
RTVSPost2010Prop57
140
1.0
102
RTVSPost2010PropOp57
 70
     1
102
RTVSPropertyOp0
 70
     1
102
RTVSPropertyOp1
 70
     1
102
RTVSPropertyOp2
 70
     1
102
RTVSPropertyOp3
 70
     1
102
RTVSPropertyOp4
 70
     1
102
RTVSPropertyOp5
 70
     1
102
RTVSPropertyOp6
 70
     1
102
RTVSPropertyOp7
 70
     1
102
RTVSPropertyOp8
 70
     1
102
RTVSPropertyOp9
 70
     1
102
RTVSPropertyOp10
 70
     1
102
RTVSPropertyOp11
 70
     1
102
RTVSPropertyOp12
 70
     1
102
RTVSPropertyOp13
 70
     1
102
RTVSPropertyOp14
 70
     1
102
RTVSPropertyOp15
 70
     1
102
RTVSPropertyOp16
 70
     1
102
RTVSPropertyOp17
 70
     1
102
RTVSPropertyOp18
 70
     1
102
RTVSPropertyOp19
 70
     1
102
RTVSPropertyOp20
 70
     1
102
RTVSPropertyOp21
 70
     1
102
RTVSPropertyOp22
 70
     1
102
RTVSPropertyOp23
 70
     1
102
RTVSPropertyOp24
 70
     1
102
RTVSPropertyOp25
 70
     1
102
RTVSPropertyOp26
 70
     1
102
RTVSPropertyOp27
 70
     1
102
RTVSPropertyOp28
 70
     1
102
RTVSPropertyOp29
 70
     1
102
RTVSPropertyOp30
 70
     1
102
RTVSPropertyOp31
 70
     1
102
RTVSPropertyOp32
 70
     1
102
RTVSPropertyOp33
 70
     1
102
RTVSPropertyOp34
 70
     1
102
RTVSPropertyOp35
 70
     1
102
RTVSPropertyOp36
 70
     1
102
RTVSPropertyOp37
 70
     1
102
RTVSPropertyOp38
 70
     1
102
RTVSPropertyOp39
 70
     1
102
RTVSPropertyOp40
 70
     1
102
RTVSPropertyOp41
 70
     1
102
RTVSPropertyOp42
 70
     1
102
RTVSPropertyOp43
 70
     1
102
RTVSPropertyOp44
 70
     1
102
RTVSPropertyOp45
 70
     1
102
RTVSPropertyOp46
 70
     1
102
RTVSPropertyOp47
 70
     1
102
RTVSPropertyOp48
 70
     1
102
RTVSPropertyOp49
 70
     1
102
RTVSPropertyOp50
 70
     1
102
RTVSPropertyOp51
 70
     0
102
RTVSPropertyOp52
 70
     0
102
RTVSPropertyOp53
 70
     1
102
RTVSPropertyOp54
 70
     1
102
RTVSPropertyOp55
 70
     1
102
RTVSPropertyOp56
 70
     1
102
RTVSPropertyOp57
 70
     1
102
RTVSPropertyOp58
 70
     1
102
RTVSPropertyOp59
 70
     1
102
RTVSPropertyOp60
 70
     1
102
RTVSPropertyOp61
 70
     1
102
RTVSPropertyOp62
 70
     1
  0
XRECORD
  5
5D76
102
{ACAD_REACTORS
330
5D75
102
}
330
5D75
100
AcDbXrecord
280
     1
102
RTVSPost2010Prop28
280
     0
102
RTVSPost2010PropOp28
 70
     1
102
RTVSPost2010Prop29
280
     1
102
RTVSPost2010PropOp29
 70
     1
102
RTVSPost2010Prop30
280
     1
102
RTVSPost2010PropOp30
 70
     1
102
RTVSPost2010Prop31
280
     0
102
RTVSPost2010PropOp31
 70
     1
102
RTVSPost2010Prop32
280
     0
102
RTVSPost2010PropOp32
 70
     1
102
RTVSPost2010Prop33
280
     0
102
RTVSPost2010PropOp33
 70
     1
102
RTVSPost2010Prop34
280
     0
102
RTVSPost2010PropOp34
 70
     1
102
RTVSPost2010Prop35
280
     0
102
RTVSPost2010PropOp35
 70
     1
102
RTVSPost2010Prop36
280
     0
102
RTVSPost2010PropOp36
 70
     1
102
RTVSPost2010Prop37
 90
       50
102
RTVSPost2010PropOp37
 70
     1
102
RTVSPost2010Prop38
140
0.0
102
RTVSPost2010PropOp38
 70
     1
102
RTVSPost2010Prop39
140
1.0
102
RTVSPost2010PropOp39
 70
     1
102
RTVSPost2010Prop40
 90
        0
102
RTVSPost2010PropOp40
 70
     1
102
RTVSPost2010Prop41ColorIndex
 90
       18
102
RTVSPost2010Prop41ColorRGB
 90
        0
102
RTVSPost2010PropOp41
 70
     1
102
RTVSPost2010Prop42
 90
       50
102
RTVSPost2010PropOp42
 70
     1
102
RTVSPost2010Prop43
 90
        3
102
RTVSPost2010PropOp43
 70
     1
102
RTVSPost2010Prop44ColorIndex
 90
        5
102
RTVSPost2010Prop44ColorRGB
 90
      255
102
RTVSPost2010PropOp44
 70
     1
102
RTVSPost2010Prop45
280
     0
102
RTVSPost2010PropOp45
 70
     1
102
RTVSPost2010Prop46
 90
       50
102
RTVSPost2010PropOp46
 70
     1
102
RTVSPost2010Prop47
 90
       50
102
RTVSPost2010PropOp47
 70
     1
102
RTVSPost2010Prop48
 90
       50
102
RTVSPost2010PropOp48
 70
     1
102
RTVSPost2010Prop49
280
     0
102
RTVSPost2010PropOp49
 70
     1
102
RTVSPost2010Prop50
 90
       50
102
RTVSPost2010PropOp50
 70
     1
102
RTVSPost2010Prop51ColorIndex
 90
      256
102
RTVSPost2010Prop51ColorRGB
 90
-16777216
102
RTVSPost2010PropOp51
 70
     0
102
RTVSPost2010Prop52
140
1.0
102
RTVSPost2010PropOp52
 70
     0
102
RTVSPost2010Prop53
 90
        2
102
RTVSPost2010PropOp53
 70
     1
102
RTVSPost2010Prop54
  1
strokes_ogs.tif
102
RTVSPost2010PropOp54
 70
     1
102
RTVSPost2010Prop55
280
     0
102
RTVSPost2010PropOp55
 70
     1
102
RTVSPost2010Prop56
140
1.0
102
RTVSPost2010PropOp56
 70
     1
102
RTVSPost2010Prop57
140
1.0
102
RTVSPost2010PropOp57
 70
     1
102
RTVSPropertyOp0
 70
     1
102
RTVSPropertyOp1
 70
     1
102
RTVSPropertyOp2
 70
     1
102
RTVSPropertyOp3
 70
     1
102
RTVSPropertyOp4
 70
     1
102
RTVSPropertyOp5
 70
     1
102
RTVSPropertyOp6
 70
     1
102
RTVSPropertyOp7
 70
     1
102
RTVSPropertyOp8
 70
     1
102
RTVSPropertyOp9
 70
     1
102
RTVSPropertyOp10
 70
     1
102
RTVSPropertyOp11
 70
     1
102
RTVSPropertyOp12
 70
     1
102
RTVSPropertyOp13
 70
     1
102
RTVSPropertyOp14
 70
     1
102
RTVSPropertyOp15
 70
     1
102
RTVSPropertyOp16
 70
     1
102
RTVSPropertyOp17
 70
     1
102
RTVSPropertyOp18
 70
     1
102
RTVSPropertyOp19
 70
     1
102
RTVSPropertyOp20
 70
     1
102
RTVSPropertyOp21
 70
     1
102
RTVSPropertyOp22
 70
     1
102
RTVSPropertyOp23
 70
     1
102
RTVSPropertyOp24
 70
     1
102
RTVSPropertyOp25
 70
     1
102
RTVSPropertyOp26
 70
     1
102
RTVSPropertyOp27
 70
     1
102
RTVSPropertyOp28
 70
     1
102
RTVSPropertyOp29
 70
     1
102
RTVSPropertyOp30
 70
     1
102
RTVSPropertyOp31
 70
     1
102
RTVSPropertyOp32
 70
     1
102
RTVSPropertyOp33
 70
     1
102
RTVSPropertyOp34
 70
     1
102
RTVSPropertyOp35
 70
     1
102
RTVSPropertyOp36
 70
     1
102
RTVSPropertyOp37
 70
     1
102
RTVSPropertyOp38
 70
     1
102
RTVSPropertyOp39
 70
     1
102
RTVSPropertyOp40
 70
     1
102
RTVSPropertyOp41
 70
     1
102
RTVSPropertyOp42
 70
     1
102
RTVSPropertyOp43
 70
     1
102
RTVSPropertyOp44
 70
     1
102
RTVSPropertyOp45
 70
     1
102
RTVSPropertyOp46
 70
     1
102
RTVSPropertyOp47
 70
     1
102
RTVSPropertyOp48
 70
     1
102
RTVSPropertyOp49
 70
     1
102
RTVSPropertyOp50
 70
     1
102
RTVSPropertyOp51
 70
     0
102
RTVSPropertyOp52
 70
     0
102
RTVSPropertyOp53
 70
     1
102
RTVSPropertyOp54
 70
     1
102
RTVSPropertyOp55
 70
     1
102
RTVSPropertyOp56
 70
     1
102
RTVSPropertyOp57
 70
     1
102
RTVSPropertyOp58
 70
     1
102
RTVSPropertyOp59
 70
     1
102
RTVSPropertyOp60
 70
     1
102
RTVSPropertyOp61
 70
     1
102
RTVSPropertyOp62
 70
     1
  0
XRECORD
  5
5D7E
102
{ACAD_REACTORS
330
5D7D
102
}
330
5D7D
100
AcDbXrecord
280
     1
102
RTVSPost2010Prop28
280
     0
102
RTVSPost2010PropOp28
 70
     1
102
RTVSPost2010Prop29
280
     1
102
RTVSPost2010PropOp29
 70
     1
102
RTVSPost2010Prop30
280
     1
102
RTVSPost2010PropOp30
 70
     1
102
RTVSPost2010Prop31
280
     0
102
RTVSPost2010PropOp31
 70
     1
102
RTVSPost2010Prop32
280
     0
102
RTVSPost2010PropOp32
 70
     1
102
RTVSPost2010Prop33
280
     0
102
RTVSPost2010PropOp33
 70
     1
102
RTVSPost2010Prop34
280
     0
102
RTVSPost2010PropOp34
 70
     1
102
RTVSPost2010Prop35
280
     0
102
RTVSPost2010PropOp35
 70
     1
102
RTVSPost2010Prop36
280
     0
102
RTVSPost2010PropOp36
 70
     1
102
RTVSPost2010Prop37
 90
       50
102
RTVSPost2010PropOp37
 70
     1
102
RTVSPost2010Prop38
140
0.0
102
RTVSPost2010PropOp38
 70
     1
102
RTVSPost2010Prop39
140
1.0
102
RTVSPost2010PropOp39
 70
     1
102
RTVSPost2010Prop40
 90
        0
102
RTVSPost2010PropOp40
 70
     1
102
RTVSPost2010Prop41ColorIndex
 90
       18
102
RTVSPost2010Prop41ColorRGB
 90
        0
102
RTVSPost2010PropOp41
 70
     1
102
RTVSPost2010Prop42
 90
       50
102
RTVSPost2010PropOp42
 70
     1
102
RTVSPost2010Prop43
 90
        3
102
RTVSPost2010PropOp43
 70
     1
102
RTVSPost2010Prop44ColorIndex
 90
        5
102
RTVSPost2010Prop44ColorRGB
 90
      255
102
RTVSPost2010PropOp44
 70
     1
102
RTVSPost2010Prop45
280
     0
102
RTVSPost2010PropOp45
 70
     1
102
RTVSPost2010Prop46
 90
       50
102
RTVSPost2010PropOp46
 70
     1
102
RTVSPost2010Prop47
 90
       50
102
RTVSPost2010PropOp47
 70
     1
102
RTVSPost2010Prop48
 90
       50
102
RTVSPost2010PropOp48
 70
     1
102
RTVSPost2010Prop49
280
     0
102
RTVSPost2010PropOp49
 70
     1
102
RTVSPost2010Prop50
 90
       50
102
RTVSPost2010PropOp50
 70
     1
102
RTVSPost2010Prop51ColorIndex
 90
      256
102
RTVSPost2010Prop51ColorRGB
 90
-16777216
102
RTVSPost2010PropOp51
 70
     0
102
RTVSPost2010Prop52
140
1.0
102
RTVSPost2010PropOp52
 70
     0
102
RTVSPost2010Prop53
 90
        2
102
RTVSPost2010PropOp53
 70
     1
102
RTVSPost2010Prop54
  1
strokes_ogs.tif
102
RTVSPost2010PropOp54
 70
     1
102
RTVSPost2010Prop55
280
     0
102
RTVSPost2010PropOp55
 70
     1
102
RTVSPost2010Prop56
140
1.0
102
RTVSPost2010PropOp56
 70
     1
102
RTVSPost2010Prop57
140
1.0
102
RTVSPost2010PropOp57
 70
     1
102
RTVSPropertyOp0
 70
     1
102
RTVSPropertyOp1
 70
     1
102
RTVSPropertyOp2
 70
     1
102
RTVSPropertyOp3
 70
     1
102
RTVSPropertyOp4
 70
     1
102
RTVSPropertyOp5
 70
     1
102
RTVSPropertyOp6
 70
     1
102
RTVSPropertyOp7
 70
     1
102
RTVSPropertyOp8
 70
     1
102
RTVSPropertyOp9
 70
     1
102
RTVSPropertyOp10
 70
     1
102
RTVSPropertyOp11
 70
     1
102
RTVSPropertyOp12
 70
     1
102
RTVSPropertyOp13
 70
     1
102
RTVSPropertyOp14
 70
     1
102
RTVSPropertyOp15
 70
     1
102
RTVSPropertyOp16
 70
     1
102
RTVSPropertyOp17
 70
     1
102
RTVSPropertyOp18
 70
     1
102
RTVSPropertyOp19
 70
     1
102
RTVSPropertyOp20
 70
     1
102
RTVSPropertyOp21
 70
     1
102
RTVSPropertyOp22
 70
     1
102
RTVSPropertyOp23
 70
     1
102
RTVSPropertyOp24
 70
     1
102
RTVSPropertyOp25
 70
     1
102
RTVSPropertyOp26
 70
     1
102
RTVSPropertyOp27
 70
     1
102
RTVSPropertyOp28
 70
     1
102
RTVSPropertyOp29
 70
     1
102
RTVSPropertyOp30
 70
     1
102
RTVSPropertyOp31
 70
     1
102
RTVSPropertyOp32
 70
     1
102
RTVSPropertyOp33
 70
     1
102
RTVSPropertyOp34
 70
     1
102
RTVSPropertyOp35
 70
     1
102
RTVSPropertyOp36
 70
     1
102
RTVSPropertyOp37
 70
     1
102
RTVSPropertyOp38
 70
     1
102
RTVSPropertyOp39
 70
     1
102
RTVSPropertyOp40
 70
     1
102
RTVSPropertyOp41
 70
     1
102
RTVSPropertyOp42
 70
     1
102
RTVSPropertyOp43
 70
     1
102
RTVSPropertyOp44
 70
     1
102
RTVSPropertyOp45
 70
     1
102
RTVSPropertyOp46
 70
     1
102
RTVSPropertyOp47
 70
     1
102
RTVSPropertyOp48
 70
     1
102
RTVSPropertyOp49
 70
     1
102
RTVSPropertyOp50
 70
     1
102
RTVSPropertyOp51
 70
     0
102
RTVSPropertyOp52
 70
     0
102
RTVSPropertyOp53
 70
     1
102
RTVSPropertyOp54
 70
     1
102
RTVSPropertyOp55
 70
     1
102
RTVSPropertyOp56
 70
     1
102
RTVSPropertyOp57
 70
     1
102
RTVSPropertyOp58
 70
     1
102
RTVSPropertyOp59
 70
     1
102
RTVSPropertyOp60
 70
     1
102
RTVSPropertyOp61
 70
     1
102
RTVSPropertyOp62
 70
     1
  0
XRECORD
  5
5D70
102
{ACAD_REACTORS
330
5D6F
102
}
330
5D6F
100
AcDbXrecord
280
     1
102
RTVSPost2010Prop28
280
     0
102
RTVSPost2010PropOp28
 70
     1
102
RTVSPost2010Prop29
280
     1
102
RTVSPost2010PropOp29
 70
     1
102
RTVSPost2010Prop30
280
     1
102
RTVSPost2010PropOp30
 70
     1
102
RTVSPost2010Prop31
280
     0
102
RTVSPost2010PropOp31
 70
     1
102
RTVSPost2010Prop32
280
     0
102
RTVSPost2010PropOp32
 70
     1
102
RTVSPost2010Prop33
280
     0
102
RTVSPost2010PropOp33
 70
     1
102
RTVSPost2010Prop34
280
     0
102
RTVSPost2010PropOp34
 70
     1
102
RTVSPost2010Prop35
280
     0
102
RTVSPost2010PropOp35
 70
     1
102
RTVSPost2010Prop36
280
     0
102
RTVSPost2010PropOp36
 70
     1
102
RTVSPost2010Prop37
 90
       50
102
RTVSPost2010PropOp37
 70
     1
102
RTVSPost2010Prop38
140
0.0
102
RTVSPost2010PropOp38
 70
     1
102
RTVSPost2010Prop39
140
1.0
102
RTVSPost2010PropOp39
 70
     1
102
RTVSPost2010Prop40
 90
        0
102
RTVSPost2010PropOp40
 70
     1
102
RTVSPost2010Prop41ColorIndex
 90
       18
102
RTVSPost2010Prop41ColorRGB
 90
        0
102
RTVSPost2010PropOp41
 70
     1
102
RTVSPost2010Prop42
 90
       50
102
RTVSPost2010PropOp42
 70
     1
102
RTVSPost2010Prop43
 90
        3
102
RTVSPost2010PropOp43
 70
     1
102
RTVSPost2010Prop44ColorIndex
 90
        5
102
RTVSPost2010Prop44ColorRGB
 90
      255
102
RTVSPost2010PropOp44
 70
     1
102
RTVSPost2010Prop45
280
     0
102
RTVSPost2010PropOp45
 70
     1
102
RTVSPost2010Prop46
 90
       50
102
RTVSPost2010PropOp46
 70
     1
102
RTVSPost2010Prop47
 90
       50
102
RTVSPost2010PropOp47
 70
     1
102
RTVSPost2010Prop48
 90
       50
102
RTVSPost2010PropOp48
 70
     1
102
RTVSPost2010Prop49
280
     0
102
RTVSPost2010PropOp49
 70
     1
102
RTVSPost2010Prop50
 90
       50
102
RTVSPost2010PropOp50
 70
     1
102
RTVSPost2010Prop51ColorIndex
 90
      256
102
RTVSPost2010Prop51ColorRGB
 90
-16777216
102
RTVSPost2010PropOp51
 70
     0
102
RTVSPost2010Prop52
140
1.0
102
RTVSPost2010PropOp52
 70
     0
102
RTVSPost2010Prop53
 90
        2
102
RTVSPost2010PropOp53
 70
     1
102
RTVSPost2010Prop54
  1
strokes_ogs.tif
102
RTVSPost2010PropOp54
 70
     1
102
RTVSPost2010Prop55
280
     0
102
RTVSPost2010PropOp55
 70
     1
102
RTVSPost2010Prop56
140
1.0
102
RTVSPost2010PropOp56
 70
     1
102
RTVSPost2010Prop57
140
1.0
102
RTVSPost2010PropOp57
 70
     1
102
RTVSPropertyOp0
 70
     1
102
RTVSPropertyOp1
 70
     1
102
RTVSPropertyOp2
 70
     1
102
RTVSPropertyOp3
 70
     1
102
RTVSPropertyOp4
 70
     1
102
RTVSPropertyOp5
 70
     1
102
RTVSPropertyOp6
 70
     1
102
RTVSPropertyOp7
 70
     1
102
RTVSPropertyOp8
 70
     1
102
RTVSPropertyOp9
 70
     1
102
RTVSPropertyOp10
 70
     1
102
RTVSPropertyOp11
 70
     1
102
RTVSPropertyOp12
 70
     1
102
RTVSPropertyOp13
 70
     1
102
RTVSPropertyOp14
 70
     1
102
RTVSPropertyOp15
 70
     1
102
RTVSPropertyOp16
 70
     1
102
RTVSPropertyOp17
 70
     1
102
RTVSPropertyOp18
 70
     1
102
RTVSPropertyOp19
 70
     1
102
RTVSPropertyOp20
 70
     1
102
RTVSPropertyOp21
 70
     1
102
RTVSPropertyOp22
 70
     1
102
RTVSPropertyOp23
 70
     1
102
RTVSPropertyOp24
 70
     1
102
RTVSPropertyOp25
 70
     1
102
RTVSPropertyOp26
 70
     1
102
RTVSPropertyOp27
 70
     1
102
RTVSPropertyOp28
 70
     1
102
RTVSPropertyOp29
 70
     1
102
RTVSPropertyOp30
 70
     1
102
RTVSPropertyOp31
 70
     1
102
RTVSPropertyOp32
 70
     1
102
RTVSPropertyOp33
 70
     1
102
RTVSPropertyOp34
 70
     1
102
RTVSPropertyOp35
 70
     1
102
RTVSPropertyOp36
 70
     1
102
RTVSPropertyOp37
 70
     1
102
RTVSPropertyOp38
 70
     1
102
RTVSPropertyOp39
 70
     1
102
RTVSPropertyOp40
 70
     1
102
RTVSPropertyOp41
 70
     1
102
RTVSPropertyOp42
 70
     1
102
RTVSPropertyOp43
 70
     1
102
RTVSPropertyOp44
 70
     1
102
RTVSPropertyOp45
 70
     1
102
RTVSPropertyOp46
 70
     1
102
RTVSPropertyOp47
 70
     1
102
RTVSPropertyOp48
 70
     1
102
RTVSPropertyOp49
 70
     1
102
RTVSPropertyOp50
 70
     1
102
RTVSPropertyOp51
 70
     0
102
RTVSPropertyOp52
 70
     0
102
RTVSPropertyOp53
 70
     1
102
RTVSPropertyOp54
 70
     1
102
RTVSPropertyOp55
 70
     1
102
RTVSPropertyOp56
 70
     1
102
RTVSPropertyOp57
 70
     1
102
RTVSPropertyOp58
 70
     1
102
RTVSPropertyOp59
 70
     1
102
RTVSPropertyOp60
 70
     1
102
RTVSPropertyOp61
 70
     1
102
RTVSPropertyOp62
 70
     1
  0
XRECORD
  5
5D74
102
{ACAD_REACTORS
330
5D73
102
}
330
5D73
100
AcDbXrecord
280
     1
102
RTVSPost2010Prop28
280
     0
102
RTVSPost2010PropOp28
 70
     1
102
RTVSPost2010Prop29
280
     1
102
RTVSPost2010PropOp29
 70
     1
102
RTVSPost2010Prop30
280
     1
102
RTVSPost2010PropOp30
 70
     1
102
RTVSPost2010Prop31
280
     0
102
RTVSPost2010PropOp31
 70
     1
102
RTVSPost2010Prop32
280
     0
102
RTVSPost2010PropOp32
 70
     1
102
RTVSPost2010Prop33
280
     0
102
RTVSPost2010PropOp33
 70
     1
102
RTVSPost2010Prop34
280
     0
102
RTVSPost2010PropOp34
 70
     1
102
RTVSPost2010Prop35
280
     0
102
RTVSPost2010PropOp35
 70
     1
102
RTVSPost2010Prop36
280
     0
102
RTVSPost2010PropOp36
 70
     1
102
RTVSPost2010Prop37
 90
       50
102
RTVSPost2010PropOp37
 70
     1
102
RTVSPost2010Prop38
140
0.0
102
RTVSPost2010PropOp38
 70
     1
102
RTVSPost2010Prop39
140
1.0
102
RTVSPost2010PropOp39
 70
     1
102
RTVSPost2010Prop40
 90
        0
102
RTVSPost2010PropOp40
 70
     1
102
RTVSPost2010Prop41ColorIndex
 90
       18
102
RTVSPost2010Prop41ColorRGB
 90
        0
102
RTVSPost2010PropOp41
 70
     1
102
RTVSPost2010Prop42
 90
       50
102
RTVSPost2010PropOp42
 70
     1
102
RTVSPost2010Prop43
 90
        3
102
RTVSPost2010PropOp43
 70
     1
102
RTVSPost2010Prop44ColorIndex
 90
        5
102
RTVSPost2010Prop44ColorRGB
 90
      255
102
RTVSPost2010PropOp44
 70
     1
102
RTVSPost2010Prop45
280
     0
102
RTVSPost2010PropOp45
 70
     1
102
RTVSPost2010Prop46
 90
       50
102
RTVSPost2010PropOp46
 70
     1
102
RTVSPost2010Prop47
 90
       50
102
RTVSPost2010PropOp47
 70
     1
102
RTVSPost2010Prop48
 90
       50
102
RTVSPost2010PropOp48
 70
     1
102
RTVSPost2010Prop49
280
     0
102
RTVSPost2010PropOp49
 70
     1
102
RTVSPost2010Prop50
 90
       50
102
RTVSPost2010PropOp50
 70
     1
102
RTVSPost2010Prop51ColorIndex
 90
      256
102
RTVSPost2010Prop51ColorRGB
 90
-16777216
102
RTVSPost2010PropOp51
 70
     0
102
RTVSPost2010Prop52
140
1.0
102
RTVSPost2010PropOp52
 70
     0
102
RTVSPost2010Prop53
 90
        2
102
RTVSPost2010PropOp53
 70
     1
102
RTVSPost2010Prop54
  1
strokes_ogs.tif
102
RTVSPost2010PropOp54
 70
     1
102
RTVSPost2010Prop55
280
     0
102
RTVSPost2010PropOp55
 70
     1
102
RTVSPost2010Prop56
140
1.0
102
RTVSPost2010PropOp56
 70
     1
102
RTVSPost2010Prop57
140
1.0
102
RTVSPost2010PropOp57
 70
     1
102
RTVSPropertyOp0
 70
     1
102
RTVSPropertyOp1
 70
     1
102
RTVSPropertyOp2
 70
     1
102
RTVSPropertyOp3
 70
     1
102
RTVSPropertyOp4
 70
     1
102
RTVSPropertyOp5
 70
     1
102
RTVSPropertyOp6
 70
     1
102
RTVSPropertyOp7
 70
     1
102
RTVSPropertyOp8
 70
     1
102
RTVSPropertyOp9
 70
     1
102
RTVSPropertyOp10
 70
     1
102
RTVSPropertyOp11
 70
     1
102
RTVSPropertyOp12
 70
     1
102
RTVSPropertyOp13
 70
     1
102
RTVSPropertyOp14
 70
     1
102
RTVSPropertyOp15
 70
     1
102
RTVSPropertyOp16
 70
     1
102
RTVSPropertyOp17
 70
     1
102
RTVSPropertyOp18
 70
     1
102
RTVSPropertyOp19
 70
     1
102
RTVSPropertyOp20
 70
     1
102
RTVSPropertyOp21
 70
     1
102
RTVSPropertyOp22
 70
     1
102
RTVSPropertyOp23
 70
     1
102
RTVSPropertyOp24
 70
     1
102
RTVSPropertyOp25
 70
     1
102
RTVSPropertyOp26
 70
     1
102
RTVSPropertyOp27
 70
     1
102
RTVSPropertyOp28
 70
     1
102
RTVSPropertyOp29
 70
     1
102
RTVSPropertyOp30
 70
     1
102
RTVSPropertyOp31
 70
     1
102
RTVSPropertyOp32
 70
     1
102
RTVSPropertyOp33
 70
     1
102
RTVSPropertyOp34
 70
     1
102
RTVSPropertyOp35
 70
     1
102
RTVSPropertyOp36
 70
     1
102
RTVSPropertyOp37
 70
     1
102
RTVSPropertyOp38
 70
     1
102
RTVSPropertyOp39
 70
     1
102
RTVSPropertyOp40
 70
     1
102
RTVSPropertyOp41
 70
     1
102
RTVSPropertyOp42
 70
     1
102
RTVSPropertyOp43
 70
     1
102
RTVSPropertyOp44
 70
     1
102
RTVSPropertyOp45
 70
     1
102
RTVSPropertyOp46
 70
     1
102
RTVSPropertyOp47
 70
     1
102
RTVSPropertyOp48
 70
     1
102
RTVSPropertyOp49
 70
     1
102
RTVSPropertyOp50
 70
     1
102
RTVSPropertyOp51
 70
     0
102
RTVSPropertyOp52
 70
     0
102
RTVSPropertyOp53
 70
     1
102
RTVSPropertyOp54
 70
     1
102
RTVSPropertyOp55
 70
     1
102
RTVSPropertyOp56
 70
     1
102
RTVSPropertyOp57
 70
     1
102
RTVSPropertyOp58
 70
     1
102
RTVSPropertyOp59
 70
     1
102
RTVSPropertyOp60
 70
     1
102
RTVSPropertyOp61
 70
     1
102
RTVSPropertyOp62
 70
     1
  0
XRECORD
  5
5D86
102
{ACAD_REACTORS
330
5D85
102
}
330
5D85
100
AcDbXrecord
280
     1
102
RTVSPost2010Prop28
280
     0
102
RTVSPost2010PropOp28
 70
     1
102
RTVSPost2010Prop29
280
     1
102
RTVSPost2010PropOp29
 70
     1
102
RTVSPost2010Prop30
280
     1
102
RTVSPost2010PropOp30
 70
     1
102
RTVSPost2010Prop31
280
     0
102
RTVSPost2010PropOp31
 70
     1
102
RTVSPost2010Prop32
280
     0
102
RTVSPost2010PropOp32
 70
     1
102
RTVSPost2010Prop33
280
     0
102
RTVSPost2010PropOp33
 70
     1
102
RTVSPost2010Prop34
280
     0
102
RTVSPost2010PropOp34
 70
     1
102
RTVSPost2010Prop35
280
     0
102
RTVSPost2010PropOp35
 70
     1
102
RTVSPost2010Prop36
280
     0
102
RTVSPost2010PropOp36
 70
     1
102
RTVSPost2010Prop37
 90
       50
102
RTVSPost2010PropOp37
 70
     1
102
RTVSPost2010Prop38
140
0.0
102
RTVSPost2010PropOp38
 70
     1
102
RTVSPost2010Prop39
140
1.0
102
RTVSPost2010PropOp39
 70
     1
102
RTVSPost2010Prop40
 90
        0
102
RTVSPost2010PropOp40
 70
     1
102
RTVSPost2010Prop41ColorIndex
 90
       18
102
RTVSPost2010Prop41ColorRGB
 90
        0
102
RTVSPost2010PropOp41
 70
     1
102
RTVSPost2010Prop42
 90
       50
102
RTVSPost2010PropOp42
 70
     1
102
RTVSPost2010Prop43
 90
        3
102
RTVSPost2010PropOp43
 70
     1
102
RTVSPost2010Prop44ColorIndex
 90
        5
102
RTVSPost2010Prop44ColorRGB
 90
      255
102
RTVSPost2010PropOp44
 70
     1
102
RTVSPost2010Prop45
280
     0
102
RTVSPost2010PropOp45
 70
     1
102
RTVSPost2010Prop46
 90
       50
102
RTVSPost2010PropOp46
 70
     1
102
RTVSPost2010Prop47
 90
       50
102
RTVSPost2010PropOp47
 70
     1
102
RTVSPost2010Prop48
 90
       50
102
RTVSPost2010PropOp48
 70
     1
102
RTVSPost2010Prop49
280
     0
102
RTVSPost2010PropOp49
 70
     1
102
RTVSPost2010Prop50
 90
       50
102
RTVSPost2010PropOp50
 70
     1
102
RTVSPost2010Prop51ColorIndex
 90
      256
102
RTVSPost2010Prop51ColorRGB
 90
-16777216
102
RTVSPost2010PropOp51
 70
     0
102
RTVSPost2010Prop52
140
1.0
102
RTVSPost2010PropOp52
 70
     0
102
RTVSPost2010Prop53
 90
        2
102
RTVSPost2010PropOp53
 70
     1
102
RTVSPost2010Prop54
  1
strokes_ogs.tif
102
RTVSPost2010PropOp54
 70
     1
102
RTVSPost2010Prop55
280
     0
102
RTVSPost2010PropOp55
 70
     1
102
RTVSPost2010Prop56
140
1.0
102
RTVSPost2010PropOp56
 70
     1
102
RTVSPost2010Prop57
140
1.0
102
RTVSPost2010PropOp57
 70
     1
102
RTVSPropertyOp0
 70
     0
102
RTVSPropertyOp1
 70
     0
102
RTVSPropertyOp2
 70
     0
102
RTVSPropertyOp3
 70
     0
102
RTVSPropertyOp4
 70
     0
102
RTVSPropertyOp5
 70
     0
102
RTVSPropertyOp6
 70
     0
102
RTVSPropertyOp7
 70
     0
102
RTVSPropertyOp8
 70
     0
102
RTVSPropertyOp9
 70
     0
102
RTVSPropertyOp10
 70
     0
102
RTVSPropertyOp11
 70
     0
102
RTVSPropertyOp12
 70
     0
102
RTVSPropertyOp13
 70
     0
102
RTVSPropertyOp14
 70
     2
102
RTVSPropertyOp15
 70
     0
102
RTVSPropertyOp16
 70
     0
102
RTVSPropertyOp17
 70
     0
102
RTVSPropertyOp18
 70
     0
102
RTVSPropertyOp19
 70
     0
102
RTVSPropertyOp20
 70
     0
102
RTVSPropertyOp21
 70
     0
102
RTVSPropertyOp22
 70
     0
102
RTVSPropertyOp23
 70
     0
102
RTVSPropertyOp24
 70
     0
102
RTVSPropertyOp25
 70
     0
102
RTVSPropertyOp26
 70
     0
102
RTVSPropertyOp27
 70
     0
102
RTVSPropertyOp28
 70
     1
102
RTVSPropertyOp29
 70
     1
102
RTVSPropertyOp30
 70
     1
102
RTVSPropertyOp31
 70
     1
102
RTVSPropertyOp32
 70
     1
102
RTVSPropertyOp33
 70
     1
102
RTVSPropertyOp34
 70
     1
102
RTVSPropertyOp35
 70
     1
102
RTVSPropertyOp36
 70
     1
102
RTVSPropertyOp37
 70
     1
102
RTVSPropertyOp38
 70
     1
102
RTVSPropertyOp39
 70
     1
102
RTVSPropertyOp40
 70
     1
102
RTVSPropertyOp41
 70
     1
102
RTVSPropertyOp42
 70
     1
102
RTVSPropertyOp43
 70
     1
102
RTVSPropertyOp44
 70
     1
102
RTVSPropertyOp45
 70
     1
102
RTVSPropertyOp46
 70
     1
102
RTVSPropertyOp47
 70
     1
102
RTVSPropertyOp48
 70
     1
102
RTVSPropertyOp49
 70
     1
102
RTVSPropertyOp50
 70
     1
102
RTVSPropertyOp51
 70
     0
102
RTVSPropertyOp52
 70
     0
102
RTVSPropertyOp53
 70
     1
102
RTVSPropertyOp54
 70
     1
102
RTVSPropertyOp55
 70
     1
102
RTVSPropertyOp56
 70
     1
102
RTVSPropertyOp57
 70
     1
102
RTVSPropertyOp58
 70
     1
102
RTVSPropertyOp59
 70
     1
102
RTVSPropertyOp60
 70
     1
102
RTVSPropertyOp61
 70
     1
102
RTVSPropertyOp62
 70
     1
  0
XRECORD
  5
5D7C
102
{ACAD_REACTORS
330
5D7B
102
}
330
5D7B
100
AcDbXrecord
280
     1
102
RTVSPost2010Prop28
280
     0
102
RTVSPost2010PropOp28
 70
     1
102
RTVSPost2010Prop29
280
     1
102
RTVSPost2010PropOp29
 70
     1
102
RTVSPost2010Prop30
280
     1
102
RTVSPost2010PropOp30
 70
     1
102
RTVSPost2010Prop31
280
     0
102
RTVSPost2010PropOp31
 70
     1
102
RTVSPost2010Prop32
280
     0
102
RTVSPost2010PropOp32
 70
     1
102
RTVSPost2010Prop33
280
     0
102
RTVSPost2010PropOp33
 70
     1
102
RTVSPost2010Prop34
280
     0
102
RTVSPost2010PropOp34
 70
     1
102
RTVSPost2010Prop35
280
     0
102
RTVSPost2010PropOp35
 70
     1
102
RTVSPost2010Prop36
280
     0
102
RTVSPost2010PropOp36
 70
     1
102
RTVSPost2010Prop37
 90
       50
102
RTVSPost2010PropOp37
 70
     1
102
RTVSPost2010Prop38
140
0.0
102
RTVSPost2010PropOp38
 70
     1
102
RTVSPost2010Prop39
140
1.0
102
RTVSPost2010PropOp39
 70
     1
102
RTVSPost2010Prop40
 90
        0
102
RTVSPost2010PropOp40
 70
     1
102
RTVSPost2010Prop41ColorIndex
 90
       18
102
RTVSPost2010Prop41ColorRGB
 90
        0
102
RTVSPost2010PropOp41
 70
     1
102
RTVSPost2010Prop42
 90
       50
102
RTVSPost2010PropOp42
 70
     1
102
RTVSPost2010Prop43
 90
        3
102
RTVSPost2010PropOp43
 70
     1
102
RTVSPost2010Prop44ColorIndex
 90
        5
102
RTVSPost2010Prop44ColorRGB
 90
      255
102
RTVSPost2010PropOp44
 70
     1
102
RTVSPost2010Prop45
280
     0
102
RTVSPost2010PropOp45
 70
     1
102
RTVSPost2010Prop46
 90
       50
102
RTVSPost2010PropOp46
 70
     1
102
RTVSPost2010Prop47
 90
       50
102
RTVSPost2010PropOp47
 70
     1
102
RTVSPost2010Prop48
 90
       50
102
RTVSPost2010PropOp48
 70
     1
102
RTVSPost2010Prop49
280
     0
102
RTVSPost2010PropOp49
 70
     1
102
RTVSPost2010Prop50
 90
       50
102
RTVSPost2010PropOp50
 70
     1
102
RTVSPost2010Prop51ColorIndex
 90
      256
102
RTVSPost2010Prop51ColorRGB
 90
-16777216
102
RTVSPost2010PropOp51
 70
     0
102
RTVSPost2010Prop52
140
1.0
102
RTVSPost2010PropOp52
 70
     0
102
RTVSPost2010Prop53
 90
        2
102
RTVSPost2010PropOp53
 70
     1
102
RTVSPost2010Prop54
  1
strokes_ogs.tif
102
RTVSPost2010PropOp54
 70
     1
102
RTVSPost2010Prop55
280
     0
102
RTVSPost2010PropOp55
 70
     1
102
RTVSPost2010Prop56
140
1.0
102
RTVSPost2010PropOp56
 70
     1
102
RTVSPost2010Prop57
140
1.0
102
RTVSPost2010PropOp57
 70
     1
102
RTVSPropertyOp0
 70
     1
102
RTVSPropertyOp1
 70
     1
102
RTVSPropertyOp2
 70
     1
102
RTVSPropertyOp3
 70
     1
102
RTVSPropertyOp4
 70
     1
102
RTVSPropertyOp5
 70
     1
102
RTVSPropertyOp6
 70
     1
102
RTVSPropertyOp7
 70
     1
102
RTVSPropertyOp8
 70
     1
102
RTVSPropertyOp9
 70
     1
102
RTVSPropertyOp10
 70
     1
102
RTVSPropertyOp11
 70
     1
102
RTVSPropertyOp12
 70
     1
102
RTVSPropertyOp13
 70
     1
102
RTVSPropertyOp14
 70
     1
102
RTVSPropertyOp15
 70
     1
102
RTVSPropertyOp16
 70
     1
102
RTVSPropertyOp17
 70
     1
102
RTVSPropertyOp18
 70
     1
102
RTVSPropertyOp19
 70
     1
102
RTVSPropertyOp20
 70
     1
102
RTVSPropertyOp21
 70
     1
102
RTVSPropertyOp22
 70
     1
102
RTVSPropertyOp23
 70
     1
102
RTVSPropertyOp24
 70
     1
102
RTVSPropertyOp25
 70
     1
102
RTVSPropertyOp26
 70
     1
102
RTVSPropertyOp27
 70
     1
102
RTVSPropertyOp28
 70
     1
102
RTVSPropertyOp29
 70
     1
102
RTVSPropertyOp30
 70
     1
102
RTVSPropertyOp31
 70
     1
102
RTVSPropertyOp32
 70
     1
102
RTVSPropertyOp33
 70
     1
102
RTVSPropertyOp34
 70
     1
102
RTVSPropertyOp35
 70
     1
102
RTVSPropertyOp36
 70
     1
102
RTVSPropertyOp37
 70
     1
102
RTVSPropertyOp38
 70
     1
102
RTVSPropertyOp39
 70
     1
102
RTVSPropertyOp40
 70
     1
102
RTVSPropertyOp41
 70
     1
102
RTVSPropertyOp42
 70
     1
102
RTVSPropertyOp43
 70
     1
102
RTVSPropertyOp44
 70
     1
102
RTVSPropertyOp45
 70
     1
102
RTVSPropertyOp46
 70
     1
102
RTVSPropertyOp47
 70
     1
102
RTVSPropertyOp48
 70
     1
102
RTVSPropertyOp49
 70
     1
102
RTVSPropertyOp50
 70
     1
102
RTVSPropertyOp51
 70
     0
102
RTVSPropertyOp52
 70
     0
102
RTVSPropertyOp53
 70
     1
102
RTVSPropertyOp54
 70
     1
102
RTVSPropertyOp55
 70
     1
102
RTVSPropertyOp56
 70
     1
102
RTVSPropertyOp57
 70
     1
102
RTVSPropertyOp58
 70
     1
102
RTVSPropertyOp59
 70
     1
102
RTVSPropertyOp60
 70
     1
102
RTVSPropertyOp61
 70
     1
102
RTVSPropertyOp62
 70
     1
  0
XRECORD
  5
5D60
102
{ACAD_REACTORS
330
5D5F
102
}
330
5D5F
100
AcDbXrecord
280
     1
102
RTVSPost2010Prop28
280
     0
102
RTVSPost2010PropOp28
 70
     1
102
RTVSPost2010Prop29
280
     1
102
RTVSPost2010PropOp29
 70
     1
102
RTVSPost2010Prop30
280
     1
102
RTVSPost2010PropOp30
 70
     1
102
RTVSPost2010Prop31
280
     0
102
RTVSPost2010PropOp31
 70
     1
102
RTVSPost2010Prop32
280
     0
102
RTVSPost2010PropOp32
 70
     1
102
RTVSPost2010Prop33
280
     0
102
RTVSPost2010PropOp33
 70
     1
102
RTVSPost2010Prop34
280
     0
102
RTVSPost2010PropOp34
 70
     1
102
RTVSPost2010Prop35
280
     0
102
RTVSPost2010PropOp35
 70
     1
102
RTVSPost2010Prop36
280
     0
102
RTVSPost2010PropOp36
 70
     1
102
RTVSPost2010Prop37
 90
       50
102
RTVSPost2010PropOp37
 70
     1
102
RTVSPost2010Prop38
140
0.0
102
RTVSPost2010PropOp38
 70
     1
102
RTVSPost2010Prop39
140
1.0
102
RTVSPost2010PropOp39
 70
     1
102
RTVSPost2010Prop40
 90
        0
102
RTVSPost2010PropOp40
 70
     1
102
RTVSPost2010Prop41ColorIndex
 90
       18
102
RTVSPost2010Prop41ColorRGB
 90
        0
102
RTVSPost2010PropOp41
 70
     1
102
RTVSPost2010Prop42
 90
       50
102
RTVSPost2010PropOp42
 70
     1
102
RTVSPost2010Prop43
 90
        3
102
RTVSPost2010PropOp43
 70
     1
102
RTVSPost2010Prop44ColorIndex
 90
        5
102
RTVSPost2010Prop44ColorRGB
 90
      255
102
RTVSPost2010PropOp44
 70
     1
102
RTVSPost2010Prop45
280
     0
102
RTVSPost2010PropOp45
 70
     1
102
RTVSPost2010Prop46
 90
       50
102
RTVSPost2010PropOp46
 70
     1
102
RTVSPost2010Prop47
 90
       50
102
RTVSPost2010PropOp47
 70
     1
102
RTVSPost2010Prop48
 90
       50
102
RTVSPost2010PropOp48
 70
     1
102
RTVSPost2010Prop49
280
     0
102
RTVSPost2010PropOp49
 70
     1
102
RTVSPost2010Prop50
 90
       50
102
RTVSPost2010PropOp50
 70
     1
102
RTVSPost2010Prop51ColorIndex
 90
      256
102
RTVSPost2010Prop51ColorRGB
 90
-16777216
102
RTVSPost2010PropOp51
 70
     0
102
RTVSPost2010Prop52
140
1.0
102
RTVSPost2010PropOp52
 70
     0
102
RTVSPost2010Prop53
 90
        2
102
RTVSPost2010PropOp53
 70
     1
102
RTVSPost2010Prop54
  1
strokes_ogs.tif
102
RTVSPost2010PropOp54
 70
     1
102
RTVSPost2010Prop55
280
     0
102
RTVSPost2010PropOp55
 70
     1
102
RTVSPost2010Prop56
140
1.0
102
RTVSPost2010PropOp56
 70
     1
102
RTVSPost2010Prop57
140
1.0
102
RTVSPost2010PropOp57
 70
     1
102
RTVSPropertyOp0
 70
     1
102
RTVSPropertyOp1
 70
     1
102
RTVSPropertyOp2
 70
     1
102
RTVSPropertyOp3
 70
     1
102
RTVSPropertyOp4
 70
     1
102
RTVSPropertyOp5
 70
     1
102
RTVSPropertyOp6
 70
     1
102
RTVSPropertyOp7
 70
     1
102
RTVSPropertyOp8
 70
     1
102
RTVSPropertyOp9
 70
     1
102
RTVSPropertyOp10
 70
     1
102
RTVSPropertyOp11
 70
     1
102
RTVSPropertyOp12
 70
     1
102
RTVSPropertyOp13
 70
     1
102
RTVSPropertyOp14
 70
     1
102
RTVSPropertyOp15
 70
     1
102
RTVSPropertyOp16
 70
     1
102
RTVSPropertyOp17
 70
     1
102
RTVSPropertyOp18
 70
     1
102
RTVSPropertyOp19
 70
     1
102
RTVSPropertyOp20
 70
     1
102
RTVSPropertyOp21
 70
     1
102
RTVSPropertyOp22
 70
     1
102
RTVSPropertyOp23
 70
     1
102
RTVSPropertyOp24
 70
     1
102
RTVSPropertyOp25
 70
     1
102
RTVSPropertyOp26
 70
     1
102
RTVSPropertyOp27
 70
     1
102
RTVSPropertyOp28
 70
     1
102
RTVSPropertyOp29
 70
     1
102
RTVSPropertyOp30
 70
     1
102
RTVSPropertyOp31
 70
     1
102
RTVSPropertyOp32
 70
     1
102
RTVSPropertyOp33
 70
     1
102
RTVSPropertyOp34
 70
     1
102
RTVSPropertyOp35
 70
     1
102
RTVSPropertyOp36
 70
     1
102
RTVSPropertyOp37
 70
     1
102
RTVSPropertyOp38
 70
     1
102
RTVSPropertyOp39
 70
     1
102
RTVSPropertyOp40
 70
     1
102
RTVSPropertyOp41
 70
     1
102
RTVSPropertyOp42
 70
     1
102
RTVSPropertyOp43
 70
     1
102
RTVSPropertyOp44
 70
     1
102
RTVSPropertyOp45
 70
     1
102
RTVSPropertyOp46
 70
     1
102
RTVSPropertyOp47
 70
     1
102
RTVSPropertyOp48
 70
     1
102
RTVSPropertyOp49
 70
     1
102
RTVSPropertyOp50
 70
     1
102
RTVSPropertyOp51
 70
     0
102
RTVSPropertyOp52
 70
     0
102
RTVSPropertyOp53
 70
     1
102
RTVSPropertyOp54
 70
     1
102
RTVSPropertyOp55
 70
     1
102
RTVSPropertyOp56
 70
     1
102
RTVSPropertyOp57
 70
     1
102
RTVSPropertyOp58
 70
     1
102
RTVSPropertyOp59
 70
     1
102
RTVSPropertyOp60
 70
     1
102
RTVSPropertyOp61
 70
     1
102
RTVSPropertyOp62
 70
     1
  0
XRECORD
  5
5D62
102
{ACAD_REACTORS
330
5D61
102
}
330
5D61
100
AcDbXrecord
280
     1
102
RTVSPost2010Prop28
280
     0
102
RTVSPost2010PropOp28
 70
     1
102
RTVSPost2010Prop29
280
     1
102
RTVSPost2010PropOp29
 70
     1
102
RTVSPost2010Prop30
280
     1
102
RTVSPost2010PropOp30
 70
     1
102
RTVSPost2010Prop31
280
     0
102
RTVSPost2010PropOp31
 70
     1
102
RTVSPost2010Prop32
280
     0
102
RTVSPost2010PropOp32
 70
     1
102
RTVSPost2010Prop33
280
     0
102
RTVSPost2010PropOp33
 70
     1
102
RTVSPost2010Prop34
280
     0
102
RTVSPost2010PropOp34
 70
     1
102
RTVSPost2010Prop35
280
     0
102
RTVSPost2010PropOp35
 70
     1
102
RTVSPost2010Prop36
280
     0
102
RTVSPost2010PropOp36
 70
     1
102
RTVSPost2010Prop37
 90
       50
102
RTVSPost2010PropOp37
 70
     1
102
RTVSPost2010Prop38
140
0.0
102
RTVSPost2010PropOp38
 70
     1
102
RTVSPost2010Prop39
140
1.0
102
RTVSPost2010PropOp39
 70
     1
102
RTVSPost2010Prop40
 90
        0
102
RTVSPost2010PropOp40
 70
     1
102
RTVSPost2010Prop41ColorIndex
 90
       18
102
RTVSPost2010Prop41ColorRGB
 90
        0
102
RTVSPost2010PropOp41
 70
     1
102
RTVSPost2010Prop42
 90
       50
102
RTVSPost2010PropOp42
 70
     1
102
RTVSPost2010Prop43
 90
        3
102
RTVSPost2010PropOp43
 70
     1
102
RTVSPost2010Prop44ColorIndex
 90
        5
102
RTVSPost2010Prop44ColorRGB
 90
      255
102
RTVSPost2010PropOp44
 70
     1
102
RTVSPost2010Prop45
280
     0
102
RTVSPost2010PropOp45
 70
     1
102
RTVSPost2010Prop46
 90
       50
102
RTVSPost2010PropOp46
 70
     1
102
RTVSPost2010Prop47
 90
       50
102
RTVSPost2010PropOp47
 70
     1
102
RTVSPost2010Prop48
 90
       50
102
RTVSPost2010PropOp48
 70
     1
102
RTVSPost2010Prop49
280
     0
102
RTVSPost2010PropOp49
 70
     1
102
RTVSPost2010Prop50
 90
       50
102
RTVSPost2010PropOp50
 70
     1
102
RTVSPost2010Prop51ColorIndex
 90
      256
102
RTVSPost2010Prop51ColorRGB
 90
-16777216
102
RTVSPost2010PropOp51
 70
     0
102
RTVSPost2010Prop52
140
1.0
102
RTVSPost2010PropOp52
 70
     0
102
RTVSPost2010Prop53
 90
        2
102
RTVSPost2010PropOp53
 70
     1
102
RTVSPost2010Prop54
  1
strokes_ogs.tif
102
RTVSPost2010PropOp54
 70
     1
102
RTVSPost2010Prop55
280
     0
102
RTVSPost2010PropOp55
 70
     1
102
RTVSPost2010Prop56
140
1.0
102
RTVSPost2010PropOp56
 70
     1
102
RTVSPost2010Prop57
140
1.0
102
RTVSPost2010PropOp57
 70
     1
102
RTVSPropertyOp0
 70
     1
102
RTVSPropertyOp1
 70
     1
102
RTVSPropertyOp2
 70
     1
102
RTVSPropertyOp3
 70
     1
102
RTVSPropertyOp4
 70
     1
102
RTVSPropertyOp5
 70
     1
102
RTVSPropertyOp6
 70
     1
102
RTVSPropertyOp7
 70
     1
102
RTVSPropertyOp8
 70
     1
102
RTVSPropertyOp9
 70
     1
102
RTVSPropertyOp10
 70
     1
102
RTVSPropertyOp11
 70
     1
102
RTVSPropertyOp12
 70
     1
102
RTVSPropertyOp13
 70
     1
102
RTVSPropertyOp14
 70
     1
102
RTVSPropertyOp15
 70
     1
102
RTVSPropertyOp16
 70
     1
102
RTVSPropertyOp17
 70
     1
102
RTVSPropertyOp18
 70
     1
102
RTVSPropertyOp19
 70
     1
102
RTVSPropertyOp20
 70
     1
102
RTVSPropertyOp21
 70
     1
102
RTVSPropertyOp22
 70
     1
102
RTVSPropertyOp23
 70
     1
102
RTVSPropertyOp24
 70
     1
102
RTVSPropertyOp25
 70
     1
102
RTVSPropertyOp26
 70
     1
102
RTVSPropertyOp27
 70
     1
102
RTVSPropertyOp28
 70
     1
102
RTVSPropertyOp29
 70
     1
102
RTVSPropertyOp30
 70
     1
102
RTVSPropertyOp31
 70
     1
102
RTVSPropertyOp32
 70
     1
102
RTVSPropertyOp33
 70
     1
102
RTVSPropertyOp34
 70
     1
102
RTVSPropertyOp35
 70
     1
102
RTVSPropertyOp36
 70
     1
102
RTVSPropertyOp37
 70
     1
102
RTVSPropertyOp38
 70
     1
102
RTVSPropertyOp39
 70
     1
102
RTVSPropertyOp40
 70
     1
102
RTVSPropertyOp41
 70
     1
102
RTVSPropertyOp42
 70
     1
102
RTVSPropertyOp43
 70
     1
102
RTVSPropertyOp44
 70
     1
102
RTVSPropertyOp45
 70
     1
102
RTVSPropertyOp46
 70
     1
102
RTVSPropertyOp47
 70
     1
102
RTVSPropertyOp48
 70
     1
102
RTVSPropertyOp49
 70
     1
102
RTVSPropertyOp50
 70
     1
102
RTVSPropertyOp51
 70
     0
102
RTVSPropertyOp52
 70
     0
102
RTVSPropertyOp53
 70
     1
102
RTVSPropertyOp54
 70
     1
102
RTVSPropertyOp55
 70
     1
102
RTVSPropertyOp56
 70
     1
102
RTVSPropertyOp57
 70
     1
102
RTVSPropertyOp58
 70
     1
102
RTVSPropertyOp59
 70
     1
102
RTVSPropertyOp60
 70
     1
102
RTVSPropertyOp61
 70
     1
102
RTVSPropertyOp62
 70
     1
  0
XRECORD
  5
5D64
102
{ACAD_REACTORS
330
5D63
102
}
330
5D63
100
AcDbXrecord
280
     1
102
RTVSPost2010Prop28
280
     0
102
RTVSPost2010PropOp28
 70
     1
102
RTVSPost2010Prop29
280
     1
102
RTVSPost2010PropOp29
 70
     1
102
RTVSPost2010Prop30
280
     1
102
RTVSPost2010PropOp30
 70
     1
102
RTVSPost2010Prop31
280
     0
102
RTVSPost2010PropOp31
 70
     1
102
RTVSPost2010Prop32
280
     0
102
RTVSPost2010PropOp32
 70
     1
102
RTVSPost2010Prop33
280
     0
102
RTVSPost2010PropOp33
 70
     1
102
RTVSPost2010Prop34
280
     0
102
RTVSPost2010PropOp34
 70
     1
102
RTVSPost2010Prop35
280
     0
102
RTVSPost2010PropOp35
 70
     1
102
RTVSPost2010Prop36
280
     0
102
RTVSPost2010PropOp36
 70
     1
102
RTVSPost2010Prop37
 90
       50
102
RTVSPost2010PropOp37
 70
     1
102
RTVSPost2010Prop38
140
0.0
102
RTVSPost2010PropOp38
 70
     1
102
RTVSPost2010Prop39
140
1.0
102
RTVSPost2010PropOp39
 70
     1
102
RTVSPost2010Prop40
 90
        0
102
RTVSPost2010PropOp40
 70
     1
102
RTVSPost2010Prop41ColorIndex
 90
       18
102
RTVSPost2010Prop41ColorRGB
 90
        0
102
RTVSPost2010PropOp41
 70
     1
102
RTVSPost2010Prop42
 90
       50
102
RTVSPost2010PropOp42
 70
     1
102
RTVSPost2010Prop43
 90
        3
102
RTVSPost2010PropOp43
 70
     1
102
RTVSPost2010Prop44ColorIndex
 90
        5
102
RTVSPost2010Prop44ColorRGB
 90
      255
102
RTVSPost2010PropOp44
 70
     1
102
RTVSPost2010Prop45
280
     0
102
RTVSPost2010PropOp45
 70
     1
102
RTVSPost2010Prop46
 90
       50
102
RTVSPost2010PropOp46
 70
     1
102
RTVSPost2010Prop47
 90
       50
102
RTVSPost2010PropOp47
 70
     1
102
RTVSPost2010Prop48
 90
       50
102
RTVSPost2010PropOp48
 70
     1
102
RTVSPost2010Prop49
280
     0
102
RTVSPost2010PropOp49
 70
     1
102
RTVSPost2010Prop50
 90
       50
102
RTVSPost2010PropOp50
 70
     1
102
RTVSPost2010Prop51ColorIndex
 90
      256
102
RTVSPost2010Prop51ColorRGB
 90
-16777216
102
RTVSPost2010PropOp51
 70
     0
102
RTVSPost2010Prop52
140
1.0
102
RTVSPost2010PropOp52
 70
     0
102
RTVSPost2010Prop53
 90
        2
102
RTVSPost2010PropOp53
 70
     1
102
RTVSPost2010Prop54
  1
strokes_ogs.tif
102
RTVSPost2010PropOp54
 70
     1
102
RTVSPost2010Prop55
280
     0
102
RTVSPost2010PropOp55
 70
     1
102
RTVSPost2010Prop56
140
1.0
102
RTVSPost2010PropOp56
 70
     1
102
RTVSPost2010Prop57
140
1.0
102
RTVSPost2010PropOp57
 70
     1
102
RTVSPropertyOp0
 70
     1
102
RTVSPropertyOp1
 70
     1
102
RTVSPropertyOp2
 70
     1
102
RTVSPropertyOp3
 70
     1
102
RTVSPropertyOp4
 70
     1
102
RTVSPropertyOp5
 70
     1
102
RTVSPropertyOp6
 70
     1
102
RTVSPropertyOp7
 70
     1
102
RTVSPropertyOp8
 70
     1
102
RTVSPropertyOp9
 70
     1
102
RTVSPropertyOp10
 70
     1
102
RTVSPropertyOp11
 70
     1
102
RTVSPropertyOp12
 70
     1
102
RTVSPropertyOp13
 70
     1
102
RTVSPropertyOp14
 70
     1
102
RTVSPropertyOp15
 70
     1
102
RTVSPropertyOp16
 70
     1
102
RTVSPropertyOp17
 70
     1
102
RTVSPropertyOp18
 70
     1
102
RTVSPropertyOp19
 70
     1
102
RTVSPropertyOp20
 70
     1
102
RTVSPropertyOp21
 70
     1
102
RTVSPropertyOp22
 70
     1
102
RTVSPropertyOp23
 70
     1
102
RTVSPropertyOp24
 70
     1
102
RTVSPropertyOp25
 70
     1
102
RTVSPropertyOp26
 70
     1
102
RTVSPropertyOp27
 70
     1
102
RTVSPropertyOp28
 70
     1
102
RTVSPropertyOp29
 70
     1
102
RTVSPropertyOp30
 70
     1
102
RTVSPropertyOp31
 70
     1
102
RTVSPropertyOp32
 70
     1
102
RTVSPropertyOp33
 70
     1
102
RTVSPropertyOp34
 70
     1
102
RTVSPropertyOp35
 70
     1
102
RTVSPropertyOp36
 70
     1
102
RTVSPropertyOp37
 70
     1
102
RTVSPropertyOp38
 70
     1
102
RTVSPropertyOp39
 70
     1
102
RTVSPropertyOp40
 70
     1
102
RTVSPropertyOp41
 70
     1
102
RTVSPropertyOp42
 70
     1
102
RTVSPropertyOp43
 70
     1
102
RTVSPropertyOp44
 70
     1
102
RTVSPropertyOp45
 70
     1
102
RTVSPropertyOp46
 70
     1
102
RTVSPropertyOp47
 70
     1
102
RTVSPropertyOp48
 70
     1
102
RTVSPropertyOp49
 70
     1
102
RTVSPropertyOp50
 70
     1
102
RTVSPropertyOp51
 70
     0
102
RTVSPropertyOp52
 70
     0
102
RTVSPropertyOp53
 70
     1
102
RTVSPropertyOp54
 70
     1
102
RTVSPropertyOp55
 70
     1
102
RTVSPropertyOp56
 70
     1
102
RTVSPropertyOp57
 70
     1
102
RTVSPropertyOp58
 70
     1
102
RTVSPropertyOp59
 70
     1
102
RTVSPropertyOp60
 70
     1
102
RTVSPropertyOp61
 70
     1
102
RTVSPropertyOp62
 70
     1
  0
XRECORD
  5
5D66
102
{ACAD_REACTORS
330
5D65
102
}
330
5D65
100
AcDbXrecord
280
     1
102
RTVSPost2010Prop28
280
     0
102
RTVSPost2010PropOp28
 70
     1
102
RTVSPost2010Prop29
280
     1
102
RTVSPost2010PropOp29
 70
     1
102
RTVSPost2010Prop30
280
     1
102
RTVSPost2010PropOp30
 70
     1
102
RTVSPost2010Prop31
280
     0
102
RTVSPost2010PropOp31
 70
     1
102
RTVSPost2010Prop32
280
     0
102
RTVSPost2010PropOp32
 70
     1
102
RTVSPost2010Prop33
280
     0
102
RTVSPost2010PropOp33
 70
     1
102
RTVSPost2010Prop34
280
     0
102
RTVSPost2010PropOp34
 70
     1
102
RTVSPost2010Prop35
280
     0
102
RTVSPost2010PropOp35
 70
     1
102
RTVSPost2010Prop36
280
     0
102
RTVSPost2010PropOp36
 70
     1
102
RTVSPost2010Prop37
 90
       50
102
RTVSPost2010PropOp37
 70
     1
102
RTVSPost2010Prop38
140
0.0
102
RTVSPost2010PropOp38
 70
     1
102
RTVSPost2010Prop39
140
1.0
102
RTVSPost2010PropOp39
 70
     1
102
RTVSPost2010Prop40
 90
        0
102
RTVSPost2010PropOp40
 70
     1
102
RTVSPost2010Prop41ColorIndex
 90
       18
102
RTVSPost2010Prop41ColorRGB
 90
        0
102
RTVSPost2010PropOp41
 70
     1
102
RTVSPost2010Prop42
 90
       50
102
RTVSPost2010PropOp42
 70
     1
102
RTVSPost2010Prop43
 90
        3
102
RTVSPost2010PropOp43
 70
     1
102
RTVSPost2010Prop44ColorIndex
 90
        5
102
RTVSPost2010Prop44ColorRGB
 90
      255
102
RTVSPost2010PropOp44
 70
     1
102
RTVSPost2010Prop45
280
     0
102
RTVSPost2010PropOp45
 70
     1
102
RTVSPost2010Prop46
 90
       50
102
RTVSPost2010PropOp46
 70
     1
102
RTVSPost2010Prop47
 90
       50
102
RTVSPost2010PropOp47
 70
     1
102
RTVSPost2010Prop48
 90
       50
102
RTVSPost2010PropOp48
 70
     1
102
RTVSPost2010Prop49
280
     0
102
RTVSPost2010PropOp49
 70
     1
102
RTVSPost2010Prop50
 90
       50
102
RTVSPost2010PropOp50
 70
     1
102
RTVSPost2010Prop51ColorIndex
 90
      256
102
RTVSPost2010Prop51ColorRGB
 90
-16777216
102
RTVSPost2010PropOp51
 70
     0
102
RTVSPost2010Prop52
140
1.0
102
RTVSPost2010PropOp52
 70
     0
102
RTVSPost2010Prop53
 90
        2
102
RTVSPost2010PropOp53
 70
     1
102
RTVSPost2010Prop54
  1
strokes_ogs.tif
102
RTVSPost2010PropOp54
 70
     1
102
RTVSPost2010Prop55
280
     0
102
RTVSPost2010PropOp55
 70
     1
102
RTVSPost2010Prop56
140
1.0
102
RTVSPost2010PropOp56
 70
     1
102
RTVSPost2010Prop57
140
1.0
102
RTVSPost2010PropOp57
 70
     1
102
RTVSPropertyOp0
 70
     1
102
RTVSPropertyOp1
 70
     1
102
RTVSPropertyOp2
 70
     1
102
RTVSPropertyOp3
 70
     1
102
RTVSPropertyOp4
 70
     1
102
RTVSPropertyOp5
 70
     1
102
RTVSPropertyOp6
 70
     1
102
RTVSPropertyOp7
 70
     1
102
RTVSPropertyOp8
 70
     1
102
RTVSPropertyOp9
 70
     1
102
RTVSPropertyOp10
 70
     1
102
RTVSPropertyOp11
 70
     1
102
RTVSPropertyOp12
 70
     1
102
RTVSPropertyOp13
 70
     1
102
RTVSPropertyOp14
 70
     1
102
RTVSPropertyOp15
 70
     1
102
RTVSPropertyOp16
 70
     1
102
RTVSPropertyOp17
 70
     1
102
RTVSPropertyOp18
 70
     1
102
RTVSPropertyOp19
 70
     1
102
RTVSPropertyOp20
 70
     1
102
RTVSPropertyOp21
 70
     1
102
RTVSPropertyOp22
 70
     1
102
RTVSPropertyOp23
 70
     1
102
RTVSPropertyOp24
 70
     1
102
RTVSPropertyOp25
 70
     1
102
RTVSPropertyOp26
 70
     1
102
RTVSPropertyOp27
 70
     1
102
RTVSPropertyOp28
 70
     1
102
RTVSPropertyOp29
 70
     1
102
RTVSPropertyOp30
 70
     1
102
RTVSPropertyOp31
 70
     1
102
RTVSPropertyOp32
 70
     1
102
RTVSPropertyOp33
 70
     1
102
RTVSPropertyOp34
 70
     1
102
RTVSPropertyOp35
 70
     1
102
RTVSPropertyOp36
 70
     1
102
RTVSPropertyOp37
 70
     1
102
RTVSPropertyOp38
 70
     1
102
RTVSPropertyOp39
 70
     1
102
RTVSPropertyOp40
 70
     1
102
RTVSPropertyOp41
 70
     1
102
RTVSPropertyOp42
 70
     1
102
RTVSPropertyOp43
 70
     1
102
RTVSPropertyOp44
 70
     1
102
RTVSPropertyOp45
 70
     1
102
RTVSPropertyOp46
 70
     1
102
RTVSPropertyOp47
 70
     1
102
RTVSPropertyOp48
 70
     1
102
RTVSPropertyOp49
 70
     1
102
RTVSPropertyOp50
 70
     1
102
RTVSPropertyOp51
 70
     0
102
RTVSPropertyOp52
 70
     0
102
RTVSPropertyOp53
 70
     1
102
RTVSPropertyOp54
 70
     1
102
RTVSPropertyOp55
 70
     1
102
RTVSPropertyOp56
 70
     1
102
RTVSPropertyOp57
 70
     1
102
RTVSPropertyOp58
 70
     1
102
RTVSPropertyOp59
 70
     1
102
RTVSPropertyOp60
 70
     1
102
RTVSPropertyOp61
 70
     1
102
RTVSPropertyOp62
 70
     1
  0
XRECORD
  5
5D6E
102
{ACAD_REACTORS
330
5D6D
102
}
330
5D6D
100
AcDbXrecord
280
     1
102
RTVSPost2010Prop28
280
     0
102
RTVSPost2010PropOp28
 70
     1
102
RTVSPost2010Prop29
280
     1
102
RTVSPost2010PropOp29
 70
     1
102
RTVSPost2010Prop30
280
     1
102
RTVSPost2010PropOp30
 70
     1
102
RTVSPost2010Prop31
280
     0
102
RTVSPost2010PropOp31
 70
     1
102
RTVSPost2010Prop32
280
     0
102
RTVSPost2010PropOp32
 70
     1
102
RTVSPost2010Prop33
280
     0
102
RTVSPost2010PropOp33
 70
     1
102
RTVSPost2010Prop34
280
     0
102
RTVSPost2010PropOp34
 70
     1
102
RTVSPost2010Prop35
280
     0
102
RTVSPost2010PropOp35
 70
     1
102
RTVSPost2010Prop36
280
     0
102
RTVSPost2010PropOp36
 70
     1
102
RTVSPost2010Prop37
 90
       50
102
RTVSPost2010PropOp37
 70
     1
102
RTVSPost2010Prop38
140
0.0
102
RTVSPost2010PropOp38
 70
     1
102
RTVSPost2010Prop39
140
1.0
102
RTVSPost2010PropOp39
 70
     1
102
RTVSPost2010Prop40
 90
        0
102
RTVSPost2010PropOp40
 70
     1
102
RTVSPost2010Prop41ColorIndex
 90
       18
102
RTVSPost2010Prop41ColorRGB
 90
        0
102
RTVSPost2010PropOp41
 70
     1
102
RTVSPost2010Prop42
 90
       50
102
RTVSPost2010PropOp42
 70
     1
102
RTVSPost2010Prop43
 90
        3
102
RTVSPost2010PropOp43
 70
     1
102
RTVSPost2010Prop44ColorIndex
 90
        5
102
RTVSPost2010Prop44ColorRGB
 90
      255
102
RTVSPost2010PropOp44
 70
     1
102
RTVSPost2010Prop45
280
     0
102
RTVSPost2010PropOp45
 70
     1
102
RTVSPost2010Prop46
 90
       50
102
RTVSPost2010PropOp46
 70
     1
102
RTVSPost2010Prop47
 90
       50
102
RTVSPost2010PropOp47
 70
     1
102
RTVSPost2010Prop48
 90
       50
102
RTVSPost2010PropOp48
 70
     1
102
RTVSPost2010Prop49
280
     0
102
RTVSPost2010PropOp49
 70
     1
102
RTVSPost2010Prop50
 90
       50
102
RTVSPost2010PropOp50
 70
     1
102
RTVSPost2010Prop51ColorIndex
 90
      256
102
RTVSPost2010Prop51ColorRGB
 90
-16777216
102
RTVSPost2010PropOp51
 70
     0
102
RTVSPost2010Prop52
140
1.0
102
RTVSPost2010PropOp52
 70
     0
102
RTVSPost2010Prop53
 90
        2
102
RTVSPost2010PropOp53
 70
     1
102
RTVSPost2010Prop54
  1
strokes_ogs.tif
102
RTVSPost2010PropOp54
 70
     1
102
RTVSPost2010Prop55
280
     0
102
RTVSPost2010PropOp55
 70
     1
102
RTVSPost2010Prop56
140
1.0
102
RTVSPost2010PropOp56
 70
     1
102
RTVSPost2010Prop57
140
1.0
102
RTVSPost2010PropOp57
 70
     1
102
RTVSPropertyOp0
 70
     1
102
RTVSPropertyOp1
 70
     1
102
RTVSPropertyOp2
 70
     1
102
RTVSPropertyOp3
 70
     1
102
RTVSPropertyOp4
 70
     1
102
RTVSPropertyOp5
 70
     1
102
RTVSPropertyOp6
 70
     1
102
RTVSPropertyOp7
 70
     1
102
RTVSPropertyOp8
 70
     1
102
RTVSPropertyOp9
 70
     1
102
RTVSPropertyOp10
 70
     1
102
RTVSPropertyOp11
 70
     1
102
RTVSPropertyOp12
 70
     1
102
RTVSPropertyOp13
 70
     1
102
RTVSPropertyOp14
 70
     1
102
RTVSPropertyOp15
 70
     1
102
RTVSPropertyOp16
 70
     1
102
RTVSPropertyOp17
 70
     1
102
RTVSPropertyOp18
 70
     1
102
RTVSPropertyOp19
 70
     1
102
RTVSPropertyOp20
 70
     1
102
RTVSPropertyOp21
 70
     1
102
RTVSPropertyOp22
 70
     1
102
RTVSPropertyOp23
 70
     1
102
RTVSPropertyOp24
 70
     1
102
RTVSPropertyOp25
 70
     1
102
RTVSPropertyOp26
 70
     1
102
RTVSPropertyOp27
 70
     1
102
RTVSPropertyOp28
 70
     1
102
RTVSPropertyOp29
 70
     1
102
RTVSPropertyOp30
 70
     1
102
RTVSPropertyOp31
 70
     1
102
RTVSPropertyOp32
 70
     1
102
RTVSPropertyOp33
 70
     1
102
RTVSPropertyOp34
 70
     1
102
RTVSPropertyOp35
 70
     1
102
RTVSPropertyOp36
 70
     1
102
RTVSPropertyOp37
 70
     1
102
RTVSPropertyOp38
 70
     1
102
RTVSPropertyOp39
 70
     1
102
RTVSPropertyOp40
 70
     1
102
RTVSPropertyOp41
 70
     1
102
RTVSPropertyOp42
 70
     1
102
RTVSPropertyOp43
 70
     1
102
RTVSPropertyOp44
 70
     1
102
RTVSPropertyOp45
 70
     1
102
RTVSPropertyOp46
 70
     1
102
RTVSPropertyOp47
 70
     1
102
RTVSPropertyOp48
 70
     1
102
RTVSPropertyOp49
 70
     1
102
RTVSPropertyOp50
 70
     1
102
RTVSPropertyOp51
 70
     0
102
RTVSPropertyOp52
 70
     0
102
RTVSPropertyOp53
 70
     1
102
RTVSPropertyOp54
 70
     1
102
RTVSPropertyOp55
 70
     1
102
RTVSPropertyOp56
 70
     1
102
RTVSPropertyOp57
 70
     1
102
RTVSPropertyOp58
 70
     1
102
RTVSPropertyOp59
 70
     1
102
RTVSPropertyOp60
 70
     1
102
RTVSPropertyOp61
 70
     1
102
RTVSPropertyOp62
 70
     1
  0
XRECORD
  5
5D82
102
{ACAD_REACTORS
330
5D81
102
}
330
5D81
100
AcDbXrecord
280
     1
102
RTVSPost2010Prop28
280
     0
102
RTVSPost2010PropOp28
 70
     1
102
RTVSPost2010Prop29
280
     1
102
RTVSPost2010PropOp29
 70
     1
102
RTVSPost2010Prop30
280
     1
102
RTVSPost2010PropOp30
 70
     1
102
RTVSPost2010Prop31
280
     0
102
RTVSPost2010PropOp31
 70
     1
102
RTVSPost2010Prop32
280
     0
102
RTVSPost2010PropOp32
 70
     1
102
RTVSPost2010Prop33
280
     0
102
RTVSPost2010PropOp33
 70
     1
102
RTVSPost2010Prop34
280
     0
102
RTVSPost2010PropOp34
 70
     1
102
RTVSPost2010Prop35
280
     0
102
RTVSPost2010PropOp35
 70
     1
102
RTVSPost2010Prop36
280
     0
102
RTVSPost2010PropOp36
 70
     1
102
RTVSPost2010Prop37
 90
       50
102
RTVSPost2010PropOp37
 70
     1
102
RTVSPost2010Prop38
140
0.0
102
RTVSPost2010PropOp38
 70
     1
102
RTVSPost2010Prop39
140
1.0
102
RTVSPost2010PropOp39
 70
     1
102
RTVSPost2010Prop40
 90
        0
102
RTVSPost2010PropOp40
 70
     1
102
RTVSPost2010Prop41ColorIndex
 90
       18
102
RTVSPost2010Prop41ColorRGB
 90
        0
102
RTVSPost2010PropOp41
 70
     1
102
RTVSPost2010Prop42
 90
       50
102
RTVSPost2010PropOp42
 70
     1
102
RTVSPost2010Prop43
 90
        3
102
RTVSPost2010PropOp43
 70
     1
102
RTVSPost2010Prop44ColorIndex
 90
        5
102
RTVSPost2010Prop44ColorRGB
 90
      255
102
RTVSPost2010PropOp44
 70
     1
102
RTVSPost2010Prop45
280
     0
102
RTVSPost2010PropOp45
 70
     1
102
RTVSPost2010Prop46
 90
       50
102
RTVSPost2010PropOp46
 70
     1
102
RTVSPost2010Prop47
 90
       50
102
RTVSPost2010PropOp47
 70
     1
102
RTVSPost2010Prop48
 90
       50
102
RTVSPost2010PropOp48
 70
     1
102
RTVSPost2010Prop49
280
     0
102
RTVSPost2010PropOp49
 70
     1
102
RTVSPost2010Prop50
 90
       50
102
RTVSPost2010PropOp50
 70
     1
102
RTVSPost2010Prop51ColorIndex
 90
      256
102
RTVSPost2010Prop51ColorRGB
 90
-16777216
102
RTVSPost2010PropOp51
 70
     0
102
RTVSPost2010Prop52
140
1.0
102
RTVSPost2010PropOp52
 70
     0
102
RTVSPost2010Prop53
 90
        2
102
RTVSPost2010PropOp53
 70
     1
102
RTVSPost2010Prop54
  1
strokes_ogs.tif
102
RTVSPost2010PropOp54
 70
     1
102
RTVSPost2010Prop55
280
     0
102
RTVSPost2010PropOp55
 70
     1
102
RTVSPost2010Prop56
140
1.0
102
RTVSPost2010PropOp56
 70
     1
102
RTVSPost2010Prop57
140
1.0
102
RTVSPost2010PropOp57
 70
     1
102
RTVSPropertyOp0
 70
     0
102
RTVSPropertyOp1
 70
     0
102
RTVSPropertyOp2
 70
     0
102
RTVSPropertyOp3
 70
     0
102
RTVSPropertyOp4
 70
     0
102
RTVSPropertyOp5
 70
     0
102
RTVSPropertyOp6
 70
     0
102
RTVSPropertyOp7
 70
     0
102
RTVSPropertyOp8
 70
     0
102
RTVSPropertyOp9
 70
     0
102
RTVSPropertyOp10
 70
     0
102
RTVSPropertyOp11
 70
     0
102
RTVSPropertyOp12
 70
     0
102
RTVSPropertyOp13
 70
     0
102
RTVSPropertyOp14
 70
     2
102
RTVSPropertyOp15
 70
     0
102
RTVSPropertyOp16
 70
     0
102
RTVSPropertyOp17
 70
     0
102
RTVSPropertyOp18
 70
     0
102
RTVSPropertyOp19
 70
     0
102
RTVSPropertyOp20
 70
     0
102
RTVSPropertyOp21
 70
     0
102
RTVSPropertyOp22
 70
     0
102
RTVSPropertyOp23
 70
     0
102
RTVSPropertyOp24
 70
     0
102
RTVSPropertyOp25
 70
     0
102
RTVSPropertyOp26
 70
     0
102
RTVSPropertyOp27
 70
     0
102
RTVSPropertyOp28
 70
     1
102
RTVSPropertyOp29
 70
     1
102
RTVSPropertyOp30
 70
     1
102
RTVSPropertyOp31
 70
     1
102
RTVSPropertyOp32
 70
     1
102
RTVSPropertyOp33
 70
     1
102
RTVSPropertyOp34
 70
     1
102
RTVSPropertyOp35
 70
     1
102
RTVSPropertyOp36
 70
     1
102
RTVSPropertyOp37
 70
     1
102
RTVSPropertyOp38
 70
     1
102
RTVSPropertyOp39
 70
     1
102
RTVSPropertyOp40
 70
     1
102
RTVSPropertyOp41
 70
     1
102
RTVSPropertyOp42
 70
     1
102
RTVSPropertyOp43
 70
     1
102
RTVSPropertyOp44
 70
     1
102
RTVSPropertyOp45
 70
     1
102
RTVSPropertyOp46
 70
     1
102
RTVSPropertyOp47
 70
     1
102
RTVSPropertyOp48
 70
     1
102
RTVSPropertyOp49
 70
     1
102
RTVSPropertyOp50
 70
     1
102
RTVSPropertyOp51
 70
     0
102
RTVSPropertyOp52
 70
     0
102
RTVSPropertyOp53
 70
     1
102
RTVSPropertyOp54
 70
     1
102
RTVSPropertyOp55
 70
     1
102
RTVSPropertyOp56
 70
     1
102
RTVSPropertyOp57
 70
     1
102
RTVSPropertyOp58
 70
     1
102
RTVSPropertyOp59
 70
     1
102
RTVSPropertyOp60
 70
     1
102
RTVSPropertyOp61
 70
     1
102
RTVSPropertyOp62
 70
     1
  0
XRECORD
  5
5D7A
102
{ACAD_REACTORS
330
5D79
102
}
330
5D79
100
AcDbXrecord
280
     1
102
RTVSPost2010Prop28
280
     0
102
RTVSPost2010PropOp28
 70
     1
102
RTVSPost2010Prop29
280
     1
102
RTVSPost2010PropOp29
 70
     1
102
RTVSPost2010Prop30
280
     1
102
RTVSPost2010PropOp30
 70
     1
102
RTVSPost2010Prop31
280
     0
102
RTVSPost2010PropOp31
 70
     1
102
RTVSPost2010Prop32
280
     0
102
RTVSPost2010PropOp32
 70
     1
102
RTVSPost2010Prop33
280
     0
102
RTVSPost2010PropOp33
 70
     1
102
RTVSPost2010Prop34
280
     0
102
RTVSPost2010PropOp34
 70
     1
102
RTVSPost2010Prop35
280
     0
102
RTVSPost2010PropOp35
 70
     1
102
RTVSPost2010Prop36
280
     0
102
RTVSPost2010PropOp36
 70
     1
102
RTVSPost2010Prop37
 90
       50
102
RTVSPost2010PropOp37
 70
     1
102
RTVSPost2010Prop38
140
0.0
102
RTVSPost2010PropOp38
 70
     1
102
RTVSPost2010Prop39
140
1.0
102
RTVSPost2010PropOp39
 70
     1
102
RTVSPost2010Prop40
 90
        0
102
RTVSPost2010PropOp40
 70
     1
102
RTVSPost2010Prop41ColorIndex
 90
       18
102
RTVSPost2010Prop41ColorRGB
 90
        0
102
RTVSPost2010PropOp41
 70
     1
102
RTVSPost2010Prop42
 90
       50
102
RTVSPost2010PropOp42
 70
     1
102
RTVSPost2010Prop43
 90
        3
102
RTVSPost2010PropOp43
 70
     1
102
RTVSPost2010Prop44ColorIndex
 90
        5
102
RTVSPost2010Prop44ColorRGB
 90
      255
102
RTVSPost2010PropOp44
 70
     1
102
RTVSPost2010Prop45
280
     0
102
RTVSPost2010PropOp45
 70
     1
102
RTVSPost2010Prop46
 90
       50
102
RTVSPost2010PropOp46
 70
     1
102
RTVSPost2010Prop47
 90
       50
102
RTVSPost2010PropOp47
 70
     1
102
RTVSPost2010Prop48
 90
       50
102
RTVSPost2010PropOp48
 70
     1
102
RTVSPost2010Prop49
280
     0
102
RTVSPost2010PropOp49
 70
     1
102
RTVSPost2010Prop50
 90
       50
102
RTVSPost2010PropOp50
 70
     1
102
RTVSPost2010Prop51ColorIndex
 90
      256
102
RTVSPost2010Prop51ColorRGB
 90
-16777216
102
RTVSPost2010PropOp51
 70
     0
102
RTVSPost2010Prop52
140
1.0
102
RTVSPost2010PropOp52
 70
     0
102
RTVSPost2010Prop53
 90
        2
102
RTVSPost2010PropOp53
 70
     1
102
RTVSPost2010Prop54
  1
strokes_ogs.tif
102
RTVSPost2010PropOp54
 70
     1
102
RTVSPost2010Prop55
280
     0
102
RTVSPost2010PropOp55
 70
     1
102
RTVSPost2010Prop56
140
1.0
102
RTVSPost2010PropOp56
 70
     1
102
RTVSPost2010Prop57
140
1.0
102
RTVSPost2010PropOp57
 70
     1
102
RTVSPropertyOp0
 70
     1
102
RTVSPropertyOp1
 70
     1
102
RTVSPropertyOp2
 70
     1
102
RTVSPropertyOp3
 70
     1
102
RTVSPropertyOp4
 70
     1
102
RTVSPropertyOp5
 70
     1
102
RTVSPropertyOp6
 70
     1
102
RTVSPropertyOp7
 70
     1
102
RTVSPropertyOp8
 70
     1
102
RTVSPropertyOp9
 70
     1
102
RTVSPropertyOp10
 70
     1
102
RTVSPropertyOp11
 70
     1
102
RTVSPropertyOp12
 70
     1
102
RTVSPropertyOp13
 70
     1
102
RTVSPropertyOp14
 70
     1
102
RTVSPropertyOp15
 70
     1
102
RTVSPropertyOp16
 70
     1
102
RTVSPropertyOp17
 70
     1
102
RTVSPropertyOp18
 70
     1
102
RTVSPropertyOp19
 70
     1
102
RTVSPropertyOp20
 70
     1
102
RTVSPropertyOp21
 70
     1
102
RTVSPropertyOp22
 70
     1
102
RTVSPropertyOp23
 70
     1
102
RTVSPropertyOp24
 70
     1
102
RTVSPropertyOp25
 70
     1
102
RTVSPropertyOp26
 70
     1
102
RTVSPropertyOp27
 70
     1
102
RTVSPropertyOp28
 70
     1
102
RTVSPropertyOp29
 70
     1
102
RTVSPropertyOp30
 70
     1
102
RTVSPropertyOp31
 70
     1
102
RTVSPropertyOp32
 70
     1
102
RTVSPropertyOp33
 70
     1
102
RTVSPropertyOp34
 70
     1
102
RTVSPropertyOp35
 70
     1
102
RTVSPropertyOp36
 70
     1
102
RTVSPropertyOp37
 70
     1
102
RTVSPropertyOp38
 70
     1
102
RTVSPropertyOp39
 70
     1
102
RTVSPropertyOp40
 70
     1
102
RTVSPropertyOp41
 70
     1
102
RTVSPropertyOp42
 70
     1
102
RTVSPropertyOp43
 70
     1
102
RTVSPropertyOp44
 70
     1
102
RTVSPropertyOp45
 70
     1
102
RTVSPropertyOp46
 70
     1
102
RTVSPropertyOp47
 70
     1
102
RTVSPropertyOp48
 70
     1
102
RTVSPropertyOp49
 70
     1
102
RTVSPropertyOp50
 70
     1
102
RTVSPropertyOp51
 70
     0
102
RTVSPropertyOp52
 70
     0
102
RTVSPropertyOp53
 70
     1
102
RTVSPropertyOp54
 70
     1
102
RTVSPropertyOp55
 70
     1
102
RTVSPropertyOp56
 70
     1
102
RTVSPropertyOp57
 70
     1
102
RTVSPropertyOp58
 70
     1
102
RTVSPropertyOp59
 70
     1
102
RTVSPropertyOp60
 70
     1
102
RTVSPropertyOp61
 70
     1
102
RTVSPropertyOp62
 70
     1
  0
XRECORD
  5
5D84
102
{ACAD_REACTORS
330
5D83
102
}
330
5D83
100
AcDbXrecord
280
     1
102
RTVSPost2010Prop28
280
     0
102
RTVSPost2010PropOp28
 70
     1
102
RTVSPost2010Prop29
280
     1
102
RTVSPost2010PropOp29
 70
     1
102
RTVSPost2010Prop30
280
     1
102
RTVSPost2010PropOp30
 70
     1
102
RTVSPost2010Prop31
280
     0
102
RTVSPost2010PropOp31
 70
     1
102
RTVSPost2010Prop32
280
     0
102
RTVSPost2010PropOp32
 70
     1
102
RTVSPost2010Prop33
280
     0
102
RTVSPost2010PropOp33
 70
     1
102
RTVSPost2010Prop34
280
     0
102
RTVSPost2010PropOp34
 70
     1
102
RTVSPost2010Prop35
280
     0
102
RTVSPost2010PropOp35
 70
     1
102
RTVSPost2010Prop36
280
     0
102
RTVSPost2010PropOp36
 70
     1
102
RTVSPost2010Prop37
 90
       50
102
RTVSPost2010PropOp37
 70
     1
102
RTVSPost2010Prop38
140
0.0
102
RTVSPost2010PropOp38
 70
     1
102
RTVSPost2010Prop39
140
1.0
102
RTVSPost2010PropOp39
 70
     1
102
RTVSPost2010Prop40
 90
        0
102
RTVSPost2010PropOp40
 70
     1
102
RTVSPost2010Prop41ColorIndex
 90
       18
102
RTVSPost2010Prop41ColorRGB
 90
        0
102
RTVSPost2010PropOp41
 70
     1
102
RTVSPost2010Prop42
 90
       50
102
RTVSPost2010PropOp42
 70
     1
102
RTVSPost2010Prop43
 90
        3
102
RTVSPost2010PropOp43
 70
     1
102
RTVSPost2010Prop44ColorIndex
 90
        5
102
RTVSPost2010Prop44ColorRGB
 90
      255
102
RTVSPost2010PropOp44
 70
     1
102
RTVSPost2010Prop45
280
     0
102
RTVSPost2010PropOp45
 70
     1
102
RTVSPost2010Prop46
 90
       50
102
RTVSPost2010PropOp46
 70
     1
102
RTVSPost2010Prop47
 90
       50
102
RTVSPost2010PropOp47
 70
     1
102
RTVSPost2010Prop48
 90
       50
102
RTVSPost2010PropOp48
 70
     1
102
RTVSPost2010Prop49
280
     0
102
RTVSPost2010PropOp49
 70
     1
102
RTVSPost2010Prop50
 90
       50
102
RTVSPost2010PropOp50
 70
     1
102
RTVSPost2010Prop51ColorIndex
 90
      256
102
RTVSPost2010Prop51ColorRGB
 90
-16777216
102
RTVSPost2010PropOp51
 70
     0
102
RTVSPost2010Prop52
140
1.0
102
RTVSPost2010PropOp52
 70
     0
102
RTVSPost2010Prop53
 90
        2
102
RTVSPost2010PropOp53
 70
     1
102
RTVSPost2010Prop54
  1
strokes_ogs.tif
102
RTVSPost2010PropOp54
 70
     1
102
RTVSPost2010Prop55
280
     0
102
RTVSPost2010PropOp55
 70
     1
102
RTVSPost2010Prop56
140
1.0
102
RTVSPost2010PropOp56
 70
     1
102
RTVSPost2010Prop57
140
1.0
102
RTVSPost2010PropOp57
 70
     1
102
RTVSPropertyOp0
 70
     0
102
RTVSPropertyOp1
 70
     0
102
RTVSPropertyOp2
 70
     0
102
RTVSPropertyOp3
 70
     0
102
RTVSPropertyOp4
 70
     0
102
RTVSPropertyOp5
 70
     0
102
RTVSPropertyOp6
 70
     0
102
RTVSPropertyOp7
 70
     0
102
RTVSPropertyOp8
 70
     0
102
RTVSPropertyOp9
 70
     0
102
RTVSPropertyOp10
 70
     0
102
RTVSPropertyOp11
 70
     0
102
RTVSPropertyOp12
 70
     0
102
RTVSPropertyOp13
 70
     0
102
RTVSPropertyOp14
 70
     2
102
RTVSPropertyOp15
 70
     0
102
RTVSPropertyOp16
 70
     0
102
RTVSPropertyOp17
 70
     0
102
RTVSPropertyOp18
 70
     0
102
RTVSPropertyOp19
 70
     0
102
RTVSPropertyOp20
 70
     0
102
RTVSPropertyOp21
 70
     0
102
RTVSPropertyOp22
 70
     0
102
RTVSPropertyOp23
 70
     0
102
RTVSPropertyOp24
 70
     0
102
RTVSPropertyOp25
 70
     0
102
RTVSPropertyOp26
 70
     0
102
RTVSPropertyOp27
 70
     0
102
RTVSPropertyOp28
 70
     1
102
RTVSPropertyOp29
 70
     1
102
RTVSPropertyOp30
 70
     1
102
RTVSPropertyOp31
 70
     1
102
RTVSPropertyOp32
 70
     1
102
RTVSPropertyOp33
 70
     1
102
RTVSPropertyOp34
 70
     1
102
RTVSPropertyOp35
 70
     1
102
RTVSPropertyOp36
 70
     1
102
RTVSPropertyOp37
 70
     1
102
RTVSPropertyOp38
 70
     1
102
RTVSPropertyOp39
 70
     1
102
RTVSPropertyOp40
 70
     1
102
RTVSPropertyOp41
 70
     1
102
RTVSPropertyOp42
 70
     1
102
RTVSPropertyOp43
 70
     1
102
RTVSPropertyOp44
 70
     1
102
RTVSPropertyOp45
 70
     1
102
RTVSPropertyOp46
 70
     1
102
RTVSPropertyOp47
 70
     1
102
RTVSPropertyOp48
 70
     1
102
RTVSPropertyOp49
 70
     1
102
RTVSPropertyOp50
 70
     1
102
RTVSPropertyOp51
 70
     0
102
RTVSPropertyOp52
 70
     0
102
RTVSPropertyOp53
 70
     1
102
RTVSPropertyOp54
 70
     1
102
RTVSPropertyOp55
 70
     1
102
RTVSPropertyOp56
 70
     1
102
RTVSPropertyOp57
 70
     1
102
RTVSPropertyOp58
 70
     1
102
RTVSPropertyOp59
 70
     1
102
RTVSPropertyOp60
 70
     1
102
RTVSPropertyOp61
 70
     1
102
RTVSPropertyOp62
 70
     1
  0
XRECORD
  5
5D72
102
{ACAD_REACTORS
330
5D71
102
}
330
5D71
100
AcDbXrecord
280
     1
102
RTVSPost2010Prop28
280
     0
102
RTVSPost2010PropOp28
 70
     1
102
RTVSPost2010Prop29
280
     1
102
RTVSPost2010PropOp29
 70
     1
102
RTVSPost2010Prop30
280
     1
102
RTVSPost2010PropOp30
 70
     1
102
RTVSPost2010Prop31
280
     0
102
RTVSPost2010PropOp31
 70
     1
102
RTVSPost2010Prop32
280
     0
102
RTVSPost2010PropOp32
 70
     1
102
RTVSPost2010Prop33
280
     0
102
RTVSPost2010PropOp33
 70
     1
102
RTVSPost2010Prop34
280
     0
102
RTVSPost2010PropOp34
 70
     1
102
RTVSPost2010Prop35
280
     0
102
RTVSPost2010PropOp35
 70
     1
102
RTVSPost2010Prop36
280
     0
102
RTVSPost2010PropOp36
 70
     1
102
RTVSPost2010Prop37
 90
       50
102
RTVSPost2010PropOp37
 70
     1
102
RTVSPost2010Prop38
140
0.0
102
RTVSPost2010PropOp38
 70
     1
102
RTVSPost2010Prop39
140
1.0
102
RTVSPost2010PropOp39
 70
     1
102
RTVSPost2010Prop40
 90
        0
102
RTVSPost2010PropOp40
 70
     1
102
RTVSPost2010Prop41ColorIndex
 90
       18
102
RTVSPost2010Prop41ColorRGB
 90
        0
102
RTVSPost2010PropOp41
 70
     1
102
RTVSPost2010Prop42
 90
       50
102
RTVSPost2010PropOp42
 70
     1
102
RTVSPost2010Prop43
 90
        3
102
RTVSPost2010PropOp43
 70
     1
102
RTVSPost2010Prop44ColorIndex
 90
        5
102
RTVSPost2010Prop44ColorRGB
 90
      255
102
RTVSPost2010PropOp44
 70
     1
102
RTVSPost2010Prop45
280
     0
102
RTVSPost2010PropOp45
 70
     1
102
RTVSPost2010Prop46
 90
       50
102
RTVSPost2010PropOp46
 70
     1
102
RTVSPost2010Prop47
 90
       50
102
RTVSPost2010PropOp47
 70
     1
102
RTVSPost2010Prop48
 90
       50
102
RTVSPost2010PropOp48
 70
     1
102
RTVSPost2010Prop49
280
     0
102
RTVSPost2010PropOp49
 70
     1
102
RTVSPost2010Prop50
 90
       50
102
RTVSPost2010PropOp50
 70
     1
102
RTVSPost2010Prop51ColorIndex
 90
      256
102
RTVSPost2010Prop51ColorRGB
 90
-16777216
102
RTVSPost2010PropOp51
 70
     0
102
RTVSPost2010Prop52
140
1.0
102
RTVSPost2010PropOp52
 70
     0
102
RTVSPost2010Prop53
 90
        2
102
RTVSPost2010PropOp53
 70
     1
102
RTVSPost2010Prop54
  1
strokes_ogs.tif
102
RTVSPost2010PropOp54
 70
     1
102
RTVSPost2010Prop55
280
     0
102
RTVSPost2010PropOp55
 70
     1
102
RTVSPost2010Prop56
140
1.0
102
RTVSPost2010PropOp56
 70
     1
102
RTVSPost2010Prop57
140
1.0
102
RTVSPost2010PropOp57
 70
     1
102
RTVSPropertyOp0
 70
     1
102
RTVSPropertyOp1
 70
     1
102
RTVSPropertyOp2
 70
     1
102
RTVSPropertyOp3
 70
     1
102
RTVSPropertyOp4
 70
     1
102
RTVSPropertyOp5
 70
     1
102
RTVSPropertyOp6
 70
     1
102
RTVSPropertyOp7
 70
     1
102
RTVSPropertyOp8
 70
     1
102
RTVSPropertyOp9
 70
     1
102
RTVSPropertyOp10
 70
     1
102
RTVSPropertyOp11
 70
     1
102
RTVSPropertyOp12
 70
     1
102
RTVSPropertyOp13
 70
     1
102
RTVSPropertyOp14
 70
     1
102
RTVSPropertyOp15
 70
     1
102
RTVSPropertyOp16
 70
     1
102
RTVSPropertyOp17
 70
     1
102
RTVSPropertyOp18
 70
     1
102
RTVSPropertyOp19
 70
     1
102
RTVSPropertyOp20
 70
     1
102
RTVSPropertyOp21
 70
     1
102
RTVSPropertyOp22
 70
     1
102
RTVSPropertyOp23
 70
     1
102
RTVSPropertyOp24
 70
     1
102
RTVSPropertyOp25
 70
     1
102
RTVSPropertyOp26
 70
     1
102
RTVSPropertyOp27
 70
     1
102
RTVSPropertyOp28
 70
     1
102
RTVSPropertyOp29
 70
     1
102
RTVSPropertyOp30
 70
     1
102
RTVSPropertyOp31
 70
     1
102
RTVSPropertyOp32
 70
     1
102
RTVSPropertyOp33
 70
     1
102
RTVSPropertyOp34
 70
     1
102
RTVSPropertyOp35
 70
     1
102
RTVSPropertyOp36
 70
     1
102
RTVSPropertyOp37
 70
     1
102
RTVSPropertyOp38
 70
     1
102
RTVSPropertyOp39
 70
     1
102
RTVSPropertyOp40
 70
     1
102
RTVSPropertyOp41
 70
     1
102
RTVSPropertyOp42
 70
     1
102
RTVSPropertyOp43
 70
     1
102
RTVSPropertyOp44
 70
     1
102
RTVSPropertyOp45
 70
     1
102
RTVSPropertyOp46
 70
     1
102
RTVSPropertyOp47
 70
     1
102
RTVSPropertyOp48
 70
     1
102
RTVSPropertyOp49
 70
     1
102
RTVSPropertyOp50
 70
     1
102
RTVSPropertyOp51
 70
     0
102
RTVSPropertyOp52
 70
     0
102
RTVSPropertyOp53
 70
     1
102
RTVSPropertyOp54
 70
     1
102
RTVSPropertyOp55
 70
     1
102
RTVSPropertyOp56
 70
     1
102
RTVSPropertyOp57
 70
     1
102
RTVSPropertyOp58
 70
     1
102
RTVSPropertyOp59
 70
     1
102
RTVSPropertyOp60
 70
     1
102
RTVSPropertyOp61
 70
     1
102
RTVSPropertyOp62
 70
     1
  0
XRECORD
  5
5D90
102
{ACAD_REACTORS
330
5D8F
102
}
330
5D8F
100
AcDbXrecord
280
     1
102
RTVSPost2010Prop28
280
     0
102
RTVSPost2010PropOp28
 70
     1
102
RTVSPost2010Prop29
280
     1
102
RTVSPost2010PropOp29
 70
     1
102
RTVSPost2010Prop30
280
     1
102
RTVSPost2010PropOp30
 70
     1
102
RTVSPost2010Prop31
280
     0
102
RTVSPost2010PropOp31
 70
     1
102
RTVSPost2010Prop32
280
     0
102
RTVSPost2010PropOp32
 70
     1
102
RTVSPost2010Prop33
280
     0
102
RTVSPost2010PropOp33
 70
     1
102
RTVSPost2010Prop34
280
     0
102
RTVSPost2010PropOp34
 70
     1
102
RTVSPost2010Prop35
280
     0
102
RTVSPost2010PropOp35
 70
     1
102
RTVSPost2010Prop36
280
     0
102
RTVSPost2010PropOp36
 70
     1
102
RTVSPost2010Prop37
 90
       50
102
RTVSPost2010PropOp37
 70
     1
102
RTVSPost2010Prop38
140
0.0
102
RTVSPost2010PropOp38
 70
     1
102
RTVSPost2010Prop39
140
1.0
102
RTVSPost2010PropOp39
 70
     1
102
RTVSPost2010Prop40
 90
        0
102
RTVSPost2010PropOp40
 70
     1
102
RTVSPost2010Prop41ColorIndex
 90
       18
102
RTVSPost2010Prop41ColorRGB
 90
        0
102
RTVSPost2010PropOp41
 70
     1
102
RTVSPost2010Prop42
 90
       50
102
RTVSPost2010PropOp42
 70
     1
102
RTVSPost2010Prop43
 90
        3
102
RTVSPost2010PropOp43
 70
     1
102
RTVSPost2010Prop44ColorIndex
 90
        5
102
RTVSPost2010Prop44ColorRGB
 90
      255
102
RTVSPost2010PropOp44
 70
     1
102
RTVSPost2010Prop45
280
     0
102
RTVSPost2010PropOp45
 70
     1
102
RTVSPost2010Prop46
 90
       50
102
RTVSPost2010PropOp46
 70
     1
102
RTVSPost2010Prop47
 90
       50
102
RTVSPost2010PropOp47
 70
     1
102
RTVSPost2010Prop48
 90
       50
102
RTVSPost2010PropOp48
 70
     1
102
RTVSPost2010Prop49
280
     0
102
RTVSPost2010PropOp49
 70
     1
102
RTVSPost2010Prop50
 90
       50
102
RTVSPost2010PropOp50
 70
     1
102
RTVSPost2010Prop51ColorIndex
 90
      256
102
RTVSPost2010Prop51ColorRGB
 90
-16777216
102
RTVSPost2010PropOp51
 70
     0
102
RTVSPost2010Prop52
140
1.0
102
RTVSPost2010PropOp52
 70
     0
102
RTVSPost2010Prop53
 90
        2
102
RTVSPost2010PropOp53
 70
     1
102
RTVSPost2010Prop54
  1
strokes_ogs.tif
102
RTVSPost2010PropOp54
 70
     1
102
RTVSPost2010Prop55
280
     0
102
RTVSPost2010PropOp55
 70
     1
102
RTVSPost2010Prop56
140
1.0
102
RTVSPost2010PropOp56
 70
     1
102
RTVSPost2010Prop57
140
1.0
102
RTVSPost2010PropOp57
 70
     1
102
RTVSPropertyOp0
 70
     1
102
RTVSPropertyOp1
 70
     1
102
RTVSPropertyOp2
 70
     1
102
RTVSPropertyOp3
 70
     1
102
RTVSPropertyOp4
 70
     1
102
RTVSPropertyOp5
 70
     1
102
RTVSPropertyOp6
 70
     1
102
RTVSPropertyOp7
 70
     1
102
RTVSPropertyOp8
 70
     1
102
RTVSPropertyOp9
 70
     1
102
RTVSPropertyOp10
 70
     1
102
RTVSPropertyOp11
 70
     1
102
RTVSPropertyOp12
 70
     1
102
RTVSPropertyOp13
 70
     1
102
RTVSPropertyOp14
 70
     1
102
RTVSPropertyOp15
 70
     1
102
RTVSPropertyOp16
 70
     1
102
RTVSPropertyOp17
 70
     1
102
RTVSPropertyOp18
 70
     1
102
RTVSPropertyOp19
 70
     1
102
RTVSPropertyOp20
 70
     1
102
RTVSPropertyOp21
 70
     1
102
RTVSPropertyOp22
 70
     1
102
RTVSPropertyOp23
 70
     1
102
RTVSPropertyOp24
 70
     1
102
RTVSPropertyOp25
 70
     1
102
RTVSPropertyOp26
 70
     1
102
RTVSPropertyOp27
 70
     1
102
RTVSPropertyOp28
 70
     1
102
RTVSPropertyOp29
 70
     1
102
RTVSPropertyOp30
 70
     1
102
RTVSPropertyOp31
 70
     1
102
RTVSPropertyOp32
 70
     1
102
RTVSPropertyOp33
 70
     1
102
RTVSPropertyOp34
 70
     1
102
RTVSPropertyOp35
 70
     1
102
RTVSPropertyOp36
 70
     1
102
RTVSPropertyOp37
 70
     1
102
RTVSPropertyOp38
 70
     1
102
RTVSPropertyOp39
 70
     1
102
RTVSPropertyOp40
 70
     1
102
RTVSPropertyOp41
 70
     1
102
RTVSPropertyOp42
 70
     1
102
RTVSPropertyOp43
 70
     1
102
RTVSPropertyOp44
 70
     1
102
RTVSPropertyOp45
 70
     1
102
RTVSPropertyOp46
 70
     1
102
RTVSPropertyOp47
 70
     1
102
RTVSPropertyOp48
 70
     1
102
RTVSPropertyOp49
 70
     1
102
RTVSPropertyOp50
 70
     1
102
RTVSPropertyOp51
 70
     0
102
RTVSPropertyOp52
 70
     0
102
RTVSPropertyOp53
 70
     1
102
RTVSPropertyOp54
 70
     1
102
RTVSPropertyOp55
 70
     1
102
RTVSPropertyOp56
 70
     1
102
RTVSPropertyOp57
 70
     1
102
RTVSPropertyOp58
 70
     1
102
RTVSPropertyOp59
 70
     1
102
RTVSPropertyOp60
 70
     1
102
RTVSPropertyOp61
 70
     1
102
RTVSPropertyOp62
 70
     1
  0
XRECORD
  5
5D8E
102
{ACAD_REACTORS
330
5D8D
102
}
330
5D8D
100
AcDbXrecord
280
     1
102
RTVSPost2010Prop28
280
     0
102
RTVSPost2010PropOp28
 70
     1
102
RTVSPost2010Prop29
280
     1
102
RTVSPost2010PropOp29
 70
     1
102
RTVSPost2010Prop30
280
     1
102
RTVSPost2010PropOp30
 70
     1
102
RTVSPost2010Prop31
280
     0
102
RTVSPost2010PropOp31
 70
     1
102
RTVSPost2010Prop32
280
     0
102
RTVSPost2010PropOp32
 70
     1
102
RTVSPost2010Prop33
280
     0
102
RTVSPost2010PropOp33
 70
     1
102
RTVSPost2010Prop34
280
     0
102
RTVSPost2010PropOp34
 70
     1
102
RTVSPost2010Prop35
280
     0
102
RTVSPost2010PropOp35
 70
     1
102
RTVSPost2010Prop36
280
     0
102
RTVSPost2010PropOp36
 70
     1
102
RTVSPost2010Prop37
 90
       50
102
RTVSPost2010PropOp37
 70
     1
102
RTVSPost2010Prop38
140
0.0
102
RTVSPost2010PropOp38
 70
     1
102
RTVSPost2010Prop39
140
1.0
102
RTVSPost2010PropOp39
 70
     1
102
RTVSPost2010Prop40
 90
        0
102
RTVSPost2010PropOp40
 70
     1
102
RTVSPost2010Prop41ColorIndex
 90
       18
102
RTVSPost2010Prop41ColorRGB
 90
        0
102
RTVSPost2010PropOp41
 70
     1
102
RTVSPost2010Prop42
 90
       50
102
RTVSPost2010PropOp42
 70
     1
102
RTVSPost2010Prop43
 90
        3
102
RTVSPost2010PropOp43
 70
     1
102
RTVSPost2010Prop44ColorIndex
 90
        5
102
RTVSPost2010Prop44ColorRGB
 90
      255
102
RTVSPost2010PropOp44
 70
     1
102
RTVSPost2010Prop45
280
     0
102
RTVSPost2010PropOp45
 70
     1
102
RTVSPost2010Prop46
 90
       50
102
RTVSPost2010PropOp46
 70
     1
102
RTVSPost2010Prop47
 90
       50
102
RTVSPost2010PropOp47
 70
     1
102
RTVSPost2010Prop48
 90
       50
102
RTVSPost2010PropOp48
 70
     1
102
RTVSPost2010Prop49
280
     0
102
RTVSPost2010PropOp49
 70
     1
102
RTVSPost2010Prop50
 90
       50
102
RTVSPost2010PropOp50
 70
     1
102
RTVSPost2010Prop51ColorIndex
 90
      256
102
RTVSPost2010Prop51ColorRGB
 90
-16777216
102
RTVSPost2010PropOp51
 70
     0
102
RTVSPost2010Prop52
140
1.0
102
RTVSPost2010PropOp52
 70
     0
102
RTVSPost2010Prop53
 90
        2
102
RTVSPost2010PropOp53
 70
     1
102
RTVSPost2010Prop54
  1
strokes_ogs.tif
102
RTVSPost2010PropOp54
 70
     1
102
RTVSPost2010Prop55
280
     0
102
RTVSPost2010PropOp55
 70
     1
102
RTVSPost2010Prop56
140
1.0
102
RTVSPost2010PropOp56
 70
     1
102
RTVSPost2010Prop57
140
1.0
102
RTVSPost2010PropOp57
 70
     1
102
RTVSPropertyOp0
 70
     1
102
RTVSPropertyOp1
 70
     1
102
RTVSPropertyOp2
 70
     1
102
RTVSPropertyOp3
 70
     1
102
RTVSPropertyOp4
 70
     1
102
RTVSPropertyOp5
 70
     1
102
RTVSPropertyOp6
 70
     1
102
RTVSPropertyOp7
 70
     1
102
RTVSPropertyOp8
 70
     1
102
RTVSPropertyOp9
 70
     1
102
RTVSPropertyOp10
 70
     1
102
RTVSPropertyOp11
 70
     1
102
RTVSPropertyOp12
 70
     1
102
RTVSPropertyOp13
 70
     1
102
RTVSPropertyOp14
 70
     1
102
RTVSPropertyOp15
 70
     1
102
RTVSPropertyOp16
 70
     1
102
RTVSPropertyOp17
 70
     1
102
RTVSPropertyOp18
 70
     1
102
RTVSPropertyOp19
 70
     1
102
RTVSPropertyOp20
 70
     1
102
RTVSPropertyOp21
 70
     1
102
RTVSPropertyOp22
 70
     1
102
RTVSPropertyOp23
 70
     1
102
RTVSPropertyOp24
 70
     1
102
RTVSPropertyOp25
 70
     1
102
RTVSPropertyOp26
 70
     1
102
RTVSPropertyOp27
 70
     1
102
RTVSPropertyOp28
 70
     1
102
RTVSPropertyOp29
 70
     1
102
RTVSPropertyOp30
 70
     1
102
RTVSPropertyOp31
 70
     1
102
RTVSPropertyOp32
 70
     1
102
RTVSPropertyOp33
 70
     1
102
RTVSPropertyOp34
 70
     1
102
RTVSPropertyOp35
 70
     1
102
RTVSPropertyOp36
 70
     1
102
RTVSPropertyOp37
 70
     1
102
RTVSPropertyOp38
 70
     1
102
RTVSPropertyOp39
 70
     1
102
RTVSPropertyOp40
 70
     1
102
RTVSPropertyOp41
 70
     1
102
RTVSPropertyOp42
 70
     1
102
RTVSPropertyOp43
 70
     1
102
RTVSPropertyOp44
 70
     1
102
RTVSPropertyOp45
 70
     1
102
RTVSPropertyOp46
 70
     1
102
RTVSPropertyOp47
 70
     1
102
RTVSPropertyOp48
 70
     1
102
RTVSPropertyOp49
 70
     1
102
RTVSPropertyOp50
 70
     1
102
RTVSPropertyOp51
 70
     0
102
RTVSPropertyOp52
 70
     0
102
RTVSPropertyOp53
 70
     1
102
RTVSPropertyOp54
 70
     1
102
RTVSPropertyOp55
 70
     1
102
RTVSPropertyOp56
 70
     1
102
RTVSPropertyOp57
 70
     1
102
RTVSPropertyOp58
 70
     1
102
RTVSPropertyOp59
 70
     1
102
RTVSPropertyOp60
 70
     1
102
RTVSPropertyOp61
 70
     1
102
RTVSPropertyOp62
 70
     1
  0
XRECORD
  5
5D88
102
{ACAD_REACTORS
330
5D87
102
}
330
5D87
100
AcDbXrecord
280
     1
102
RTVSPost2010Prop28
280
     0
102
RTVSPost2010PropOp28
 70
     1
102
RTVSPost2010Prop29
280
     1
102
RTVSPost2010PropOp29
 70
     1
102
RTVSPost2010Prop30
280
     1
102
RTVSPost2010PropOp30
 70
     1
102
RTVSPost2010Prop31
280
     0
102
RTVSPost2010PropOp31
 70
     1
102
RTVSPost2010Prop32
280
     0
102
RTVSPost2010PropOp32
 70
     1
102
RTVSPost2010Prop33
280
     0
102
RTVSPost2010PropOp33
 70
     1
102
RTVSPost2010Prop34
280
     0
102
RTVSPost2010PropOp34
 70
     1
102
RTVSPost2010Prop35
280
     0
102
RTVSPost2010PropOp35
 70
     1
102
RTVSPost2010Prop36
280
     0
102
RTVSPost2010PropOp36
 70
     1
102
RTVSPost2010Prop37
 90
       50
102
RTVSPost2010PropOp37
 70
     1
102
RTVSPost2010Prop38
140
0.0
102
RTVSPost2010PropOp38
 70
     1
102
RTVSPost2010Prop39
140
1.0
102
RTVSPost2010PropOp39
 70
     1
102
RTVSPost2010Prop40
 90
        0
102
RTVSPost2010PropOp40
 70
     1
102
RTVSPost2010Prop41ColorIndex
 90
       18
102
RTVSPost2010Prop41ColorRGB
 90
        0
102
RTVSPost2010PropOp41
 70
     1
102
RTVSPost2010Prop42
 90
       50
102
RTVSPost2010PropOp42
 70
     1
102
RTVSPost2010Prop43
 90
        3
102
RTVSPost2010PropOp43
 70
     1
102
RTVSPost2010Prop44ColorIndex
 90
        5
102
RTVSPost2010Prop44ColorRGB
 90
      255
102
RTVSPost2010PropOp44
 70
     1
102
RTVSPost2010Prop45
280
     0
102
RTVSPost2010PropOp45
 70
     1
102
RTVSPost2010Prop46
 90
       50
102
RTVSPost2010PropOp46
 70
     1
102
RTVSPost2010Prop47
 90
       50
102
RTVSPost2010PropOp47
 70
     1
102
RTVSPost2010Prop48
 90
       50
102
RTVSPost2010PropOp48
 70
     1
102
RTVSPost2010Prop49
280
     0
102
RTVSPost2010PropOp49
 70
     1
102
RTVSPost2010Prop50
 90
       50
102
RTVSPost2010PropOp50
 70
     1
102
RTVSPost2010Prop51ColorIndex
 90
      256
102
RTVSPost2010Prop51ColorRGB
 90
-16777216
102
RTVSPost2010PropOp51
 70
     0
102
RTVSPost2010Prop52
140
1.0
102
RTVSPost2010PropOp52
 70
     0
102
RTVSPost2010Prop53
 90
        2
102
RTVSPost2010PropOp53
 70
     1
102
RTVSPost2010Prop54
  1
strokes_ogs.tif
102
RTVSPost2010PropOp54
 70
     1
102
RTVSPost2010Prop55
280
     0
102
RTVSPost2010PropOp55
 70
     1
102
RTVSPost2010Prop56
140
1.0
102
RTVSPost2010PropOp56
 70
     1
102
RTVSPost2010Prop57
140
1.0
102
RTVSPost2010PropOp57
 70
     1
102
RTVSPropertyOp0
 70
     1
102
RTVSPropertyOp1
 70
     1
102
RTVSPropertyOp2
 70
     1
102
RTVSPropertyOp3
 70
     1
102
RTVSPropertyOp4
 70
     1
102
RTVSPropertyOp5
 70
     1
102
RTVSPropertyOp6
 70
     1
102
RTVSPropertyOp7
 70
     1
102
RTVSPropertyOp8
 70
     1
102
RTVSPropertyOp9
 70
     1
102
RTVSPropertyOp10
 70
     1
102
RTVSPropertyOp11
 70
     1
102
RTVSPropertyOp12
 70
     1
102
RTVSPropertyOp13
 70
     1
102
RTVSPropertyOp14
 70
     1
102
RTVSPropertyOp15
 70
     1
102
RTVSPropertyOp16
 70
     1
102
RTVSPropertyOp17
 70
     1
102
RTVSPropertyOp18
 70
     1
102
RTVSPropertyOp19
 70
     1
102
RTVSPropertyOp20
 70
     1
102
RTVSPropertyOp21
 70
     1
102
RTVSPropertyOp22
 70
     1
102
RTVSPropertyOp23
 70
     1
102
RTVSPropertyOp24
 70
     1
102
RTVSPropertyOp25
 70
     1
102
RTVSPropertyOp26
 70
     1
102
RTVSPropertyOp27
 70
     1
102
RTVSPropertyOp28
 70
     1
102
RTVSPropertyOp29
 70
     1
102
RTVSPropertyOp30
 70
     1
102
RTVSPropertyOp31
 70
     1
102
RTVSPropertyOp32
 70
     1
102
RTVSPropertyOp33
 70
     1
102
RTVSPropertyOp34
 70
     1
102
RTVSPropertyOp35
 70
     1
102
RTVSPropertyOp36
 70
     1
102
RTVSPropertyOp37
 70
     1
102
RTVSPropertyOp38
 70
     1
102
RTVSPropertyOp39
 70
     1
102
RTVSPropertyOp40
 70
     1
102
RTVSPropertyOp41
 70
     1
102
RTVSPropertyOp42
 70
     1
102
RTVSPropertyOp43
 70
     1
102
RTVSPropertyOp44
 70
     1
102
RTVSPropertyOp45
 70
     1
102
RTVSPropertyOp46
 70
     1
102
RTVSPropertyOp47
 70
     1
102
RTVSPropertyOp48
 70
     1
102
RTVSPropertyOp49
 70
     1
102
RTVSPropertyOp50
 70
     1
102
RTVSPropertyOp51
 70
     0
102
RTVSPropertyOp52
 70
     0
102
RTVSPropertyOp53
 70
     1
102
RTVSPropertyOp54
 70
     1
102
RTVSPropertyOp55
 70
     1
102
RTVSPropertyOp56
 70
     1
102
RTVSPropertyOp57
 70
     1
102
RTVSPropertyOp58
 70
     1
102
RTVSPropertyOp59
 70
     1
102
RTVSPropertyOp60
 70
     1
102
RTVSPropertyOp61
 70
     1
102
RTVSPropertyOp62
 70
     1
  0
XRECORD
  5
5D8A
102
{ACAD_REACTORS
330
5D89
102
}
330
5D89
100
AcDbXrecord
280
     1
102
RTVSPost2010Prop28
280
     0
102
RTVSPost2010PropOp28
 70
     1
102
RTVSPost2010Prop29
280
     1
102
RTVSPost2010PropOp29
 70
     1
102
RTVSPost2010Prop30
280
     1
102
RTVSPost2010PropOp30
 70
     1
102
RTVSPost2010Prop31
280
     0
102
RTVSPost2010PropOp31
 70
     1
102
RTVSPost2010Prop32
280
     0
102
RTVSPost2010PropOp32
 70
     1
102
RTVSPost2010Prop33
280
     0
102
RTVSPost2010PropOp33
 70
     1
102
RTVSPost2010Prop34
280
     0
102
RTVSPost2010PropOp34
 70
     1
102
RTVSPost2010Prop35
280
     0
102
RTVSPost2010PropOp35
 70
     1
102
RTVSPost2010Prop36
280
     0
102
RTVSPost2010PropOp36
 70
     1
102
RTVSPost2010Prop37
 90
       50
102
RTVSPost2010PropOp37
 70
     1
102
RTVSPost2010Prop38
140
0.0
102
RTVSPost2010PropOp38
 70
     1
102
RTVSPost2010Prop39
140
1.0
102
RTVSPost2010PropOp39
 70
     1
102
RTVSPost2010Prop40
 90
        0
102
RTVSPost2010PropOp40
 70
     1
102
RTVSPost2010Prop41ColorIndex
 90
       18
102
RTVSPost2010Prop41ColorRGB
 90
        0
102
RTVSPost2010PropOp41
 70
     1
102
RTVSPost2010Prop42
 90
       50
102
RTVSPost2010PropOp42
 70
     1
102
RTVSPost2010Prop43
 90
        3
102
RTVSPost2010PropOp43
 70
     1
102
RTVSPost2010Prop44ColorIndex
 90
        5
102
RTVSPost2010Prop44ColorRGB
 90
      255
102
RTVSPost2010PropOp44
 70
     1
102
RTVSPost2010Prop45
280
     0
102
RTVSPost2010PropOp45
 70
     1
102
RTVSPost2010Prop46
 90
       50
102
RTVSPost2010PropOp46
 70
     1
102
RTVSPost2010Prop47
 90
       50
102
RTVSPost2010PropOp47
 70
     1
102
RTVSPost2010Prop48
 90
       50
102
RTVSPost2010PropOp48
 70
     1
102
RTVSPost2010Prop49
280
     0
102
RTVSPost2010PropOp49
 70
     1
102
RTVSPost2010Prop50
 90
       50
102
RTVSPost2010PropOp50
 70
     1
102
RTVSPost2010Prop51ColorIndex
 90
      256
102
RTVSPost2010Prop51ColorRGB
 90
-16777216
102
RTVSPost2010PropOp51
 70
     0
102
RTVSPost2010Prop52
140
1.0
102
RTVSPost2010PropOp52
 70
     0
102
RTVSPost2010Prop53
 90
        2
102
RTVSPost2010PropOp53
 70
     1
102
RTVSPost2010Prop54
  1
strokes_ogs.tif
102
RTVSPost2010PropOp54
 70
     1
102
RTVSPost2010Prop55
280
     0
102
RTVSPost2010PropOp55
 70
     1
102
RTVSPost2010Prop56
140
1.0
102
RTVSPost2010PropOp56
 70
     1
102
RTVSPost2010Prop57
140
1.0
102
RTVSPost2010PropOp57
 70
     1
102
RTVSPropertyOp0
 70
     1
102
RTVSPropertyOp1
 70
     1
102
RTVSPropertyOp2
 70
     1
102
RTVSPropertyOp3
 70
     1
102
RTVSPropertyOp4
 70
     1
102
RTVSPropertyOp5
 70
     1
102
RTVSPropertyOp6
 70
     1
102
RTVSPropertyOp7
 70
     1
102
RTVSPropertyOp8
 70
     1
102
RTVSPropertyOp9
 70
     1
102
RTVSPropertyOp10
 70
     1
102
RTVSPropertyOp11
 70
     1
102
RTVSPropertyOp12
 70
     1
102
RTVSPropertyOp13
 70
     1
102
RTVSPropertyOp14
 70
     1
102
RTVSPropertyOp15
 70
     1
102
RTVSPropertyOp16
 70
     1
102
RTVSPropertyOp17
 70
     1
102
RTVSPropertyOp18
 70
     1
102
RTVSPropertyOp19
 70
     1
102
RTVSPropertyOp20
 70
     1
102
RTVSPropertyOp21
 70
     1
102
RTVSPropertyOp22
 70
     1
102
RTVSPropertyOp23
 70
     1
102
RTVSPropertyOp24
 70
     1
102
RTVSPropertyOp25
 70
     1
102
RTVSPropertyOp26
 70
     1
102
RTVSPropertyOp27
 70
     1
102
RTVSPropertyOp28
 70
     1
102
RTVSPropertyOp29
 70
     1
102
RTVSPropertyOp30
 70
     1
102
RTVSPropertyOp31
 70
     1
102
RTVSPropertyOp32
 70
     1
102
RTVSPropertyOp33
 70
     1
102
RTVSPropertyOp34
 70
     1
102
RTVSPropertyOp35
 70
     1
102
RTVSPropertyOp36
 70
     1
102
RTVSPropertyOp37
 70
     1
102
RTVSPropertyOp38
 70
     1
102
RTVSPropertyOp39
 70
     1
102
RTVSPropertyOp40
 70
     1
102
RTVSPropertyOp41
 70
     1
102
RTVSPropertyOp42
 70
     1
102
RTVSPropertyOp43
 70
     1
102
RTVSPropertyOp44
 70
     1
102
RTVSPropertyOp45
 70
     1
102
RTVSPropertyOp46
 70
     1
102
RTVSPropertyOp47
 70
     1
102
RTVSPropertyOp48
 70
     1
102
RTVSPropertyOp49
 70
     1
102
RTVSPropertyOp50
 70
     1
102
RTVSPropertyOp51
 70
     0
102
RTVSPropertyOp52
 70
     0
102
RTVSPropertyOp53
 70
     1
102
RTVSPropertyOp54
 70
     1
102
RTVSPropertyOp55
 70
     1
102
RTVSPropertyOp56
 70
     1
102
RTVSPropertyOp57
 70
     1
102
RTVSPropertyOp58
 70
     1
102
RTVSPropertyOp59
 70
     1
102
RTVSPropertyOp60
 70
     1
102
RTVSPropertyOp61
 70
     1
102
RTVSPropertyOp62
 70
     1
  0
XRECORD
  5
5D78
102
{ACAD_REACTORS
330
5D77
102
}
330
5D77
100
AcDbXrecord
280
     1
102
RTVSPost2010Prop28
280
     0
102
RTVSPost2010PropOp28
 70
     1
102
RTVSPost2010Prop29
280
     1
102
RTVSPost2010PropOp29
 70
     1
102
RTVSPost2010Prop30
280
     1
102
RTVSPost2010PropOp30
 70
     1
102
RTVSPost2010Prop31
280
     0
102
RTVSPost2010PropOp31
 70
     1
102
RTVSPost2010Prop32
280
     0
102
RTVSPost2010PropOp32
 70
     1
102
RTVSPost2010Prop33
280
     0
102
RTVSPost2010PropOp33
 70
     1
102
RTVSPost2010Prop34
280
     0
102
RTVSPost2010PropOp34
 70
     1
102
RTVSPost2010Prop35
280
     0
102
RTVSPost2010PropOp35
 70
     1
102
RTVSPost2010Prop36
280
     0
102
RTVSPost2010PropOp36
 70
     1
102
RTVSPost2010Prop37
 90
       50
102
RTVSPost2010PropOp37
 70
     1
102
RTVSPost2010Prop38
140
0.0
102
RTVSPost2010PropOp38
 70
     1
102
RTVSPost2010Prop39
140
1.0
102
RTVSPost2010PropOp39
 70
     1
102
RTVSPost2010Prop40
 90
        0
102
RTVSPost2010PropOp40
 70
     1
102
RTVSPost2010Prop41ColorIndex
 90
       18
102
RTVSPost2010Prop41ColorRGB
 90
        0
102
RTVSPost2010PropOp41
 70
     1
102
RTVSPost2010Prop42
 90
       50
102
RTVSPost2010PropOp42
 70
     1
102
RTVSPost2010Prop43
 90
        3
102
RTVSPost2010PropOp43
 70
     1
102
RTVSPost2010Prop44ColorIndex
 90
        5
102
RTVSPost2010Prop44ColorRGB
 90
      255
102
RTVSPost2010PropOp44
 70
     1
102
RTVSPost2010Prop45
280
     0
102
RTVSPost2010PropOp45
 70
     1
102
RTVSPost2010Prop46
 90
       50
102
RTVSPost2010PropOp46
 70
     1
102
RTVSPost2010Prop47
 90
       50
102
RTVSPost2010PropOp47
 70
     1
102
RTVSPost2010Prop48
 90
       50
102
RTVSPost2010PropOp48
 70
     1
102
RTVSPost2010Prop49
280
     0
102
RTVSPost2010PropOp49
 70
     1
102
RTVSPost2010Prop50
 90
       50
102
RTVSPost2010PropOp50
 70
     1
102
RTVSPost2010Prop51ColorIndex
 90
      256
102
RTVSPost2010Prop51ColorRGB
 90
-16777216
102
RTVSPost2010PropOp51
 70
     0
102
RTVSPost2010Prop52
140
1.0
102
RTVSPost2010PropOp52
 70
     0
102
RTVSPost2010Prop53
 90
        2
102
RTVSPost2010PropOp53
 70
     1
102
RTVSPost2010Prop54
  1
strokes_ogs.tif
102
RTVSPost2010PropOp54
 70
     1
102
RTVSPost2010Prop55
280
     0
102
RTVSPost2010PropOp55
 70
     1
102
RTVSPost2010Prop56
140
1.0
102
RTVSPost2010PropOp56
 70
     1
102
RTVSPost2010Prop57
140
1.0
102
RTVSPost2010PropOp57
 70
     1
102
RTVSPropertyOp0
 70
     1
102
RTVSPropertyOp1
 70
     1
102
RTVSPropertyOp2
 70
     1
102
RTVSPropertyOp3
 70
     1
102
RTVSPropertyOp4
 70
     1
102
RTVSPropertyOp5
 70
     1
102
RTVSPropertyOp6
 70
     1
102
RTVSPropertyOp7
 70
     1
102
RTVSPropertyOp8
 70
     1
102
RTVSPropertyOp9
 70
     1
102
RTVSPropertyOp10
 70
     1
102
RTVSPropertyOp11
 70
     1
102
RTVSPropertyOp12
 70
     1
102
RTVSPropertyOp13
 70
     1
102
RTVSPropertyOp14
 70
     1
102
RTVSPropertyOp15
 70
     1
102
RTVSPropertyOp16
 70
     1
102
RTVSPropertyOp17
 70
     1
102
RTVSPropertyOp18
 70
     1
102
RTVSPropertyOp19
 70
     1
102
RTVSPropertyOp20
 70
     1
102
RTVSPropertyOp21
 70
     1
102
RTVSPropertyOp22
 70
     1
102
RTVSPropertyOp23
 70
     1
102
RTVSPropertyOp24
 70
     1
102
RTVSPropertyOp25
 70
     1
102
RTVSPropertyOp26
 70
     1
102
RTVSPropertyOp27
 70
     1
102
RTVSPropertyOp28
 70
     1
102
RTVSPropertyOp29
 70
     1
102
RTVSPropertyOp30
 70
     1
102
RTVSPropertyOp31
 70
     1
102
RTVSPropertyOp32
 70
     1
102
RTVSPropertyOp33
 70
     1
102
RTVSPropertyOp34
 70
     1
102
RTVSPropertyOp35
 70
     1
102
RTVSPropertyOp36
 70
     1
102
RTVSPropertyOp37
 70
     1
102
RTVSPropertyOp38
 70
     1
102
RTVSPropertyOp39
 70
     1
102
RTVSPropertyOp40
 70
     1
102
RTVSPropertyOp41
 70
     1
102
RTVSPropertyOp42
 70
     1
102
RTVSPropertyOp43
 70
     1
102
RTVSPropertyOp44
 70
     1
102
RTVSPropertyOp45
 70
     1
102
RTVSPropertyOp46
 70
     1
102
RTVSPropertyOp47
 70
     1
102
RTVSPropertyOp48
 70
     1
102
RTVSPropertyOp49
 70
     1
102
RTVSPropertyOp50
 70
     1
102
RTVSPropertyOp51
 70
     0
102
RTVSPropertyOp52
 70
     0
102
RTVSPropertyOp53
 70
     1
102
RTVSPropertyOp54
 70
     1
102
RTVSPropertyOp55
 70
     1
102
RTVSPropertyOp56
 70
     1
102
RTVSPropertyOp57
 70
     1
102
RTVSPropertyOp58
 70
     1
102
RTVSPropertyOp59
 70
     1
102
RTVSPropertyOp60
 70
     1
102
RTVSPropertyOp61
 70
     1
102
RTVSPropertyOp62
 70
     1
  0
XRECORD
  5
5D6C
102
{ACAD_REACTORS
330
5D6B
102
}
330
5D6B
100
AcDbXrecord
280
     1
102
RTVSPost2010Prop28
280
     0
102
RTVSPost2010PropOp28
 70
     1
102
RTVSPost2010Prop29
280
     1
102
RTVSPost2010PropOp29
 70
     1
102
RTVSPost2010Prop30
280
     1
102
RTVSPost2010PropOp30
 70
     1
102
RTVSPost2010Prop31
280
     0
102
RTVSPost2010PropOp31
 70
     1
102
RTVSPost2010Prop32
280
     0
102
RTVSPost2010PropOp32
 70
     1
102
RTVSPost2010Prop33
280
     0
102
RTVSPost2010PropOp33
 70
     1
102
RTVSPost2010Prop34
280
     0
102
RTVSPost2010PropOp34
 70
     1
102
RTVSPost2010Prop35
280
     0
102
RTVSPost2010PropOp35
 70
     1
102
RTVSPost2010Prop36
280
     0
102
RTVSPost2010PropOp36
 70
     1
102
RTVSPost2010Prop37
 90
       50
102
RTVSPost2010PropOp37
 70
     1
102
RTVSPost2010Prop38
140
0.0
102
RTVSPost2010PropOp38
 70
     1
102
RTVSPost2010Prop39
140
1.0
102
RTVSPost2010PropOp39
 70
     1
102
RTVSPost2010Prop40
 90
        0
102
RTVSPost2010PropOp40
 70
     1
102
RTVSPost2010Prop41ColorIndex
 90
       18
102
RTVSPost2010Prop41ColorRGB
 90
        0
102
RTVSPost2010PropOp41
 70
     1
102
RTVSPost2010Prop42
 90
       50
102
RTVSPost2010PropOp42
 70
     1
102
RTVSPost2010Prop43
 90
        3
102
RTVSPost2010PropOp43
 70
     1
102
RTVSPost2010Prop44ColorIndex
 90
        5
102
RTVSPost2010Prop44ColorRGB
 90
      255
102
RTVSPost2010PropOp44
 70
     1
102
RTVSPost2010Prop45
280
     0
102
RTVSPost2010PropOp45
 70
     1
102
RTVSPost2010Prop46
 90
       50
102
RTVSPost2010PropOp46
 70
     1
102
RTVSPost2010Prop47
 90
       50
102
RTVSPost2010PropOp47
 70
     1
102
RTVSPost2010Prop48
 90
       50
102
RTVSPost2010PropOp48
 70
     1
102
RTVSPost2010Prop49
280
     0
102
RTVSPost2010PropOp49
 70
     1
102
RTVSPost2010Prop50
 90
       50
102
RTVSPost2010PropOp50
 70
     1
102
RTVSPost2010Prop51ColorIndex
 90
      256
102
RTVSPost2010Prop51ColorRGB
 90
-16777216
102
RTVSPost2010PropOp51
 70
     0
102
RTVSPost2010Prop52
140
1.0
102
RTVSPost2010PropOp52
 70
     0
102
RTVSPost2010Prop53
 90
        2
102
RTVSPost2010PropOp53
 70
     1
102
RTVSPost2010Prop54
  1
strokes_ogs.tif
102
RTVSPost2010PropOp54
 70
     1
102
RTVSPost2010Prop55
280
     0
102
RTVSPost2010PropOp55
 70
     1
102
RTVSPost2010Prop56
140
1.0
102
RTVSPost2010PropOp56
 70
     1
102
RTVSPost2010Prop57
140
1.0
102
RTVSPost2010PropOp57
 70
     1
102
RTVSPropertyOp0
 70
     1
102
RTVSPropertyOp1
 70
     1
102
RTVSPropertyOp2
 70
     1
102
RTVSPropertyOp3
 70
     1
102
RTVSPropertyOp4
 70
     1
102
RTVSPropertyOp5
 70
     1
102
RTVSPropertyOp6
 70
     1
102
RTVSPropertyOp7
 70
     1
102
RTVSPropertyOp8
 70
     1
102
RTVSPropertyOp9
 70
     1
102
RTVSPropertyOp10
 70
     1
102
RTVSPropertyOp11
 70
     1
102
RTVSPropertyOp12
 70
     1
102
RTVSPropertyOp13
 70
     1
102
RTVSPropertyOp14
 70
     1
102
RTVSPropertyOp15
 70
     1
102
RTVSPropertyOp16
 70
     1
102
RTVSPropertyOp17
 70
     1
102
RTVSPropertyOp18
 70
     1
102
RTVSPropertyOp19
 70
     1
102
RTVSPropertyOp20
 70
     1
102
RTVSPropertyOp21
 70
     1
102
RTVSPropertyOp22
 70
     1
102
RTVSPropertyOp23
 70
     1
102
RTVSPropertyOp24
 70
     1
102
RTVSPropertyOp25
 70
     1
102
RTVSPropertyOp26
 70
     1
102
RTVSPropertyOp27
 70
     1
102
RTVSPropertyOp28
 70
     1
102
RTVSPropertyOp29
 70
     1
102
RTVSPropertyOp30
 70
     1
102
RTVSPropertyOp31
 70
     1
102
RTVSPropertyOp32
 70
     1
102
RTVSPropertyOp33
 70
     1
102
RTVSPropertyOp34
 70
     1
102
RTVSPropertyOp35
 70
     1
102
RTVSPropertyOp36
 70
     1
102
RTVSPropertyOp37
 70
     1
102
RTVSPropertyOp38
 70
     1
102
RTVSPropertyOp39
 70
     1
102
RTVSPropertyOp40
 70
     1
102
RTVSPropertyOp41
 70
     1
102
RTVSPropertyOp42
 70
     1
102
RTVSPropertyOp43
 70
     1
102
RTVSPropertyOp44
 70
     1
102
RTVSPropertyOp45
 70
     1
102
RTVSPropertyOp46
 70
     1
102
RTVSPropertyOp47
 70
     1
102
RTVSPropertyOp48
 70
     1
102
RTVSPropertyOp49
 70
     1
102
RTVSPropertyOp50
 70
     1
102
RTVSPropertyOp51
 70
     0
102
RTVSPropertyOp52
 70
     0
102
RTVSPropertyOp53
 70
     1
102
RTVSPropertyOp54
 70
     1
102
RTVSPropertyOp55
 70
     1
102
RTVSPropertyOp56
 70
     1
102
RTVSPropertyOp57
 70
     1
102
RTVSPropertyOp58
 70
     1
102
RTVSPropertyOp59
 70
     1
102
RTVSPropertyOp60
 70
     1
102
RTVSPropertyOp61
 70
     1
102
RTVSPropertyOp62
 70
     1
  0
XRECORD
  5
5D8C
102
{ACAD_REACTORS
330
5D8B
102
}
330
5D8B
100
AcDbXrecord
280
     1
102
RTVSPost2010Prop28
280
     0
102
RTVSPost2010PropOp28
 70
     1
102
RTVSPost2010Prop29
280
     1
102
RTVSPost2010PropOp29
 70
     1
102
RTVSPost2010Prop30
280
     1
102
RTVSPost2010PropOp30
 70
     1
102
RTVSPost2010Prop31
280
     0
102
RTVSPost2010PropOp31
 70
     1
102
RTVSPost2010Prop32
280
     0
102
RTVSPost2010PropOp32
 70
     1
102
RTVSPost2010Prop33
280
     0
102
RTVSPost2010PropOp33
 70
     1
102
RTVSPost2010Prop34
280
     0
102
RTVSPost2010PropOp34
 70
     1
102
RTVSPost2010Prop35
280
     0
102
RTVSPost2010PropOp35
 70
     1
102
RTVSPost2010Prop36
280
     0
102
RTVSPost2010PropOp36
 70
     1
102
RTVSPost2010Prop37
 90
       50
102
RTVSPost2010PropOp37
 70
     1
102
RTVSPost2010Prop38
140
0.0
102
RTVSPost2010PropOp38
 70
     1
102
RTVSPost2010Prop39
140
1.0
102
RTVSPost2010PropOp39
 70
     1
102
RTVSPost2010Prop40
 90
        0
102
RTVSPost2010PropOp40
 70
     1
102
RTVSPost2010Prop41ColorIndex
 90
       18
102
RTVSPost2010Prop41ColorRGB
 90
        0
102
RTVSPost2010PropOp41
 70
     1
102
RTVSPost2010Prop42
 90
       50
102
RTVSPost2010PropOp42
 70
     1
102
RTVSPost2010Prop43
 90
        3
102
RTVSPost2010PropOp43
 70
     1
102
RTVSPost2010Prop44ColorIndex
 90
        5
102
RTVSPost2010Prop44ColorRGB
 90
      255
102
RTVSPost2010PropOp44
 70
     1
102
RTVSPost2010Prop45
280
     0
102
RTVSPost2010PropOp45
 70
     1
102
RTVSPost2010Prop46
 90
       50
102
RTVSPost2010PropOp46
 70
     1
102
RTVSPost2010Prop47
 90
       50
102
RTVSPost2010PropOp47
 70
     1
102
RTVSPost2010Prop48
 90
       50
102
RTVSPost2010PropOp48
 70
     1
102
RTVSPost2010Prop49
280
     0
102
RTVSPost2010PropOp49
 70
     1
102
RTVSPost2010Prop50
 90
       50
102
RTVSPost2010PropOp50
 70
     1
102
RTVSPost2010Prop51ColorIndex
 90
      256
102
RTVSPost2010Prop51ColorRGB
 90
-16777216
102
RTVSPost2010PropOp51
 70
     0
102
RTVSPost2010Prop52
140
1.0
102
RTVSPost2010PropOp52
 70
     0
102
RTVSPost2010Prop53
 90
        2
102
RTVSPost2010PropOp53
 70
     1
102
RTVSPost2010Prop54
  1
strokes_ogs.tif
102
RTVSPost2010PropOp54
 70
     1
102
RTVSPost2010Prop55
280
     0
102
RTVSPost2010PropOp55
 70
     1
102
RTVSPost2010Prop56
140
1.0
102
RTVSPost2010PropOp56
 70
     1
102
RTVSPost2010Prop57
140
1.0
102
RTVSPost2010PropOp57
 70
     1
102
RTVSPropertyOp0
 70
     1
102
RTVSPropertyOp1
 70
     1
102
RTVSPropertyOp2
 70
     1
102
RTVSPropertyOp3
 70
     1
102
RTVSPropertyOp4
 70
     1
102
RTVSPropertyOp5
 70
     1
102
RTVSPropertyOp6
 70
     1
102
RTVSPropertyOp7
 70
     1
102
RTVSPropertyOp8
 70
     1
102
RTVSPropertyOp9
 70
     1
102
RTVSPropertyOp10
 70
     1
102
RTVSPropertyOp11
 70
     1
102
RTVSPropertyOp12
 70
     1
102
RTVSPropertyOp13
 70
     1
102
RTVSPropertyOp14
 70
     1
102
RTVSPropertyOp15
 70
     1
102
RTVSPropertyOp16
 70
     1
102
RTVSPropertyOp17
 70
     1
102
RTVSPropertyOp18
 70
     1
102
RTVSPropertyOp19
 70
     1
102
RTVSPropertyOp20
 70
     1
102
RTVSPropertyOp21
 70
     1
102
RTVSPropertyOp22
 70
     1
102
RTVSPropertyOp23
 70
     1
102
RTVSPropertyOp24
 70
     1
102
RTVSPropertyOp25
 70
     1
102
RTVSPropertyOp26
 70
     1
102
RTVSPropertyOp27
 70
     1
102
RTVSPropertyOp28
 70
     1
102
RTVSPropertyOp29
 70
     1
102
RTVSPropertyOp30
 70
     1
102
RTVSPropertyOp31
 70
     1
102
RTVSPropertyOp32
 70
     1
102
RTVSPropertyOp33
 70
     1
102
RTVSPropertyOp34
 70
     1
102
RTVSPropertyOp35
 70
     1
102
RTVSPropertyOp36
 70
     1
102
RTVSPropertyOp37
 70
     1
102
RTVSPropertyOp38
 70
     1
102
RTVSPropertyOp39
 70
     1
102
RTVSPropertyOp40
 70
     1
102
RTVSPropertyOp41
 70
     1
102
RTVSPropertyOp42
 70
     1
102
RTVSPropertyOp43
 70
     1
102
RTVSPropertyOp44
 70
     1
102
RTVSPropertyOp45
 70
     1
102
RTVSPropertyOp46
 70
     1
102
RTVSPropertyOp47
 70
     1
102
RTVSPropertyOp48
 70
     1
102
RTVSPropertyOp49
 70
     1
102
RTVSPropertyOp50
 70
     1
102
RTVSPropertyOp51
 70
     0
102
RTVSPropertyOp52
 70
     0
102
RTVSPropertyOp53
 70
     1
102
RTVSPropertyOp54
 70
     1
102
RTVSPropertyOp55
 70
     1
102
RTVSPropertyOp56
 70
     1
102
RTVSPropertyOp57
 70
     1
102
RTVSPropertyOp58
 70
     1
102
RTVSPropertyOp59
 70
     1
102
RTVSPropertyOp60
 70
     1
102
RTVSPropertyOp61
 70
     1
102
RTVSPropertyOp62
 70
     1
  0
ENDSEC
  0
EOF
