  0
SECTION
  2
HEADER
  9
$ACADVER
  1
AC1015
  9
$ACADMAINTVER
 70
    18
  9
$DWGCODEPAGE
  3
ANSI_1252
  9
$INSBASE
 10
0.0
 20
0.0
 30
0.0
  9
$EXTMIN
 10
-90.08697422464251
 20
-84.02975404498835
 30
-0.0015258207003583
  9
$EXTMAX
 10
90.0613409258209
 20
90.01634261363221
 30
0.0000000349246037
  9
$LIMMIN
 10
0.0
 20
0.0
  9
$LIMMAX
 10
420.0
 20
297.0
  9
$ORTHOMODE
 70
     0
  9
$REGENMODE
 70
     1
  9
$FILLMODE
 70
     1
  9
$QTEXTMODE
 70
     0
  9
$MIRRTEXT
 70
     0
  9
$LTSCALE
 40
1.0
  9
$ATTMODE
 70
     1
  9
$TEXTSIZE
 40
2.5
  9
$TRACEWID
 40
1.0
  9
$TEXTSTYLE
  7
Standard
  9
$CLAYER
  8
0
  9
$CELTYPE
  6
ByLayer
  9
$CECOLOR
 62
   256
  9
$CELTSCALE
 40
1.0
  9
$DISPSILH
 70
     0
  9
$DIMSCALE
 40
1.0
  9
$DIMASZ
 40
2.5
  9
$DIMEXO
 40
0.625
  9
$DIMDLI
 40
3.75
  9
$DIMRND
 40
0.0
  9
$DIMDLE
 40
0.0
  9
$DIMEXE
 40
1.25
  9
$DIMTP
 40
0.0
  9
$DIMTM
 40
0.0
  9
$DIMTXT
 40
2.5
  9
$DIMCEN
 40
2.5
  9
$DIMTSZ
 40
0.0
  9
$DIMTOL
 70
     0
  9
$DIMLIM
 70
     0
  9
$DIMTIH
 70
     0
  9
$DIMTOH
 70
     0
  9
$DIMSE1
 70
     0
  9
$DIMSE2
 70
     0
  9
$DIMTAD
 70
     1
  9
$DIMZIN
 70
     8
  9
$DIMBLK
  1

  9
$DIMASO
 70
     1
  9
$DIMSHO
 70
     1
  9
$DIMPOST
  1

  9
$DIMAPOST
  1

  9
$DIMALT
 70
     0
  9
$DIMALTD
 70
     3
  9
$DIMALTF
 40
0.03937007874016
  9
$DIMLFAC
 40
1.0
  9
$DIMTOFL
 70
     1
  9
$DIMTVP
 40
0.0
  9
$DIMTIX
 70
     0
  9
$DIMSOXD
 70
     0
  9
$DIMSAH
 70
     0
  9
$DIMBLK1
  1

  9
$DIMBLK2
  1

  9
$DIMSTYLE
  2
ISO-25
  9
$DIMCLRD
 70
     0
  9
$DIMCLRE
 70
     0
  9
$DIMCLRT
 70
     0
  9
$DIMTFAC
 40
1.0
  9
$DIMGAP
 40
0.625
  9
$DIMJUST
 70
     0
  9
$DIMSD1
 70
     0
  9
$DIMSD2
 70
     0
  9
$DIMTOLJ
 70
     0
  9
$DIMTZIN
 70
     8
  9
$DIMALTZ
 70
     0
  9
$DIMALTTZ
 70
     0
  9
$DIMUPT
 70
     0
  9
$DIMDEC
 70
     2
  9
$DIMTDEC
 70
     2
  9
$DIMALTU
 70
     2
  9
$DIMALTTD
 70
     3
  9
$DIMTXSTY
  7
Standard
  9
$DIMAUNIT
 70
     0
  9
$DIMADEC
 70
     0
  9
$DIMALTRND
 40
0.0
  9
$DIMAZIN
 70
     0
  9
$DIMDSEP
 70
    44
  9
$DIMATFIT
 70
     3
  9
$DIMFRAC
 70
     0
  9
$DIMLDRBLK
  1

  9
$DIMLUNIT
 70
     2
  9
$DIMLWD
 70
    -2
  9
$DIMLWE
 70
    -2
  9
$DIMTMOVE
 70
     0
  9
$LUNITS
 70
     2
  9
$LUPREC
 70
     4
  9
$SKETCHINC
 40
1.0
  9
$FILLETRAD
 40
0.0
  9
$AUNITS
 70
     0
  9
$AUPREC
 70
     0
  9
$MENU
  1
.
  9
$ELEVATION
 40
0.0
  9
$PELEVATION
 40
0.0
  9
$THICKNESS
 40
0.0
  9
$LIMCHECK
 70
     0
  9
$CHAMFERA
 40
0.0
  9
$CHAMFERB
 40
0.0
  9
$CHAMFERC
 40
0.0
  9
$CHAMFERD
 40
0.0
  9
$SKPOLY
 70
     0
  9
$TDCREATE
 40
2460312.625706019
  9
$TDUCREATE
 40
2460312.334039352
  9
$TDUPDATE
 40
2460312.634479167
  9
$TDUUPDATE
 40
2460312.342812500
  9
$TDINDWG
 40
0.0082870370
  9
$TDUSRTIMER
 40
0.0082870370
  9
$USRTIMER
 70
     1
  9
$ANGBASE
 50
0.0
  9
$ANGDIR
 70
     0
  9
$PDMODE
 70
     0
  9
$PDSIZE
 40
0.0
  9
$PLINEWID
 40
0.0
  9
$SPLFRAME
 70
     0
  9
$SPLINETYPE
 70
     6
  9
$SPLINESEGS
 70
     8
  9
$HANDSEED
  5
24C2
  9
$SURFTAB1
 70
     6
  9
$SURFTAB2
 70
     6
  9
$SURFTYPE
 70
     6
  9
$SURFU
 70
     6
  9
$SURFV
 70
     6
  9
$UCSBASE
  2

  9
$UCSNAME
  2

  9
$UCSORG
 10
0.0
 20
0.0
 30
0.0
  9
$UCSXDIR
 10
1.0
 20
0.0
 30
0.0
  9
$UCSYDIR
 10
0.0
 20
1.0
 30
0.0
  9
$UCSORTHOREF
  2

  9
$UCSORTHOVIEW
 70
     0
  9
$UCSORGTOP
 10
0.0
 20
0.0
 30
0.0
  9
$UCSORGBOTTOM
 10
0.0
 20
0.0
 30
0.0
  9
$UCSORGLEFT
 10
0.0
 20
0.0
 30
0.0
  9
$UCSORGRIGHT
 10
0.0
 20
0.0
 30
0.0
  9
$UCSORGFRONT
 10
0.0
 20
0.0
 30
0.0
  9
$UCSORGBACK
 10
0.0
 20
0.0
 30
0.0
  9
$PUCSBASE
  2

  9
$PUCSNAME
  2

  9
$PUCSORG
 10
0.0
 20
0.0
 30
0.0
  9
$PUCSXDIR
 10
1.0
 20
0.0
 30
0.0
  9
$PUCSYDIR
 10
0.0
 20
1.0
 30
0.0
  9
$PUCSORTHOREF
  2

  9
$PUCSORTHOVIEW
 70
     0
  9
$PUCSORGTOP
 10
0.0
 20
0.0
 30
0.0
  9
$PUCSORGBOTTOM
 10
0.0
 20
0.0
 30
0.0
  9
$PUCSORGLEFT
 10
0.0
 20
0.0
 30
0.0
  9
$PUCSORGRIGHT
 10
0.0
 20
0.0
 30
0.0
  9
$PUCSORGFRONT
 10
0.0
 20
0.0
 30
0.0
  9
$PUCSORGBACK
 10
0.0
 20
0.0
 30
0.0
  9
$USERI1
 70
     0
  9
$USERI2
 70
     0
  9
$USERI3
 70
     0
  9
$USERI4
 70
     0
  9
$USERI5
 70
     0
  9
$USERR1
 40
0.0
  9
$USERR2
 40
0.0
  9
$USERR3
 40
0.0
  9
$USERR4
 40
0.0
  9
$USERR5
 40
0.0
  9
$WORLDVIEW
 70
     1
  9
$SHADEDGE
 70
     3
  9
$SHADEDIF
 70
    70
  9
$TILEMODE
 70
     1
  9
$MAXACTVP
 70
    48
  9
$PINSBASE
 10
0.0
 20
0.0
 30
0.0
  9
$PLIMCHECK
 70
     0
  9
$PEXTMIN
 10
0.0
 20
0.0
 30
0.0
  9
$PEXTMAX
 10
0.0
 20
0.0
 30
0.0
  9
$PLIMMIN
 10
0.0
 20
0.0
  9
$PLIMMAX
 10
12.0
 20
9.0
  9
$UNITMODE
 70
     0
  9
$VISRETAIN
 70
     1
  9
$PLINEGEN
 70
     0
  9
$PSLTSCALE
 70
     1
  9
$TREEDEPTH
 70
  3020
  9
$CMLSTYLE
  2
Standard
  9
$CMLJUST
 70
     0
  9
$CMLSCALE
 40
20.0
  9
$PROXYGRAPHICS
 70
     1
  9
$MEASUREMENT
 70
     1
  9
$CELWEIGHT
370
    -1
  9
$ENDCAPS
280
     0
  9
$JOINSTYLE
280
     0
  9
$LWDISPLAY
290
     0
  9
$INSUNITS
 70
     4
  9
$HYPERLINKBASE
  1

  9
$STYLESHEET
  1

  9
$XEDIT
290
     1
  9
$CEPSNTYPE
380
     0
  9
$PSTYLEMODE
290
     1
  9
$FINGERPRINTGUID
  2
{E22E2D47-196F-7340-A655-47C6E5B5DA73}
  9
$VERSIONGUID
  2
{C4DC64E7-8ED0-9E43-9351-23BEA8E07D55}
  9
$EXTNAMES
290
     1
  9
$PSVPSCALE
 40
0.0
  9
$OLESTARTUP
290
     0
  0
ENDSEC
  0
SECTION
  2
CLASSES
  0
CLASS
  1
ACDBDICTIONARYWDFLT
  2
AcDbDictionaryWithDefault
  3
ObjectDBX Classes
 90
        0
280
     0
281
     0
  0
CLASS
  1
ACDBPLACEHOLDER
  2
AcDbPlaceHolder
  3
ObjectDBX Classes
 90
        0
280
     0
281
     0
  0
CLASS
  1
LAYOUT
  2
AcDbLayout
  3
ObjectDBX Classes
 90
        0
280
     0
281
     0
  0
CLASS
  1
DICTIONARYVAR
  2
AcDbDictionaryVar
  3
ObjectDBX Classes
 90
        0
280
     0
281
     0
  0
CLASS
  1
TABLESTYLE
  2
AcDbTableStyle
  3
ObjectDBX Classes
 90
     4095
280
     0
281
     0
  0
CLASS
  1
MATERIAL
  2
AcDbMaterial
  3
ObjectDBX Classes
 90
     1153
280
     0
281
     0
  0
CLASS
  1
VISUALSTYLE
  2
AcDbVisualStyle
  3
ObjectDBX Classes
 90
     4095
280
     0
281
     0
  0
CLASS
  1
SCALE
  2
AcDbScale
  3
ObjectDBX Classes
 90
     1153
280
     0
281
     0
  0
CLASS
  1
MLEADERSTYLE
  2
AcDbMLeaderStyle
  3
ACDB_MLEADERSTYLE_CLASS
 90
     4095
280
     0
281
     0
  0
CLASS
  1
CELLSTYLEMAP
  2
AcDbCellStyleMap
  3
ObjectDBX Classes
 90
     1152
280
     0
281
     0
  0
CLASS
  1
EXACXREFPANELOBJECT
  2
ExAcXREFPanelObject
  3
EXAC_ESW
 90
    33793
280
     0
281
     0
  0
CLASS
  1
NPOCOLLECTION
  2
AcDbImpNonPersistentObjectsCollection
  3
ObjectDBX Classes
 90
    33921
280
     0
281
     0
  0
CLASS
  1
LAYER_INDEX
  2
AcDbLayerIndex
  3
ObjectDBX Classes
 90
    32768
280
     0
281
     0
  0
CLASS
  1
SPATIAL_INDEX
  2
AcDbSpatialIndex
  3
ObjectDBX Classes
 90
    32768
280
     0
281
     0
  0
CLASS
  1
IDBUFFER
  2
AcDbIdBuffer
  3
ObjectDBX Classes
 90
    32768
280
     0
281
     0
  0
CLASS
  1
ACDBSECTIONVIEWSTYLE
  2
AcDbSectionViewStyle
  3
ObjectDBX Classes
 90
     1025
280
     0
281
     0
  0
CLASS
  1
ACDBDETAILVIEWSTYLE
  2
AcDbDetailViewStyle
  3
ObjectDBX Classes
 90
     1025
280
     0
281
     0
  0
CLASS
  1
XRECORD
  2
AcDbXrecord
  3
ObjectDBX Classes
 90
        0
280
     0
281
     0
  0
ENDSEC
  0
SECTION
  2
TABLES
  0
TABLE
  2
VPORT
  5
8
102
{ACAD_XDICTIONARY
360
23D0
102
}
330
0
100
AcDbSymbolTable
 70
     1
  0
VPORT
  5
EA
330
8
100
AcDbSymbolTableRecord
100
AcDbViewportTableRecord
  2
*Active
 70
     0
 10
0.0
 20
0.0
 11
1.0
 21
1.0
 12
-0.0128166494108086
 22
2.993294284321933
 13
0.0
 23
0.0
 14
10.0
 24
10.0
 15
10.0
 25
10.0
 16
0.0
 26
0.0
 36
1.0
 17
0.0
 27
0.0
 37
0.0
 40
194.5955223242231
 41
0.9846153846153846
 42
50.0
 43
0.0
 44
0.0
 50
0.0
 51
0.0
 71
     0
 72
  1000
 73
     1
 74
     3
 75
     0
 76
     1
 77
     0
 78
     0
281
     0
 65
     1
110
0.0
120
0.0
130
0.0
111
1.0
121
0.0
131
0.0
112
0.0
122
1.0
132
0.0
 79
     0
146
0.0
1001
ACAD_NAV_VCDISPLAY
1070
     3
  0
ENDTAB
  0
TABLE
  2
LTYPE
  5
5
330
0
100
AcDbSymbolTable
 70
     1
  0
LTYPE
  5
14
330
5
100
AcDbSymbolTableRecord
100
AcDbLinetypeTableRecord
  2
ByBlock
 70
     0
  3

 72
    65
 73
     0
 40
0.0
  0
LTYPE
  5
15
330
5
100
AcDbSymbolTableRecord
100
AcDbLinetypeTableRecord
  2
ByLayer
 70
     0
  3

 72
    65
 73
     0
 40
0.0
  0
LTYPE
  5
16
330
5
100
AcDbSymbolTableRecord
100
AcDbLinetypeTableRecord
  2
Continuous
 70
     0
  3
Solid line
 72
    65
 73
     0
 40
0.0
  0
ENDTAB
  0
TABLE
  2
LAYER
  5
2
102
{ACAD_XDICTIONARY
360
1FF
102
}
330
0
100
AcDbSymbolTable
 70
     1
  0
LAYER
  5
10
102
{ACAD_XDICTIONARY
360
13C
102
}
330
2
100
AcDbSymbolTableRecord
100
AcDbLayerTableRecord
  2
0
 70
     0
 62
     7
  6
Continuous
370
    -3
390
F
  0
ENDTAB
  0
TABLE
  2
STYLE
  5
3
330
0
100
AcDbSymbolTable
 70
     1
  0
STYLE
  5
11
330
3
100
AcDbSymbolTableRecord
100
AcDbTextStyleTableRecord
  2
Standard
 70
     0
 40
0.0
 41
1.0
 50
0.0
 71
     0
 42
2.5
  3
arial.ttf
  4

1001
ACAD
1000
Arial
1071
       34
  0
ENDTAB
  0
TABLE
  2
VIEW
  5
6
330
0
100
AcDbSymbolTable
 70
     0
  0
ENDTAB
  0
TABLE
  2
UCS
  5
7
330
0
100
AcDbSymbolTable
 70
     0
  0
ENDTAB
  0
TABLE
  2
APPID
  5
9
330
0
100
AcDbSymbolTable
 70
     8
  0
APPID
  5
12
330
9
100
AcDbSymbolTableRecord
100
AcDbRegAppTableRecord
  2
ACAD
 70
     0
  0
APPID
  5
9E
330
9
100
AcDbSymbolTableRecord
100
AcDbRegAppTableRecord
  2
ACAD_PSEXT
 70
     0
  0
APPID
  5
133
330
9
100
AcDbSymbolTableRecord
100
AcDbRegAppTableRecord
  2
AcadAnnoPO
 70
     0
  0
APPID
  5
134
330
9
100
AcDbSymbolTableRecord
100
AcDbRegAppTableRecord
  2
AcadAnnotative
 70
     0
  0
APPID
  5
135
330
9
100
AcDbSymbolTableRecord
100
AcDbRegAppTableRecord
  2
ACAD_DSTYLE_DIMJAG
 70
     0
  0
APPID
  5
136
330
9
100
AcDbSymbolTableRecord
100
AcDbRegAppTableRecord
  2
ACAD_DSTYLE_DIMTALN
 70
     0
  0
APPID
  5
165
330
9
100
AcDbSymbolTableRecord
100
AcDbRegAppTableRecord
  2
ACAD_MLEADERVER
 70
     0
  0
APPID
  5
217
330
9
100
AcDbSymbolTableRecord
100
AcDbRegAppTableRecord
  2
ACAD_NAV_VCDISPLAY
 70
     0
  0
ENDTAB
  0
TABLE
  2
DIMSTYLE
  5
A
330
0
100
AcDbSymbolTable
 70
     1
100
AcDbDimStyleTable
 71
     0
  0
DIMSTYLE
105
27
330
A
100
AcDbSymbolTableRecord
100
AcDbDimStyleTableRecord
  2
ISO-25
 70
     0
 41
2.5
 42
0.625
 43
3.75
 44
1.25
 73
     0
 74
     0
 77
     1
 78
     8
140
2.5
141
2.5
143
0.03937007874016
147
0.625
171
     3
172
     1
271
     2
272
     2
274
     3
278
    44
283
     0
284
     8
340
11
  0
ENDTAB
  0
TABLE
  2
BLOCK_RECORD
  5
1
330
0
100
AcDbSymbolTable
 70
     7
  0
BLOCK_RECORD
  5
1F
102
{ACAD_XDICTIONARY
360
1CE
102
}
330
1
100
AcDbSymbolTableRecord
100
AcDbBlockTableRecord
  2
*Model_Space
340
22
  0
BLOCK_RECORD
  5
D2
102
{ACAD_XDICTIONARY
360
2383
102
}
330
1
100
AcDbSymbolTableRecord
100
AcDbBlockTableRecord
  2
*Paper_Space
340
D3
  0
BLOCK_RECORD
  5
D6
102
{ACAD_XDICTIONARY
360
2385
102
}
330
1
100
AcDbSymbolTableRecord
100
AcDbBlockTableRecord
  2
*Paper_Space0
340
D7
  0
BLOCK_RECORD
  5
229E
330
1
100
AcDbSymbolTableRecord
100
AcDbBlockTableRecord
  2
CCS50-C-Front
340
0
102
{BLKREFS
331
2379
102
}
  0
BLOCK_RECORD
  5
22B3
330
1
100
AcDbSymbolTableRecord
100
AcDbBlockTableRecord
  2
CCS50-C-Left
340
0
102
{BLKREFS
331
237A
102
}
  0
BLOCK_RECORD
  5
22C8
330
1
100
AcDbSymbolTableRecord
100
AcDbBlockTableRecord
  2
CCS50-C-Right
340
0
102
{BLKREFS
331
237B
102
}
  0
BLOCK_RECORD
  5
22DD
330
1
100
AcDbSymbolTableRecord
100
AcDbBlockTableRecord
  2
CCS50-C-Top
340
0
102
{BLKREFS
331
237C
102
}
  0
BLOCK_RECORD
  5
2325
330
1
100
AcDbSymbolTableRecord
100
AcDbBlockTableRecord
  2
CCS50-C-Bottom
340
0
102
{BLKREFS
331
237D
102
}
  0
BLOCK_RECORD
  5
232C
330
1
100
AcDbSymbolTableRecord
100
AcDbBlockTableRecord
  2
CCS50-C-ISO
340
0
102
{BLKREFS
331
237E
102
}
  0
ENDTAB
  0
ENDSEC
  0
SECTION
  2
BLOCKS
  0
BLOCK
  5
20
330
1F
100
AcDbEntity
  8
0
100
AcDbBlockBegin
  2
*Model_Space
 70
     0
 10
0.0
 20
0.0
 30
0.0
  3
*Model_Space
  1

  0
ENDBLK
  5
21
330
1F
100
AcDbEntity
  8
0
100
AcDbBlockEnd
  0
BLOCK
  5
D4
330
D2
100
AcDbEntity
 67
     1
  8
0
100
AcDbBlockBegin
  2
*Paper_Space
 70
     0
 10
0.0
 20
0.0
 30
0.0
  3
*Paper_Space
  1

  0
ENDBLK
  5
D5
330
D2
100
AcDbEntity
 67
     1
  8
0
100
AcDbBlockEnd
  0
BLOCK
  5
D8
330
D6
100
AcDbEntity
 67
     1
  8
0
100
AcDbBlockBegin
  2
*Paper_Space0
 70
     0
 10
0.0
 20
0.0
 30
0.0
  3
*Paper_Space0
  1

  0
ENDBLK
  5
D9
330
D6
100
AcDbEntity
 67
     1
  8
0
100
AcDbBlockEnd
  0
BLOCK
  5
229F
330
229E
100
AcDbEntity
  8
0
100
AcDbBlockBegin
  2
CCS50-C-Front
 70
     0
 10
0.0
 20
0.0
 30
0.0
  3
CCS50-C-Front
  1

  0
SPLINE
  5
22A1
330
229E
100
AcDbEntity
  8
0
100
AcDbSpline
210
0.0
220
0.0
230
1.0
 70
     8
 71
     3
 72
    16
 73
    12
 74
     0
 42
0.000000001
 43
0.0000000001
 40
0.0
 40
0.0
 40
0.0
 40
0.0
 40
0.1681536209276028
 40
0.1681536209276028
 40
0.3363072418552055
 40
0.3363072418552055
 40
0.4746035505907682
 40
0.4746035505907682
 40
0.5437517049585496
 40
0.5437517049585496
 40
0.6128998593263308
 40
0.6128998593263308
 40
0.6128998593263314
 40
0.6128998593263314
 10
-24.78792264333466
 20
10.37365444825031
 30
0.0
 10
-24.78792264333466
 20
9.813142378491635
 30
0.0
 10
-24.79826218284696
 20
9.205137286959393
 30
0.0
 10
-24.83728945059365
 20
8.040508644104773
 30
0.0
 10
-24.86564507152144
 20
7.483741928970749
 30
0.0
 10
-24.91772794493887
 20
6.633776648678364
 30
0.0
 10
-24.9448252861821
 20
6.258673735791765
 30
0.0
 10
-24.97599595254991
 20
5.857361981481473
 30
0.0
 10
-24.98476605216858
 20
5.749711402423919
 30
0.0
 10
-24.99681565246242
 20
5.60365150321212
 30
0.0
 10
-25.00007279708942
 20
5.565310216782989
 30
0.0
 10
-25.00007279708942
 20
5.565310216782989
 30
0.0
  0
SPLINE
  5
22A2
330
229E
100
AcDbEntity
  8
0
100
AcDbSpline
210
0.0
220
0.0
230
1.0
 70
     8
 71
     3
 72
    14
 73
    10
 74
     0
 42
0.000000001
 43
0.0000000001
 40
1.806809166939553
 40
1.806809166939553
 40
1.806809166939554
 40
1.806809166939554
 40
1.926864863347212
 40
1.926864863347212
 40
2.046920559754871
 40
2.046920559754871
 40
2.217369587490659
 40
2.217369587490659
 40
2.387818615226446
 40
2.387818615226446
 40
2.387818615226446
 40
2.387818615226446
 10
-25.00007279708942
 20
14.75769837220811
 30
0.0
 10
-25.00007279708942
 20
14.75769837220811
 30
0.0
 10
-24.98951094398805
 20
14.65673054571922
 30
0.0
 10
-24.95367158762294
 20
14.27390640553576
 30
0.0
 10
-24.92905854009807
 20
13.99272891084554
 30
0.0
 10
-24.87461465400629
 20
13.25737720631124
 30
0.0
 10
-24.84216162148108
 20
12.71599056275076
 30
0.0
 10
-24.79870098878425
 20
11.55817680733172
 30
0.0
 10
-24.78792264333466
 20
10.94181787403627
 30
0.0
 10
-24.78792264333466
 20
10.37365444825031
 30
0.0
  0
SPLINE
  5
22A3
330
229E
100
AcDbEntity
  8
0
100
AcDbSpline
210
0.0
220
0.0
230
1.0
 70
    11
 71
     3
 72
    42
 73
    38
 74
     0
 42
0.000000001
 43
0.0000000001
 40
0.0
 40
0.0
 40
0.0
 40
0.0
 40
0.1681536209276026
 40
0.1681536209276026
 40
0.3363072418552052
 40
0.3363072418552052
 40
0.4746035505907681
 40
0.4746035505907681
 40
0.5437517049585495
 40
0.5437517049585495
 40
0.6128998593263308
 40
0.6128998593263308
 40
0.6820480136941124
 40
0.6820480136941124
 40
0.7511961680618937
 40
0.7511961680618937
 40
0.8894924767974567
 40
0.8894924767974567
 40
1.057646097725059
 40
1.057646097725059
 40
1.225799718652661
 40
1.225799718652661
 40
1.396248746388449
 40
1.396248746388449
 40
1.566697774124236
 40
1.566697774124236
 40
1.686753470531895
 40
1.686753470531895
 40
1.806809166939554
 40
1.806809166939554
 40
1.926864863347213
 40
1.926864863347213
 40
2.046920559754872
 40
2.046920559754872
 40
2.217369587490659
 40
2.217369587490659
 40
2.387818615226446
 40
2.387818615226446
 40
2.387818615226446
 40
2.387818615226446
 10
-15.22963247554705
 20
10.37365444825031
 30
0.0
 10
-15.22963247554705
 20
9.813142378491631
 30
0.0
 10
-15.29049075452302
 20
9.205137286959391
 30
0.0
 10
-15.5453524955024
 20
8.040508644104772
 30
0.0
 10
-15.73878261597088
 20
7.483741928970745
 30
0.0
 10
-16.1745519723855
 20
6.63377664867836
 30
0.0
 10
-16.43119208966811
 20
6.25867373579176
 30
0.0
 10
-16.8725414908846
 20
5.857361981481467
 30
0.0
 10
-17.0289553250247
 20
5.749711402423916
 30
0.0
 10
-17.35006360390649
 20
5.603651503212119
 30
0.0
 10
-17.51475856388645
 20
5.56531021678298
 30
0.0
 10
-17.84072608961974
 20
5.56531021678298
 30
0.0
 10
-18.00081475149358
 20
5.60365150321212
 30
0.0
 10
-18.30488232221865
 20
5.749711402423919
 30
0.0
 10
-18.44889336253465
 20
5.85736198148147
 30
0.0
 10
-18.84616078462557
 20
6.258673735791763
 30
0.0
 10
-19.06447947441777
 20
6.633776648678364
 30
0.0
 10
-19.4265925248781
 20
7.483741928970749
 30
0.0
 10
-19.579921741661
 20
8.040508644104773
 30
0.0
 10
-19.77959059129064
 20
9.205137286959393
 30
0.0
 10
-19.82582655325962
 20
9.813142378491633
 30
0.0
 10
-19.82582655325962
 20
10.94181787403626
 30
0.0
 10
-19.77823028258155
 20
11.55817680733171
 30
0.0
 10
-19.55399565956641
 20
12.71599056275076
 30
0.0
 10
-19.37702091726862
 20
13.25737720631124
 30
0.0
 10
-18.97167530019181
 20
13.99272891084554
 30
0.0
 10
-18.75374158126349
 20
14.27390640553575
 30
0.0
 10
-18.24863058498926
 20
14.65673054571921
 30
0.0
 10
-17.96071631691953
 20
14.7576983722081
 30
0.0
 10
-17.39476833658667
 20
14.7576983722081
 30
0.0
 10
-17.09191735261719
 20
14.65673054571921
 30
0.0
 10
-16.53612185250469
 20
14.27390640553575
 30
0.0
 10
-16.28338002795536
 20
13.99272891084554
 30
0.0
 10
-15.80103912877926
 20
13.25737720631124
 30
0.0
 10
-15.57816886774419
 20
12.71599056275076
 30
0.0
 10
-15.29247162853987
 20
11.55817680733172
 30
0.0
 10
-15.22963247554705
 20
10.94181787403627
 30
0.0
 10
-15.22963247554705
 20
10.37365444825031
 30
0.0
  0
SPLINE
  5
22A4
330
229E
100
AcDbEntity
  8
0
100
AcDbSpline
210
0.0
220
0.0
230
1.0
 70
    11
 71
     3
 72
    42
 73
    38
 74
     0
 42
0.000000001
 43
0.0000000001
 40
0.0
 40
0.0
 40
0.0
 40
0.0
 40
0.1681536209276028
 40
0.1681536209276028
 40
0.3363072418552055
 40
0.3363072418552055
 40
0.4746035505907682
 40
0.4746035505907682
 40
0.5437517049585496
 40
0.5437517049585496
 40
0.6128998593263308
 40
0.6128998593263308
 40
0.6820480136941122
 40
0.6820480136941122
 40
0.7511961680618935
 40
0.7511961680618935
 40
0.8894924767974561
 40
0.8894924767974561
 40
1.057646097725058
 40
1.057646097725058
 40
1.225799718652661
 40
1.225799718652661
 40
1.396248746388448
 40
1.396248746388448
 40
1.566697774124236
 40
1.566697774124236
 40
1.686753470531895
 40
1.686753470531895
 40
1.806809166939554
 40
1.806809166939554
 40
1.926864863347212
 40
1.926864863347212
 40
2.046920559754871
 40
2.046920559754871
 40
2.217369587490659
 40
2.217369587490659
 40
2.387818615226446
 40
2.387818615226446
 40
2.387818615226446
 40
2.387818615226446
 10
3.249927202910598
 20
10.3736544482503
 30
0.0
 10
3.249927202910598
 20
9.813142378491628
 30
0.0
 10
3.174200138912407
 20
9.205137286959386
 30
0.0
 10
2.852798476036038
 20
8.040508644104768
 30
0.0
 10
2.607602597225834
 20
7.483741928970743
 30
0.0
 10
2.043414536735112
 20
6.633776648678359
 30
0.0
 10
1.707567943468239
 20
6.258673735791759
 30
0.0
 10
1.114576300890452
 20
5.857361981481466
 30
0.0
 10
0.9021438349254299
 20
5.749711402423914
 30
0.0
 10
0.4600777522343563
 20
5.603651503212114
 30
0.0
 10
0.230421050803199
 20
5.565310216782983
 30
0.0
 10
-0.2305666449820099
 20
5.565310216782983
 30
0.0
 10
-0.4602233464131674
 20
5.603651503212114
 30
0.0
 10
-0.9022894291042412
 20
5.749711402423914
 30
0.0
 10
-1.114721895069264
 20
5.857361981481466
 30
0.0
 10
-1.70771353764705
 20
6.258673735791759
 30
0.0
 10
-2.043560130913923
 20
6.633776648678359
 30
0.0
 10
-2.607748191404644
 20
7.483741928970744
 30
0.0
 10
-2.852944070214847
 20
8.040508644104768
 30
0.0
 10
-3.174345733091215
 20
9.20513728695939
 30
0.0
 10
-3.250072797089406
 20
9.81314237849163
 30
0.0
 10
-3.250072797089406
 20
10.94181787403626
 30
0.0
 10
-3.171983160128516
 20
11.55817680733171
 30
0.0
 10
-2.811406882410043
 20
12.71599056275075
 30
0.0
 10
-2.528673769129829
 20
13.25737720631124
 30
0.0
 10
-1.900984613919532
 20
13.99272891084553
 30
0.0
 10
-1.568166745387822
 20
14.27390640553575
 30
0.0
 10
-0.8179925675879029
 20
14.65673054571921
 30
0.0
 10
-0.4002584517816005
 20
14.7576983722081
 30
0.0
 10
0.4001128576027925
 20
14.7576983722081
 30
0.0
 10
0.8178469734090963
 20
14.65673054571921
 30
0.0
 10
1.568021151209015
 20
14.27390640553575
 30
0.0
 10
1.900839019740723
 20
13.99272891084553
 30
0.0
 10
2.528528174951021
 20
13.25737720631124
 30
0.0
 10
2.811261288231234
 20
12.71599056275075
 30
0.0
 10
3.171837565949707
 20
11.55817680733171
 30
0.0
 10
3.249927202910598
 20
10.94181787403626
 30
0.0
 10
3.249927202910598
 20
10.3736544482503
 30
0.0
  0
SPLINE
  5
22A5
330
229E
100
AcDbEntity
  8
0
100
AcDbSpline
210
0.0
220
0.0
230
1.0
 70
    11
 71
     3
 72
    42
 73
    38
 74
     0
 42
0.000000001
 43
0.0000000001
 40
0.0
 40
0.0
 40
0.0
 40
0.0
 40
0.1681536209276026
 40
0.1681536209276026
 40
0.3363072418552052
 40
0.3363072418552052
 40
0.4746035505907681
 40
0.4746035505907681
 40
0.5437517049585495
 40
0.5437517049585495
 40
0.6128998593263308
 40
0.6128998593263308
 40
0.6820480136941124
 40
0.6820480136941124
 40
0.7511961680618937
 40
0.7511961680618937
 40
0.8894924767974567
 40
0.8894924767974567
 40
1.057646097725059
 40
1.057646097725059
 40
1.225799718652661
 40
1.225799718652661
 40
1.396248746388449
 40
1.396248746388449
 40
1.566697774124236
 40
1.566697774124236
 40
1.686753470531895
 40
1.686753470531895
 40
1.806809166939554
 40
1.806809166939554
 40
1.926864863347213
 40
1.926864863347213
 40
2.046920559754872
 40
2.046920559754872
 40
2.217369587490659
 40
2.217369587490659
 40
2.387818615226446
 40
2.387818615226446
 40
2.387818615226446
 40
2.387818615226446
 10
19.8256809590808
 20
10.3736544482503
 30
0.0
 10
19.8256809590808
 20
9.813142378491622
 30
0.0
 10
19.77944499711182
 20
9.205137286959384
 30
0.0
 10
19.57977614748218
 20
8.040508644104763
 30
0.0
 10
19.42644693069928
 20
7.483741928970738
 30
0.0
 10
19.06433388023896
 20
6.633776648678352
 30
0.0
 10
18.84601519044675
 20
6.258673735791752
 30
0.0
 10
18.44874776835584
 20
5.85736198148146
 30
0.0
 10
18.30473672803984
 20
5.749711402423908
 30
0.0
 10
18.00066915731477
 20
5.603651503212111
 30
0.0
 10
17.84058049544092
 20
5.565310216782971
 30
0.0
 10
17.51461296970764
 20
5.565310216782971
 30
0.0
 10
17.34991800972768
 20
5.603651503212113
 30
0.0
 10
17.02880973084589
 20
5.749711402423911
 30
0.0
 10
16.87239589670579
 20
5.857361981481462
 30
0.0
 10
16.4310464954893
 20
6.258673735791755
 30
0.0
 10
16.17440637820669
 20
6.633776648678356
 30
0.0
 10
15.73863702179206
 20
7.483741928970742
 30
0.0
 10
15.54520690132358
 20
8.040508644104766
 30
0.0
 10
15.2903451603442
 20
9.205137286959386
 30
0.0
 10
15.22948688136824
 20
9.813142378491624
 30
0.0
 10
15.22948688136824
 20
10.94181787403625
 30
0.0
 10
15.29232603436106
 20
11.55817680733171
 30
0.0
 10
15.57802327356538
 20
12.71599056275075
 30
0.0
 10
15.80089353460045
 20
13.25737720631123
 30
0.0
 10
16.28323443377656
 20
13.99272891084553
 30
0.0
 10
16.53597625832588
 20
14.27390640553575
 30
0.0
 10
17.09177175843838
 20
14.6567305457192
 30
0.0
 10
17.39462274240785
 20
14.75769837220809
 30
0.0
 10
17.96057072274071
 20
14.75769837220809
 30
0.0
 10
18.24848499081045
 20
14.6567305457192
 30
0.0
 10
18.75359598708468
 20
14.27390640553574
 30
0.0
 10
18.971529706013
 20
13.99272891084553
 30
0.0
 10
19.37687532308981
 20
13.25737720631123
 30
0.0
 10
19.55385006538759
 20
12.71599056275075
 30
0.0
 10
19.77808468840273
 20
11.55817680733171
 30
0.0
 10
19.8256809590808
 20
10.94181787403626
 30
0.0
 10
19.8256809590808
 20
10.3736544482503
 30
0.0
  0
SPLINE
  5
22A6
330
229E
100
AcDbEntity
  8
0
100
AcDbSpline
210
0.0
220
0.0
230
1.0
 70
     8
 71
     3
 72
    24
 73
    20
 74
     0
 42
0.000000001
 43
0.0000000001
 40
0.6128998593263308
 40
0.6128998593263308
 40
0.612899859326971
 40
0.612899859326971
 40
0.6820480136941122
 40
0.6820480136941122
 40
0.7511961680618935
 40
0.7511961680618935
 40
0.8894924767974561
 40
0.8894924767974561
 40
1.057646097725058
 40
1.057646097725058
 40
1.225799718652661
 40
1.225799718652661
 40
1.396248746388448
 40
1.396248746388448
 40
1.566697774124236
 40
1.566697774124236
 40
1.686753470531895
 40
1.686753470531895
 40
1.806809166939068
 40
1.806809166939068
 40
1.806809166939554
 40
1.806809166939554
 10
24.99992720291058
 20
5.565310216782977
 30
0.0
 10
24.99992720291053
 20
5.565310216783688
 30
0.0
 10
24.99667005828352
 20
5.60365150321279
 30
0.0
 10
24.98462045798974
 20
5.749711402423914
 30
0.0
 10
24.97585035837107
 20
5.857361981481457
 30
0.0
 10
24.94467969200325
 20
6.258673735791751
 30
0.0
 10
24.91758235076003
 20
6.633776648678352
 30
0.0
 10
24.8654994773426
 20
7.483741928970736
 30
0.0
 10
24.83714385641481
 20
8.040508644104761
 30
0.0
 10
24.79811658866812
 20
9.205137286959384
 30
0.0
 10
24.78777704915582
 20
9.813142378491622
 30
0.0
 10
24.78777704915583
 20
10.94181787403626
 30
0.0
 10
24.79855539460543
 20
11.55817680733171
 30
0.0
 10
24.84201602730225
 20
12.71599056275075
 30
0.0
 10
24.87446905982746
 20
13.25737720631123
 30
0.0
 10
24.92891294591924
 20
13.99272891084553
 30
0.0
 10
24.95352599344411
 20
14.27390640553574
 30
0.0
 10
24.98936534980915
 20
14.65673054571843
 30
0.0
 10
24.99992720291051
 20
14.75769837220728
 30
0.0
 10
24.99992720291059
 20
14.75769837220809
 30
0.0
  0
LINE
  5
22A7
330
229E
100
AcDbEntity
  8
0
100
AcDbLine
 10
-25.00007279708942
 20
1.000000000000009
 30
0.0
 11
24.99992720291058
 21
0.9999999999999985
 31
0.0
  0
LINE
  5
22A8
330
229E
100
AcDbEntity
  8
0
100
AcDbLine
 10
23.99992720291058
 20
0.0
 30
0.0
 11
-24.00007279708942
 21
0.0
 31
0.0
  0
LINE
  5
22A9
330
229E
100
AcDbEntity
  8
0
100
AcDbLine
 10
24.99992720291059
 20
24.0
 30
0.0
 11
-25.00007279708941
 21
24.00000000000001
 31
0.0
  0
LINE
  5
22AA
330
229E
100
AcDbEntity
  8
0
100
AcDbLine
 10
-24.00007279708941
 20
25.00000000000001
 30
0.0
 11
23.99992720291059
 21
25.0
 31
0.0
  0
LINE
  5
22AB
330
229E
100
AcDbEntity
  8
0
100
AcDbLine
 10
-24.00007279708942
 20
0.0
 30
0.0
 11
-25.00007279708942
 21
1.000000000000008
 31
0.0
  0
LINE
  5
22AC
330
229E
100
AcDbEntity
  8
0
100
AcDbLine
 10
23.99992720291058
 20
0.0
 30
0.0
 11
24.99992720291058
 21
0.9999999999999975
 31
0.0
  0
LINE
  5
22AD
330
229E
100
AcDbEntity
  8
0
100
AcDbLine
 10
23.99992720291059
 20
25.0
 30
0.0
 11
24.99992720291059
 21
24.0
 31
0.0
  0
LINE
  5
22AE
330
229E
100
AcDbEntity
  8
0
100
AcDbLine
 10
-24.00007279708942
 20
25.00000000000001
 30
0.0
 11
-25.00007279708942
 21
24.00000000000002
 31
0.0
  0
LINE
  5
22AF
330
229E
100
AcDbEntity
  8
0
100
AcDbLine
 10
24.99992720291059
 20
24.0
 30
0.0
 11
24.99992720291059
 21
14.7576983722081
 31
0.0
  0
LINE
  5
22B0
330
229E
100
AcDbEntity
  8
0
100
AcDbLine
 10
24.99992720291058
 20
5.565310216782979
 30
0.0
 11
24.99992720291058
 21
0.9999999999999998
 31
0.0
  0
LINE
  5
22B1
330
229E
100
AcDbEntity
  8
0
100
AcDbLine
 10
-25.00007279708942
 20
24.00000000000001
 30
0.0
 11
-25.00007279708942
 21
14.75769837220811
 31
0.0
  0
LINE
  5
22B2
330
229E
100
AcDbEntity
  8
0
100
AcDbLine
 10
-25.00007279708942
 20
5.565310216782989
 30
0.0
 11
-25.00007279708942
 21
1.00000000000001
 31
0.0
  0
ENDBLK
  5
22A0
330
229E
100
AcDbEntity
  8
0
100
AcDbBlockEnd
  0
BLOCK
  5
22B4
330
22B3
100
AcDbEntity
  8
0
100
AcDbBlockBegin
  2
CCS50-C-Left
 70
     0
 10
0.0
 20
0.0
 30
0.0
  3
CCS50-C-Left
  1

  0
SPLINE
  5
22B6
330
22B3
100
AcDbEntity
  8
0
100
AcDbSpline
210
0.0
220
0.0
230
1.0
 70
    11
 71
     3
 72
    42
 73
    38
 74
     0
 42
0.000000001
 43
0.0000000001
 40
0.0
 40
0.0
 40
0.0
 40
0.0
 40
0.1836502141607879
 40
0.1836502141607879
 40
0.3673004283215758
 40
0.3673004283215758
 40
0.4896035466913338
 40
0.4896035466913338
 40
0.5507551058762128
 40
0.5507551058762128
 40
0.6119066650610918
 40
0.6119066650610918
 40
0.6730582242459709
 40
0.6730582242459709
 40
0.7342097834308499
 40
0.7342097834308499
 40
0.856512901800608
 40
0.856512901800608
 40
1.040163115961396
 40
1.040163115961396
 40
1.223813330122184
 40
1.223813330122184
 40
1.394262357857971
 40
1.394262357857971
 40
1.564711385593759
 40
1.564711385593759
 40
1.684767082001418
 40
1.684767082001418
 40
1.804822778409076
 40
1.804822778409076
 40
1.924878474816735
 40
1.924878474816735
 40
2.044934171224394
 40
2.044934171224394
 40
2.215383198960182
 40
2.215383198960182
 40
2.385832226695969
 40
2.385832226695969
 40
2.385832226695969
 40
2.385832226695969
 10
-15.22948688136822
 20
10.3736544482503
 30
0.0
 10
-15.22948688136822
 20
9.761487067714343
 30
0.0
 10
-15.30188170625846
 20
9.099252231673784
 30
0.0
 10
-15.60321688180499
 20
7.84310002393936
 30
0.0
 10
-15.83089873277609
 20
7.248758001306608
 30
0.0
 10
-16.307465754498
 20
6.441638393106331
 30
0.0
 10
-16.54892023658629
 20
6.129854557131022
 30
0.0
 10
-16.95444348047554
 20
5.800456917003863
 30
0.0
 10
-17.09680349544568
 20
5.713016091146904
 30
0.0
 10
-17.38631013999056
 20
5.595404933585825
 30
0.0
 10
-17.5334611253084
 20
5.56531021678298
 30
0.0
 10
-17.82173233984012
 20
5.56531021678298
 30
0.0
 10
-17.96527296656076
 20
5.595404933585824
 30
0.0
 10
-18.24100121397943
 20
5.713016091146902
 30
0.0
 10
-18.37321650871507
 20
5.80045691700386
 30
0.0
 10
-18.74197493652188
 20
6.129854557131021
 30
0.0
 10
-18.9505548819936
 20
6.441638393106327
 30
0.0
 10
-19.35245598583858
 20
7.248758001306607
 30
0.0
 10
-19.53384864752502
 20
7.843100023939364
 30
0.0
 10
-19.77078768156824
 20
9.099252231673787
 30
0.0
 10
-19.82568095908078
 20
9.761487067714346
 30
0.0
 10
-19.82568095908078
 20
10.94181787403626
 30
0.0
 10
-19.77808468840272
 20
11.55817680733171
 30
0.0
 10
-19.55385006538757
 20
12.71599056275076
 30
0.0
 10
-19.37687532308979
 20
13.25737720631124
 30
0.0
 10
-18.97152970601298
 20
13.99272891084554
 30
0.0
 10
-18.75359598708466
 20
14.27390640553575
 30
0.0
 10
-18.24848499081043
 20
14.65673054571921
 30
0.0
 10
-17.96057072274069
 20
14.7576983722081
 30
0.0
 10
-17.39462274240783
 20
14.7576983722081
 30
0.0
 10
-17.09177175843835
 20
14.65673054571921
 30
0.0
 10
-16.53597625832586
 20
14.27390640553576
 30
0.0
 10
-16.28323443377654
 20
13.99272891084554
 30
0.0
 10
-15.80089353460043
 20
13.25737720631124
 30
0.0
 10
-15.57802327356536
 20
12.71599056275075
 30
0.0
 10
-15.29232603436104
 20
11.55817680733171
 30
0.0
 10
-15.22948688136822
 20
10.94181787403626
 30
0.0
 10
-15.22948688136822
 20
10.3736544482503
 30
0.0
  0
SPLINE
  5
22B7
330
22B3
100
AcDbEntity
  8
0
100
AcDbSpline
210
0.0
220
0.0
230
1.0
 70
    11
 71
     3
 72
    42
 73
    38
 74
     0
 42
0.000000001
 43
0.0000000001
 40
0.0
 40
0.0
 40
0.0
 40
0.0
 40
0.1681536209276028
 40
0.1681536209276028
 40
0.3363072418552055
 40
0.3363072418552055
 40
0.4746035505907682
 40
0.4746035505907682
 40
0.5437517049585496
 40
0.5437517049585496
 40
0.6128998593263308
 40
0.6128998593263308
 40
0.6820480136941122
 40
0.6820480136941122
 40
0.7511961680618935
 40
0.7511961680618935
 40
0.8894924767974561
 40
0.8894924767974561
 40
1.057646097725058
 40
1.057646097725058
 40
1.225799718652661
 40
1.225799718652661
 40
1.396248746388448
 40
1.396248746388448
 40
1.566697774124236
 40
1.566697774124236
 40
1.686753470531895
 40
1.686753470531895
 40
1.806809166939554
 40
1.806809166939554
 40
1.926864863347212
 40
1.926864863347212
 40
2.046920559754871
 40
2.046920559754871
 40
2.217369587490659
 40
2.217369587490659
 40
2.387818615226446
 40
2.387818615226446
 40
2.387818615226446
 40
2.387818615226446
 10
3.250072797089429
 20
10.37365444825031
 30
0.0
 10
3.250072797089429
 20
9.813142378491635
 30
0.0
 10
3.174345733091239
 20
9.205137286959393
 30
0.0
 10
2.85294407021487
 20
8.040508644104773
 30
0.0
 10
2.607748191404666
 20
7.483741928970749
 30
0.0
 10
2.043560130913944
 20
6.633776648678364
 30
0.0
 10
1.707713537647071
 20
6.258673735791765
 30
0.0
 10
1.114721895069285
 20
5.857361981481473
 30
0.0
 10
0.9022894291042625
 20
5.749711402423919
 30
0.0
 10
0.4602233464131888
 20
5.60365150321212
 30
0.0
 10
0.2305666449820313
 20
5.565310216782989
 30
0.0
 10
-0.2304210508031775
 20
5.565310216782989
 30
0.0
 10
-0.460077752234335
 20
5.60365150321212
 30
0.0
 10
-0.9021438349254086
 20
5.749711402423919
 30
0.0
 10
-1.114576300890431
 20
5.857361981481473
 30
0.0
 10
-1.707567943468218
 20
6.258673735791765
 30
0.0
 10
-2.04341453673509
 20
6.633776648678364
 30
0.0
 10
-2.607602597225813
 20
7.483741928970748
 30
0.0
 10
-2.852798476036015
 20
8.040508644104773
 30
0.0
 10
-3.174200138912384
 20
9.205137286959395
 30
0.0
 10
-3.249927202910575
 20
9.813142378491635
 30
0.0
 10
-3.249927202910575
 20
10.94181787403627
 30
0.0
 10
-3.171837565949685
 20
11.55817680733172
 30
0.0
 10
-2.811261288231212
 20
12.71599056275076
 30
0.0
 10
-2.528528174950998
 20
13.25737720631124
 30
0.0
 10
-1.900839019740701
 20
13.99272891084554
 30
0.0
 10
-1.568021151208992
 20
14.27390640553575
 30
0.0
 10
-0.8178469734090725
 20
14.65673054571921
 30
0.0
 10
-0.4001128576027701
 20
14.75769837220811
 30
0.0
 10
0.4002584517816228
 20
14.75769837220811
 30
0.0
 10
0.8179925675879267
 20
14.65673054571922
 30
0.0
 10
1.568166745387846
 20
14.27390640553576
 30
0.0
 10
1.900984613919554
 20
13.99272891084554
 30
0.0
 10
2.528673769129852
 20
13.25737720631124
 30
0.0
 10
2.811406882410065
 20
12.71599056275076
 30
0.0
 10
3.171983160128537
 20
11.55817680733172
 30
0.0
 10
3.250072797089429
 20
10.94181787403627
 30
0.0
 10
3.250072797089429
 20
10.37365444825031
 30
0.0
  0
SPLINE
  5
22B8
330
22B3
100
AcDbEntity
  8
0
100
AcDbSpline
210
0.0
220
0.0
230
1.0
 70
    11
 71
     3
 72
    42
 73
    38
 74
     0
 42
0.000000001
 43
0.0000000001
 40
0.0
 40
0.0
 40
0.0
 40
0.0
 40
0.1681536209276026
 40
0.1681536209276026
 40
0.3363072418552052
 40
0.3363072418552052
 40
0.4746035505907681
 40
0.4746035505907681
 40
0.5437517049585495
 40
0.5437517049585495
 40
0.6128998593263308
 40
0.6128998593263308
 40
0.6820480136941124
 40
0.6820480136941124
 40
0.7511961680618937
 40
0.7511961680618937
 40
0.8894924767974567
 40
0.8894924767974567
 40
1.057646097725059
 40
1.057646097725059
 40
1.225799718652661
 40
1.225799718652661
 40
1.396248746388449
 40
1.396248746388449
 40
1.566697774124236
 40
1.566697774124236
 40
1.686753470531895
 40
1.686753470531895
 40
1.806809166939554
 40
1.806809166939554
 40
1.926864863347213
 40
1.926864863347213
 40
2.046920559754872
 40
2.046920559754872
 40
2.217369587490659
 40
2.217369587490659
 40
2.387818615226446
 40
2.387818615226446
 40
2.387818615226446
 40
2.387818615226446
 10
19.82582655325963
 20
10.37365444825031
 30
0.0
 10
19.82582655325963
 20
9.813142378491631
 30
0.0
 10
19.77959059129065
 20
9.205137286959391
 30
0.0
 10
19.57992174166101
 20
8.040508644104772
 30
0.0
 10
19.42659252487812
 20
7.483741928970745
 30
0.0
 10
19.06447947441779
 20
6.63377664867836
 30
0.0
 10
18.84616078462559
 20
6.25867373579176
 30
0.0
 10
18.44889336253467
 20
5.857361981481467
 30
0.0
 10
18.30488232221867
 20
5.749711402423916
 30
0.0
 10
18.0008147514936
 20
5.603651503212119
 30
0.0
 10
17.84072608961976
 20
5.56531021678298
 30
0.0
 10
17.51475856388647
 20
5.56531021678298
 30
0.0
 10
17.35006360390651
 20
5.60365150321212
 30
0.0
 10
17.02895532502472
 20
5.749711402423919
 30
0.0
 10
16.87254149088462
 20
5.85736198148147
 30
0.0
 10
16.43119208966813
 20
6.258673735791763
 30
0.0
 10
16.17455197238552
 20
6.633776648678364
 30
0.0
 10
15.73878261597089
 20
7.483741928970749
 30
0.0
 10
15.54535249550241
 20
8.040508644104773
 30
0.0
 10
15.29049075452303
 20
9.205137286959393
 30
0.0
 10
15.22963247554707
 20
9.813142378491633
 30
0.0
 10
15.22963247554707
 20
10.94181787403626
 30
0.0
 10
15.29247162853988
 20
11.55817680733171
 30
0.0
 10
15.57816886774421
 20
12.71599056275076
 30
0.0
 10
15.80103912877928
 20
13.25737720631124
 30
0.0
 10
16.28338002795539
 20
13.99272891084554
 30
0.0
 10
16.53612185250471
 20
14.27390640553575
 30
0.0
 10
17.09191735261721
 20
14.65673054571921
 30
0.0
 10
17.39476833658668
 20
14.7576983722081
 30
0.0
 10
17.96071631691954
 20
14.7576983722081
 30
0.0
 10
18.24863058498927
 20
14.65673054571921
 30
0.0
 10
18.75374158126351
 20
14.27390640553575
 30
0.0
 10
18.97167530019183
 20
13.99272891084554
 30
0.0
 10
19.37702091726864
 20
13.25737720631124
 30
0.0
 10
19.55399565956642
 20
12.71599056275076
 30
0.0
 10
19.77823028258157
 20
11.55817680733172
 30
0.0
 10
19.82582655325963
 20
10.94181787403627
 30
0.0
 10
19.82582655325963
 20
10.37365444825031
 30
0.0
  0
SPLINE
  5
22B9
330
22B3
100
AcDbEntity
  8
0
100
AcDbSpline
210
0.0
220
0.0
230
1.0
 70
     8
 71
     3
 72
    24
 73
    20
 74
     0
 42
0.000000001
 43
0.0000000001
 40
0.6128998593263308
 40
0.6128998593263308
 40
0.6128998593269711
 40
0.6128998593269711
 40
0.6820480136941122
 40
0.6820480136941122
 40
0.7511961680618935
 40
0.7511961680618935
 40
0.8894924767974561
 40
0.8894924767974561
 40
1.057646097725058
 40
1.057646097725058
 40
1.225799718652661
 40
1.225799718652661
 40
1.396248746388448
 40
1.396248746388448
 40
1.566697774124236
 40
1.566697774124236
 40
1.686753470531895
 40
1.686753470531895
 40
1.806809166939068
 40
1.806809166939068
 40
1.806809166939554
 40
1.806809166939554
 10
25.00007279708942
 20
5.565310216782983
 30
0.0
 10
25.00007279708935
 20
5.565310216783694
 30
0.0
 10
24.99681565246236
 20
5.603651503212791
 30
0.0
 10
24.98476605216858
 20
5.749711402423914
 30
0.0
 10
24.9759959525499
 20
5.857361981481466
 30
0.0
 10
24.9448252861821
 20
6.258673735791759
 30
0.0
 10
24.91772794493887
 20
6.633776648678359
 30
0.0
 10
24.86564507152143
 20
7.483741928970744
 30
0.0
 10
24.83728945059365
 20
8.040508644104768
 30
0.0
 10
24.79826218284696
 20
9.20513728695939
 30
0.0
 10
24.78792264333466
 20
9.81314237849163
 30
0.0
 10
24.78792264333466
 20
10.94181787403626
 30
0.0
 10
24.79870098878425
 20
11.55817680733171
 30
0.0
 10
24.84216162148108
 20
12.71599056275075
 30
0.0
 10
24.87461465400629
 20
13.25737720631124
 30
0.0
 10
24.92905854009807
 20
13.99272891084553
 30
0.0
 10
24.95367158762294
 20
14.27390640553575
 30
0.0
 10
24.98951094398798
 20
14.65673054571843
 30
0.0
 10
25.00007279708933
 20
14.75769837220729
 30
0.0
 10
25.00007279708942
 20
14.7576983722081
 30
0.0
  0
SPLINE
  5
22BA
330
22B3
100
AcDbEntity
  8
0
100
AcDbSpline
210
0.0
220
0.0
230
1.0
 70
     8
 71
     3
 72
    16
 73
    12
 74
     0
 42
0.000000001
 43
0.0000000001
 40
0.0
 40
0.0
 40
0.0
 40
0.0
 40
0.183650214160788
 40
0.183650214160788
 40
0.3673004283215761
 40
0.3673004283215761
 40
0.489603546691334
 40
0.489603546691334
 40
0.5507551058762129
 40
0.5507551058762129
 40
0.6119066650404922
 40
0.6119066650404922
 40
0.6119066650610919
 40
0.6119066650610919
 10
-24.78777704915582
 20
10.3736544482503
 30
0.0
 10
-24.78777704915582
 20
9.761487067714341
 30
0.0
 10
-24.80015251198786
 20
9.099252231673784
 30
0.0
 10
-24.84568746032709
 20
7.843100023939358
 30
0.0
 10
-24.87841885996591
 20
7.248758001306602
 30
0.0
 10
-24.93121563682019
 20
6.441638393106324
 30
0.0
 10
-24.95446144459014
 20
6.129854557131016
 30
0.0
 10
-24.9804580953511
 20
5.800456917003856
 30
0.0
 10
-24.98763149582215
 20
5.713016091146901
 30
0.0
 10
-24.99737429386235
 20
5.595404933605631
 30
0.0
 10
-24.99992720290887
 20
5.565310216803254
 30
0.0
 10
-24.99992720291059
 20
5.565310216782979
 30
0.0
  0
SPLINE
  5
22BB
330
22B3
100
AcDbEntity
  8
0
100
AcDbSpline
210
0.0
220
0.0
230
1.0
 70
     8
 71
     3
 72
    14
 73
    10
 74
     0
 42
0.000000001
 43
0.0000000001
 40
1.805002043892542
 40
1.805002043892542
 40
1.805002043892542
 40
1.805002043892542
 40
1.925057740300201
 40
1.925057740300201
 40
2.04511343670786
 40
2.04511343670786
 40
2.215562464443647
 40
2.215562464443647
 40
2.386011492179435
 40
2.386011492179435
 40
2.386011492179435
 40
2.386011492179435
 10
-24.99992720291059
 20
14.7576983722081
 30
0.0
 10
-24.99992720291059
 20
14.7576983722081
 30
0.0
 10
-24.98936534980922
 20
14.6567305457192
 30
0.0
 10
-24.95352599344411
 20
14.27390640553575
 30
0.0
 10
-24.92891294591924
 20
13.99272891084553
 30
0.0
 10
-24.87446905982746
 20
13.25737720631123
 30
0.0
 10
-24.84201602730224
 20
12.71599056275075
 30
0.0
 10
-24.79855539460542
 20
11.55817680733171
 30
0.0
 10
-24.78777704915582
 20
10.94181787403625
 30
0.0
 10
-24.78777704915582
 20
10.3736544482503
 30
0.0
  0
LINE
  5
22BC
330
22B3
100
AcDbEntity
  8
0
100
AcDbLine
 10
-24.99992720291059
 20
1.000000000000004
 30
0.0
 11
25.00007279708942
 21
1.000000000000004
 31
0.0
  0
LINE
  5
22BD
330
22B3
100
AcDbEntity
  8
0
100
AcDbLine
 10
24.00007279708942
 20
0.0
 30
0.0
 11
-23.99992720291058
 21
0.0
 31
0.0
  0
LINE
  5
22BE
330
22B3
100
AcDbEntity
  8
0
100
AcDbLine
 10
25.00007279708942
 20
24.0
 30
0.0
 11
-24.99992720291059
 21
24.0
 31
0.0
  0
LINE
  5
22BF
330
22B3
100
AcDbEntity
  8
0
100
AcDbLine
 10
-23.99992720291058
 20
25.0
 30
0.0
 11
24.00007279708942
 21
25.0
 31
0.0
  0
LINE
  5
22C0
330
22B3
100
AcDbEntity
  8
0
100
AcDbLine
 10
-23.99992720291058
 20
0.0
 30
0.0
 11
-24.99992720291059
 21
1.000000000000003
 31
0.0
  0
LINE
  5
22C1
330
22B3
100
AcDbEntity
  8
0
100
AcDbLine
 10
24.00007279708942
 20
0.0
 30
0.0
 11
25.00007279708942
 21
1.000000000000003
 31
0.0
  0
LINE
  5
22C2
330
22B3
100
AcDbEntity
  8
0
100
AcDbLine
 10
24.00007279708942
 20
25.0
 30
0.0
 11
25.00007279708942
 21
24.00000000000001
 31
0.0
  0
LINE
  5
22C3
330
22B3
100
AcDbEntity
  8
0
100
AcDbLine
 10
-23.99992720291059
 20
25.0
 30
0.0
 11
-24.99992720291059
 21
24.00000000000001
 31
0.0
  0
LINE
  5
22C4
330
22B3
100
AcDbEntity
  8
0
100
AcDbLine
 10
25.00007279708942
 20
24.0
 30
0.0
 11
25.00007279708942
 21
14.7576983722081
 31
0.0
  0
LINE
  5
22C5
330
22B3
100
AcDbEntity
  8
0
100
AcDbLine
 10
25.00007279708942
 20
5.565310216782984
 30
0.0
 11
25.00007279708942
 21
1.000000000000005
 31
0.0
  0
LINE
  5
22C6
330
22B3
100
AcDbEntity
  8
0
100
AcDbLine
 10
-24.99992720291059
 20
24.0
 30
0.0
 11
-24.99992720291059
 21
14.7576983722081
 31
0.0
  0
LINE
  5
22C7
330
22B3
100
AcDbEntity
  8
0
100
AcDbLine
 10
-24.99992720291059
 20
5.56531021678298
 30
0.0
 11
-24.99992720291059
 21
1.000000000000005
 31
0.0
  0
ENDBLK
  5
22B5
330
22B3
100
AcDbEntity
  8
0
100
AcDbBlockEnd
  0
BLOCK
  5
22C9
330
22C8
100
AcDbEntity
  8
0
100
AcDbBlockBegin
  2
CCS50-C-Right
 70
     0
 10
0.0
 20
0.0
 30
0.0
  3
CCS50-C-Right
  1

  0
SPLINE
  5
22CB
330
22C8
100
AcDbEntity
  8
0
100
AcDbSpline
210
0.0
220
0.0
230
1.0
 70
     8
 71
     3
 72
    16
 73
    12
 74
     0
 42
0.000000001
 43
0.0000000001
 40
0.0
 40
0.0
 40
0.0
 40
0.0
 40
0.1681536209276028
 40
0.1681536209276028
 40
0.3363072418552055
 40
0.3363072418552055
 40
0.4746035505907682
 40
0.4746035505907682
 40
0.5437517049585496
 40
0.5437517049585496
 40
0.6128998593263308
 40
0.6128998593263308
 40
0.6128998593263314
 40
0.6128998593263314
 10
-24.78792264333466
 20
10.3736544482503
 30
0.0
 10
-24.78792264333466
 20
9.813142378491628
 30
0.0
 10
-24.79826218284696
 20
9.205137286959386
 30
0.0
 10
-24.83728945059365
 20
8.040508644104768
 30
0.0
 10
-24.86564507152143
 20
7.483741928970743
 30
0.0
 10
-24.91772794493887
 20
6.633776648678359
 30
0.0
 10
-24.9448252861821
 20
6.258673735791759
 30
0.0
 10
-24.9759959525499
 20
5.857361981481466
 30
0.0
 10
-24.98476605216858
 20
5.749711402423914
 30
0.0
 10
-24.99681565246242
 20
5.603651503212114
 30
0.0
 10
-25.00007279708942
 20
5.565310216782983
 30
0.0
 10
-25.00007279708942
 20
5.565310216782983
 30
0.0
  0
SPLINE
  5
22CC
330
22C8
100
AcDbEntity
  8
0
100
AcDbSpline
210
0.0
220
0.0
230
1.0
 70
     8
 71
     3
 72
    14
 73
    10
 74
     0
 42
0.000000001
 43
0.0000000001
 40
1.806809166939553
 40
1.806809166939553
 40
1.806809166939554
 40
1.806809166939554
 40
1.926864863347212
 40
1.926864863347212
 40
2.046920559754871
 40
2.046920559754871
 40
2.217369587490659
 40
2.217369587490659
 40
2.387818615226446
 40
2.387818615226446
 40
2.387818615226446
 40
2.387818615226446
 10
-25.00007279708942
 20
14.7576983722081
 30
0.0
 10
-25.00007279708942
 20
14.7576983722081
 30
0.0
 10
-24.98951094398805
 20
14.65673054571921
 30
0.0
 10
-24.95367158762294
 20
14.27390640553575
 30
0.0
 10
-24.92905854009807
 20
13.99272891084553
 30
0.0
 10
-24.87461465400629
 20
13.25737720631124
 30
0.0
 10
-24.84216162148108
 20
12.71599056275075
 30
0.0
 10
-24.79870098878425
 20
11.55817680733171
 30
0.0
 10
-24.78792264333466
 20
10.94181787403626
 30
0.0
 10
-24.78792264333466
 20
10.3736544482503
 30
0.0
  0
SPLINE
  5
22CD
330
22C8
100
AcDbEntity
  8
0
100
AcDbSpline
210
0.0
220
0.0
230
1.0
 70
    11
 71
     3
 72
    42
 73
    38
 74
     0
 42
0.000000001
 43
0.0000000001
 40
0.0
 40
0.0
 40
0.0
 40
0.0
 40
0.1681536209276026
 40
0.1681536209276026
 40
0.3363072418552052
 40
0.3363072418552052
 40
0.4746035505907681
 40
0.4746035505907681
 40
0.5437517049585495
 40
0.5437517049585495
 40
0.6128998593263308
 40
0.6128998593263308
 40
0.6820480136941124
 40
0.6820480136941124
 40
0.7511961680618937
 40
0.7511961680618937
 40
0.8894924767974567
 40
0.8894924767974567
 40
1.057646097725059
 40
1.057646097725059
 40
1.225799718652661
 40
1.225799718652661
 40
1.396248746388449
 40
1.396248746388449
 40
1.566697774124236
 40
1.566697774124236
 40
1.686753470531895
 40
1.686753470531895
 40
1.806809166939554
 40
1.806809166939554
 40
1.926864863347213
 40
1.926864863347213
 40
2.046920559754872
 40
2.046920559754872
 40
2.217369587490659
 40
2.217369587490659
 40
2.387818615226446
 40
2.387818615226446
 40
2.387818615226446
 40
2.387818615226446
 10
-15.22963247554705
 20
10.3736544482503
 30
0.0
 10
-15.22963247554705
 20
9.813142378491622
 30
0.0
 10
-15.29049075452302
 20
9.205137286959384
 30
0.0
 10
-15.5453524955024
 20
8.040508644104763
 30
0.0
 10
-15.73878261597088
 20
7.483741928970738
 30
0.0
 10
-16.1745519723855
 20
6.633776648678352
 30
0.0
 10
-16.43119208966812
 20
6.258673735791752
 30
0.0
 10
-16.87254149088461
 20
5.85736198148146
 30
0.0
 10
-17.02895532502471
 20
5.749711402423908
 30
0.0
 10
-17.35006360390649
 20
5.603651503212111
 30
0.0
 10
-17.51475856388645
 20
5.565310216782971
 30
0.0
 10
-17.84072608961974
 20
5.565310216782971
 30
0.0
 10
-18.00081475149358
 20
5.603651503212113
 30
0.0
 10
-18.30488232221865
 20
5.749711402423911
 30
0.0
 10
-18.44889336253465
 20
5.857361981481462
 30
0.0
 10
-18.84616078462557
 20
6.258673735791755
 30
0.0
 10
-19.06447947441777
 20
6.633776648678356
 30
0.0
 10
-19.4265925248781
 20
7.483741928970742
 30
0.0
 10
-19.579921741661
 20
8.040508644104766
 30
0.0
 10
-19.77959059129065
 20
9.205137286959386
 30
0.0
 10
-19.82582655325962
 20
9.813142378491624
 30
0.0
 10
-19.82582655325962
 20
10.94181787403625
 30
0.0
 10
-19.77823028258156
 20
11.55817680733171
 30
0.0
 10
-19.55399565956641
 20
12.71599056275075
 30
0.0
 10
-19.37702091726863
 20
13.25737720631123
 30
0.0
 10
-18.97167530019181
 20
13.99272891084553
 30
0.0
 10
-18.75374158126349
 20
14.27390640553575
 30
0.0
 10
-18.24863058498926
 20
14.6567305457192
 30
0.0
 10
-17.96071631691953
 20
14.75769837220809
 30
0.0
 10
-17.39476833658667
 20
14.75769837220809
 30
0.0
 10
-17.09191735261719
 20
14.6567305457192
 30
0.0
 10
-16.53612185250469
 20
14.27390640553574
 30
0.0
 10
-16.28338002795537
 20
13.99272891084553
 30
0.0
 10
-15.80103912877926
 20
13.25737720631123
 30
0.0
 10
-15.5781688677442
 20
12.71599056275075
 30
0.0
 10
-15.29247162853988
 20
11.55817680733171
 30
0.0
 10
-15.22963247554705
 20
10.94181787403626
 30
0.0
 10
-15.22963247554705
 20
10.3736544482503
 30
0.0
  0
SPLINE
  5
22CE
330
22C8
100
AcDbEntity
  8
0
100
AcDbSpline
210
0.0
220
0.0
230
1.0
 70
    11
 71
     3
 72
    42
 73
    38
 74
     0
 42
0.000000001
 43
0.0000000001
 40
0.0
 40
0.0
 40
0.0
 40
0.0
 40
0.1681536209276028
 40
0.1681536209276028
 40
0.3363072418552057
 40
0.3363072418552057
 40
0.4746035505907683
 40
0.4746035505907683
 40
0.5437517049585496
 40
0.5437517049585496
 40
0.6128998593263308
 40
0.6128998593263308
 40
0.6820480136941122
 40
0.6820480136941122
 40
0.7511961680618935
 40
0.7511961680618935
 40
0.8894924767974561
 40
0.8894924767974561
 40
1.057646097725058
 40
1.057646097725058
 40
1.225799718652661
 40
1.225799718652661
 40
1.396248746388448
 40
1.396248746388448
 40
1.566697774124236
 40
1.566697774124236
 40
1.686753470531895
 40
1.686753470531895
 40
1.806809166939554
 40
1.806809166939554
 40
1.926864863347212
 40
1.926864863347212
 40
2.046920559754871
 40
2.046920559754871
 40
2.217369587490659
 40
2.217369587490659
 40
2.387818615226446
 40
2.387818615226446
 40
2.387818615226446
 40
2.387818615226446
 10
3.249927202910591
 20
10.3736544482503
 30
0.0
 10
3.249927202910591
 20
9.813142378491622
 30
0.0
 10
3.1742001389124
 20
9.205137286959383
 30
0.0
 10
2.852798476036031
 20
8.040508644104761
 30
0.0
 10
2.607602597225828
 20
7.483741928970736
 30
0.0
 10
2.043414536735105
 20
6.633776648678352
 30
0.0
 10
1.707567943468236
 20
6.258673735791751
 30
0.0
 10
1.11457630089045
 20
5.857361981481457
 30
0.0
 10
0.9021438349254239
 20
5.749711402423914
 30
0.0
 10
0.4600777522343496
 20
5.603651503212114
 30
0.0
 10
0.2304210508031935
 20
5.565310216782977
 30
0.0
 10
-0.2305666449820154
 20
5.565310216782977
 30
0.0
 10
-0.4602233464131714
 20
5.603651503212114
 30
0.0
 10
-0.9022894291042458
 20
5.749711402423914
 30
0.0
 10
-1.114721895069272
 20
5.857361981481457
 30
0.0
 10
-1.707713537647058
 20
6.258673735791751
 30
0.0
 10
-2.043560130913927
 20
6.633776648678352
 30
0.0
 10
-2.60774819140465
 20
7.483741928970736
 30
0.0
 10
-2.852944070214853
 20
8.040508644104761
 30
0.0
 10
-3.174345733091222
 20
9.205137286959384
 30
0.0
 10
-3.250072797089413
 20
9.813142378491622
 30
0.0
 10
-3.250072797089413
 20
10.94181787403626
 30
0.0
 10
-3.171983160128523
 20
11.55817680733171
 30
0.0
 10
-2.81140688241005
 20
12.71599056275075
 30
0.0
 10
-2.528673769129836
 20
13.25737720631123
 30
0.0
 10
-1.900984613919538
 20
13.99272891084553
 30
0.0
 10
-1.568166745387829
 20
14.27390640553574
 30
0.0
 10
-0.8179925675879101
 20
14.6567305457192
 30
0.0
 10
-0.4002584517816078
 20
14.7576983722081
 30
0.0
 10
0.4001128576027849
 20
14.7576983722081
 30
0.0
 10
0.8178469734090876
 20
14.6567305457192
 30
0.0
 10
1.568021151209007
 20
14.27390640553574
 30
0.0
 10
1.900839019740716
 20
13.99272891084553
 30
0.0
 10
2.528528174951014
 20
13.25737720631123
 30
0.0
 10
2.811261288231228
 20
12.71599056275075
 30
0.0
 10
3.171837565949701
 20
11.55817680733171
 30
0.0
 10
3.249927202910591
 20
10.94181787403626
 30
0.0
 10
3.249927202910591
 20
10.3736544482503
 30
0.0
  0
SPLINE
  5
22CF
330
22C8
100
AcDbEntity
  8
0
100
AcDbSpline
210
0.0
220
0.0
230
1.0
 70
    11
 71
     3
 72
    42
 73
    38
 74
     0
 42
0.000000001
 43
0.0000000001
 40
0.0
 40
0.0
 40
0.0
 40
0.0
 40
0.1836502141607882
 40
0.1836502141607882
 40
0.3673004283215764
 40
0.3673004283215764
 40
0.4896035466913343
 40
0.4896035466913343
 40
0.5507551058762132
 40
0.5507551058762132
 40
0.611906665061092
 40
0.611906665061092
 40
0.673058224245971
 40
0.673058224245971
 40
0.7342097834308499
 40
0.7342097834308499
 40
0.8565129018006077
 40
0.8565129018006077
 40
1.040163115961395
 40
1.040163115961395
 40
1.223813330122184
 40
1.223813330122184
 40
1.394262357857971
 40
1.394262357857971
 40
1.564711385593758
 40
1.564711385593758
 40
1.684767082001417
 40
1.684767082001417
 40
1.804822778409076
 40
1.804822778409076
 40
1.924878474816735
 40
1.924878474816735
 40
2.044934171224394
 40
2.044934171224394
 40
2.215383198960181
 40
2.215383198960181
 40
2.385832226695969
 40
2.385832226695969
 40
2.385832226695969
 40
2.385832226695969
 10
19.82568095908079
 20
10.3736544482503
 30
0.0
 10
19.82568095908079
 20
9.761487067714339
 30
0.0
 10
19.77078768156825
 20
9.09925223167378
 30
0.0
 10
19.53384864752503
 20
7.843100023939353
 30
0.0
 10
19.35245598583859
 20
7.248758001306598
 30
0.0
 10
18.95055488199361
 20
6.44163839310632
 30
0.0
 10
18.7419749365219
 20
6.129854557131012
 30
0.0
 10
18.37321650871508
 20
5.800456917003852
 30
0.0
 10
18.24100121397944
 20
5.713016091146894
 30
0.0
 10
17.96527296656078
 20
5.595404933585816
 30
0.0
 10
17.82173233984014
 20
5.565310216782974
 30
0.0
 10
17.53346112530842
 20
5.565310216782974
 30
0.0
 10
17.38631013999057
 20
5.595404933585815
 30
0.0
 10
17.09680349544569
 20
5.713016091146893
 30
0.0
 10
16.95444348047556
 20
5.800456917003852
 30
0.0
 10
16.54892023658631
 20
6.129854557131011
 30
0.0
 10
16.30746575449802
 20
6.441638393106319
 30
0.0
 10
15.83089873277611
 20
7.248758001306597
 30
0.0
 10
15.60321688180501
 20
7.843100023939351
 30
0.0
 10
15.30188170625848
 20
9.099252231673776
 30
0.0
 10
15.22948688136823
 20
9.761487067714337
 30
0.0
 10
15.22948688136823
 20
10.94181787403625
 30
0.0
 10
15.29232603436105
 20
11.55817680733171
 30
0.0
 10
15.57802327356537
 20
12.71599056275075
 30
0.0
 10
15.80089353460044
 20
13.25737720631123
 30
0.0
 10
16.28323443377655
 20
13.99272891084553
 30
0.0
 10
16.53597625832587
 20
14.27390640553574
 30
0.0
 10
17.09177175843837
 20
14.6567305457192
 30
0.0
 10
17.39462274240785
 20
14.75769837220809
 30
0.0
 10
17.96057072274071
 20
14.75769837220809
 30
0.0
 10
18.24848499081044
 20
14.6567305457192
 30
0.0
 10
18.75359598708467
 20
14.27390640553574
 30
0.0
 10
18.971529706013
 20
13.99272891084553
 30
0.0
 10
19.3768753230898
 20
13.25737720631123
 30
0.0
 10
19.55385006538758
 20
12.71599056275075
 30
0.0
 10
19.77808468840273
 20
11.55817680733171
 30
0.0
 10
19.82568095908079
 20
10.94181787403626
 30
0.0
 10
19.82568095908079
 20
10.3736544482503
 30
0.0
  0
SPLINE
  5
22D0
330
22C8
100
AcDbEntity
  8
0
100
AcDbSpline
210
0.0
220
0.0
230
1.0
 70
     8
 71
     3
 72
    24
 73
    20
 74
     0
 42
0.000000001
 43
0.0000000001
 40
0.6119066650610919
 40
0.6119066650610919
 40
0.6119066650610919
 40
0.6119066650610919
 40
0.6730582242459708
 40
0.6730582242459708
 40
0.7342097834308497
 40
0.7342097834308497
 40
0.8565129018006075
 40
0.8565129018006075
 40
1.040163115961395
 40
1.040163115961395
 40
1.223813330122183
 40
1.223813330122183
 40
1.383178530389296
 40
1.383178530389296
 40
1.542543730656408
 40
1.542543730656408
 40
1.673772887274475
 40
1.673772887274475
 40
1.805002043889799
 40
1.805002043889799
 40
1.805002043892542
 40
1.805002043892542
 10
24.99992720291059
 20
5.565310216782979
 30
0.0
 10
24.99992720291059
 20
5.565310216782979
 30
0.0
 10
24.99737429386399
 20
5.595404933585822
 30
0.0
 10
24.98763149582215
 20
5.713016091146901
 30
0.0
 10
24.9804580953511
 20
5.800456917003856
 30
0.0
 10
24.95446144459014
 20
6.129854557131015
 30
0.0
 10
24.93121563682019
 20
6.441638393106323
 30
0.0
 10
24.87841885996591
 20
7.248758001306603
 30
0.0
 10
24.84568746032709
 20
7.843100023939357
 30
0.0
 10
24.80015251198786
 20
9.09925223167378
 30
0.0
 10
24.78777704915582
 20
9.761487067714337
 30
0.0
 10
24.78777704915582
 20
10.90487178247401
 30
0.0
 10
24.79714824945769
 20
11.48217886721034
 30
0.0
 10
24.83561201226355
 20
12.57700198923701
 30
0.0
 10
24.86453825632306
 20
13.09435792840523
 30
0.0
 10
24.91840270324872
 20
13.86566866360862
 30
0.0
 10
24.94611263694556
 20
14.19123438837581
 30
0.0
 10
24.98731002421852
 20
14.63754699904995
 30
0.0
 10
24.99992720291005
 20
14.75769837220308
 30
0.0
 10
24.99992720291059
 20
14.7576983722081
 30
0.0
  0
LINE
  5
22D1
330
22C8
100
AcDbEntity
  8
0
100
AcDbLine
 10
-25.00007279708942
 20
1.000000000000004
 30
0.0
 11
24.99992720291059
 21
1.000000000000004
 31
0.0
  0
LINE
  5
22D2
330
22C8
100
AcDbEntity
  8
0
100
AcDbLine
 10
23.99992720291058
 20
0.0
 30
0.0
 11
-24.00007279708942
 21
0.0
 31
0.0
  0
LINE
  5
22D3
330
22C8
100
AcDbEntity
  8
0
100
AcDbLine
 10
24.99992720291059
 20
24.0
 30
0.0
 11
-25.00007279708942
 21
24.0
 31
0.0
  0
LINE
  5
22D4
330
22C8
100
AcDbEntity
  8
0
100
AcDbLine
 10
-24.00007279708942
 20
25.0
 30
0.0
 11
23.99992720291058
 21
25.0
 31
0.0
  0
LINE
  5
22D5
330
22C8
100
AcDbEntity
  8
0
100
AcDbLine
 10
-24.00007279708942
 20
0.0
 30
0.0
 11
-25.00007279708942
 21
1.000000000000003
 31
0.0
  0
LINE
  5
22D6
330
22C8
100
AcDbEntity
  8
0
100
AcDbLine
 10
23.99992720291058
 20
0.0
 30
0.0
 11
24.99992720291059
 21
1.000000000000003
 31
0.0
  0
LINE
  5
22D7
330
22C8
100
AcDbEntity
  8
0
100
AcDbLine
 10
23.99992720291059
 20
25.0
 30
0.0
 11
24.99992720291059
 21
24.00000000000001
 31
0.0
  0
LINE
  5
22D8
330
22C8
100
AcDbEntity
  8
0
100
AcDbLine
 10
-24.00007279708942
 20
25.0
 30
0.0
 11
-25.00007279708942
 21
24.00000000000001
 31
0.0
  0
LINE
  5
22D9
330
22C8
100
AcDbEntity
  8
0
100
AcDbLine
 10
24.99992720291059
 20
24.0
 30
0.0
 11
24.99992720291059
 21
14.7576983722081
 31
0.0
  0
LINE
  5
22DA
330
22C8
100
AcDbEntity
  8
0
100
AcDbLine
 10
24.99992720291059
 20
5.56531021678298
 30
0.0
 11
24.99992720291059
 21
1.000000000000005
 31
0.0
  0
LINE
  5
22DB
330
22C8
100
AcDbEntity
  8
0
100
AcDbLine
 10
-25.00007279708942
 20
24.0
 30
0.0
 11
-25.00007279708942
 21
14.7576983722081
 31
0.0
  0
LINE
  5
22DC
330
22C8
100
AcDbEntity
  8
0
100
AcDbLine
 10
-25.00007279708942
 20
5.565310216782984
 30
0.0
 11
-25.00007279708942
 21
1.000000000000005
 31
0.0
  0
ENDBLK
  5
22CA
330
22C8
100
AcDbEntity
  8
0
100
AcDbBlockEnd
  0
BLOCK
  5
22DE
330
22DD
100
AcDbEntity
  8
0
100
AcDbBlockBegin
  2
CCS50-C-Top
 70
     0
 10
0.0
 20
0.0
 30
0.0
  3
CCS50-C-Top
  1

  0
ELLIPSE
  5
22E0
330
22DD
100
AcDbEntity
  8
0
100
AcDbEllipse
 10
-12.84219564027581
 20
12.84205004609697
 30
0.0
 11
5.250000000000004
 21
-5.25
 31
0.0
210
0.0
220
0.0
230
1.0
 40
0.7071067811865475
 41
5.742824037549548
 42
6.823546576809625
  0
SPLINE
  5
22E1
330
22DD
100
AcDbEntity
  8
0
100
AcDbSpline
210
0.0
220
0.0
230
1.0
 70
     8
 71
     3
 72
    19
 73
    15
 74
     0
 42
0.000000001
 43
0.0000000001
 40
-0.5397754188291991
 40
-0.5397754188291991
 40
-0.5397754188291991
 40
-0.5397754188291991
 40
-0.4633443055806628
 40
-0.4633443055806628
 40
-0.2316721527903311
 40
-0.2316721527903311
 40
0.0
 40
0.0
 40
0.0
 40
0.1666271866330078
 40
0.1666271866330078
 40
0.3332543732660155
 40
0.3332543732660155
 40
0.3953484452206449
 40
0.3953484452206449
 40
0.3953484452206449
 40
0.3953484452206449
 10
-9.90325679486366
 20
15.03079366849492
 30
0.0
 10
-9.665440136743251
 20
15.05958605074539
 30
0.0
 10
-9.43226026322227
 20
15.07097869895309
 30
0.0
 10
-8.528073107055529
 20
15.05316957700654
 30
0.0
 10
-7.855415127523018
 20
14.88553058319704
 30
0.0
 10
-6.771911379478129
 20
14.27226754040144
 30
0.0
 10
-6.362472606860615
 20
13.82783333449651
 30
0.0
 10
-6.134226255207499
 20
13.33176750715113
 30
0.0
 10
-5.970063031543641
 20
12.97497860438584
 30
0.0
 10
-5.881804999625282
 20
12.55162007152922
 30
0.0
 10
-5.908255763325664
 20
11.66035875669682
 30
0.0
 10
-6.022195517552102
 20
11.19184070619692
 30
0.0
 10
-6.263905059203827
 20
10.58997513665338
 30
0.0
 10
-6.341457175927335
 20
10.42122298059244
 30
0.0
 10
-6.430417821491094
 20
10.24983758628235
 30
0.0
  0
ELLIPSE
  5
22E2
330
22DD
100
AcDbEntity
  8
0
100
AcDbEllipse
 10
-8.670265631275176
 20
8.67012003709634
 30
0.0
 11
5.250000000000004
 21
-5.25
 31
0.0
210
0.0
220
0.0
230
1.0
 40
0.7071067811865475
 41
2.379229803781927
 42
3.903955503397658
  0
SPLINE
  5
22E3
330
22DD
100
AcDbEntity
  8
0
100
AcDbSpline
210
0.0
220
0.0
230
1.0
 70
     8
 71
     3
 72
    18
 73
    14
 74
     0
 42
0.000000001
 43
0.0000000001
 40
0.9354645412963421
 40
0.9354645412963421
 40
0.9354645412963421
 40
0.9354645412963421
 40
0.997558613250972
 40
0.997558613250972
 40
1.164185799883979
 40
1.164185799883979
 40
1.330812986516987
 40
1.330812986516987
 40
1.562485139307318
 40
1.562485139307318
 40
1.794157292097649
 40
1.794157292097649
 40
1.870588405475398
 40
1.870588405475398
 40
1.870588405475398
 40
1.870588405475398
 10
-10.24998318046118
 20
6.430272227312259
 30
0.0
 10
-10.42136857477128
 20
6.341311581748499
 30
0.0
 10
-10.59012073083222
 20
6.263759465024989
 30
0.0
 10
-11.19198630037576
 20
6.022049923373264
 30
0.0
 10
-11.66050435087565
 20
5.908110169146826
 30
0.0
 10
-12.55176566570805
 20
5.881659405446441
 30
0.0
 10
-12.97512419856468
 20
5.969917437364799
 30
0.0
 10
-13.82797892867535
 20
6.362327012681773
 30
0.0
 10
-14.27241313458028
 20
6.771765785299291
 30
0.0
 10
-14.88567617737588
 20
7.855269533344181
 30
0.0
 10
-15.05331517118538
 20
8.527927512876688
 30
0.0
 10
-15.07112429313939
 20
9.432114669422631
 30
0.0
 10
-15.05973164489992
 20
9.665294542765185
 30
0.0
 10
-15.03093926267376
 20
9.903111200684815
 30
0.0
  0
ELLIPSE
  5
22E4
330
22DD
100
AcDbEntity
  8
0
100
AcDbEllipse
 10
-11.44913024486122
 20
11.44898465068239
 30
0.0
 11
-3.712310601229372
 21
-3.712310601229374
 31
0.0
210
0.0
220
0.0
230
1.0
 40
0.7071067811865472
 41
0.2003600924165422
 42
2.941232561173249
  0
ELLIPSE
  5
22E5
330
22DD
100
AcDbEntity
  8
0
100
AcDbEllipse
 10
-12.44913024486122
 20
12.44898465068238
 30
0.0
 11
-2.298097038856278
 21
-2.298097038856282
 31
0.0
210
0.0
220
0.0
230
1.0
 40
0.7071067811865472
 41
6.012156548230699
 42
9.695806719718243
  0
ELLIPSE
  5
22E6
330
22DD
100
AcDbEntity
  8
0
100
AcDbEllipse
 10
-18.16157709158494
 20
-0.0000727970894234
 30
0.0
 11
7.424621202458751
 21
0.0000000000000028
 31
0.0
210
0.0
220
0.0
230
1.0
 40
0.7071067811865472
 41
5.742824037549548
 42
6.823546576809624
  0
SPLINE
  5
22E7
330
22DD
100
AcDbEntity
  8
0
100
AcDbSpline
210
0.0
220
0.0
230
1.0
 70
     8
 71
     3
 72
    19
 73
    15
 74
     0
 42
0.000000001
 43
0.0000000001
 40
-0.5397754188291982
 40
-0.5397754188291982
 40
-0.5397754188291982
 40
-0.5397754188291982
 40
-0.4633443055806623
 40
-0.4633443055806623
 40
-0.2316721527903311
 40
-0.2316721527903311
 40
0.0
 40
0.0
 40
0.0
 40
0.1666271866330077
 40
0.1666271866330077
 40
0.3332543732660153
 40
0.3332543732660153
 40
0.3953484452206453
 40
0.3953484452206453
 40
0.3953484452206453
 40
0.3953484452206453
 10
-17.63110896217785
 20
3.625746247670472
 30
0.0
 10
-17.4833064792776
 20
3.814267308042357
 30
0.0
 10
-17.32647922827803
 20
3.987206196648596
 30
0.0
 10
-16.67452940779537
 20
4.613970115340498
 30
0.0
 10
-16.0803497197347
 20
4.97107246477319
 30
0.0
 10
-14.88055441583926
 20
5.30358285624491
 30
0.0
 10
-14.27677504245409
 20
5.27883734805682
 30
0.0
 10
-13.76460898898824
 20
5.089460380660994
 30
0.0
 10
-13.39624020771664
 20
4.953253456737705
 30
0.0
 10
-13.03447266539688
 20
4.716301620145249
 30
0.0
 10
-12.42295926024976
 20
4.067381186237919
 30
0.0
 10
-12.17223454249322
 20
3.655521322760895
 30
0.0
 10
-11.9175657728857
 20
3.05902364119453
 30
0.0
 10
-11.85307760662573
 20
2.884860219673425
 30
0.0
 10
-11.7947945078496
 20
2.700767769423559
 30
0.0
  0
ELLIPSE
  5
22E8
330
22DD
100
AcDbEntity
  8
0
100
AcDbEllipse
 10
-12.26157709158494
 20
-0.0000727970894211
 30
0.0
 11
7.424621202458751
 21
0.0000000000000028
 31
0.0
210
0.0
220
0.0
230
1.0
 40
0.7071067811865472
 41
2.379229803781927
 42
3.903955503397659
  0
SPLINE
  5
22E9
330
22DD
100
AcDbEntity
  8
0
100
AcDbSpline
210
0.0
220
0.0
230
1.0
 70
     8
 71
     3
 72
    18
 73
    14
 74
     0
 42
0.000000001
 43
0.0000000001
 40
0.9354645412963421
 40
0.9354645412963421
 40
0.9354645412963421
 40
0.9354645412963421
 40
0.9975586132509722
 40
0.9975586132509722
 40
1.164185799883979
 40
1.164185799883979
 40
1.330812986516987
 40
1.330812986516987
 40
1.562485139307318
 40
1.562485139307318
 40
1.794157292097649
 40
1.794157292097649
 40
1.870588405475398
 40
1.870588405475398
 40
1.870588405475398
 40
1.870588405475398
 10
-11.7947945078496
 20
-2.700913363602401
 30
0.0
 10
-11.85307760662573
 20
-2.885005813852268
 30
0.0
 10
-11.9175657728857
 20
-3.059169235373373
 30
0.0
 10
-12.17223454249322
 20
-3.655666916939739
 30
0.0
 10
-12.42295926024976
 20
-4.067526780416764
 30
0.0
 10
-13.03447266539688
 20
-4.716447214324094
 30
0.0
 10
-13.39624020771664
 20
-4.953399050916548
 30
0.0
 10
-14.27677504245408
 20
-5.278982942235663
 30
0.0
 10
-14.88055441583926
 20
-5.303728450423753
 30
0.0
 10
-16.0803497197347
 20
-4.971218058952032
 30
0.0
 10
-16.67452940779537
 20
-4.614115709519344
 30
0.0
 10
-17.32647922855145
 20
-3.987351790564588
 30
0.0
 10
-17.48330647940238
 20
-3.814412902062041
 30
0.0
 10
-17.63110896217785
 20
-3.625891841849318
 30
0.0
  0
ELLIPSE
  5
22EA
330
22DD
100
AcDbEntity
  8
0
100
AcDbEllipse
 10
-16.19148511611699
 20
-0.0000727970894224
 30
0.0
 11
0.0000000000000037
 21
-5.249999999999999
 31
0.0
210
0.0
220
0.0
230
1.0
 40
0.7071067811865472
 41
0.2003600924165426
 42
2.941232561173249
  0
ELLIPSE
  5
22EB
330
22DD
100
AcDbEntity
  8
0
100
AcDbEllipse
 10
-17.60569867849008
 20
-0.0000727970894238
 30
0.0
 11
0.0000000000000026
 21
-3.250000000000001
 31
0.0
210
0.0
220
0.0
230
1.0
 40
0.7071067811865471
 41
6.012156548230694
 42
9.695806719718245
  0
ELLIPSE
  5
22EC
330
22DD
100
AcDbEntity
  8
0
100
AcDbEllipse
 10
-12.8421956402758
 20
-12.84219564027582
 30
0.0
 11
5.25
 21
5.250000000000004
 31
0.0
210
0.0
220
0.0
230
1.0
 40
0.7071067811865475
 41
5.742824037549548
 42
6.823546576809625
  0
SPLINE
  5
22ED
330
22DD
100
AcDbEntity
  8
0
100
AcDbSpline
210
0.0
220
0.0
230
1.0
 70
     8
 71
     3
 72
    19
 73
    15
 74
     0
 42
0.000000001
 43
0.0000000001
 40
-0.5397754188291986
 40
-0.5397754188291986
 40
-0.5397754188291986
 40
-0.5397754188291986
 40
-0.4633443055806628
 40
-0.4633443055806628
 40
-0.2316721527903311
 40
-0.2316721527903311
 40
0.0
 40
0.0
 40
0.0
 40
0.1666271866330078
 40
0.1666271866330078
 40
0.3332543732660155
 40
0.3332543732660155
 40
0.3953484452206448
 40
0.3953484452206448
 40
0.3953484452206448
 40
0.3953484452206448
 10
-15.03093926267375
 20
-9.903256794863661
 30
0.0
 10
-15.05973164492422
 20
-9.665440136743253
 30
0.0
 10
-15.07112429313191
 20
-9.432260263222275
 30
0.0
 10
-15.05331517118537
 20
-8.528073107055533
 30
0.0
 10
-14.88567617737587
 20
-7.855415127523023
 30
0.0
 10
-14.27241313458027
 20
-6.771911379478133
 30
0.0
 10
-13.82797892867534
 20
-6.362472606860619
 30
0.0
 10
-13.33191310132996
 20
-6.134226255207504
 30
0.0
 10
-12.97512419856467
 20
-5.970063031543645
 30
0.0
 10
-12.55176566570805
 20
-5.881804999625286
 30
0.0
 10
-11.66050435087565
 20
-5.908255763325668
 30
0.0
 10
-11.19198630037575
 20
-6.022195517552106
 30
0.0
 10
-10.59012073083221
 20
-6.26390505920383
 30
0.0
 10
-10.42136857477127
 20
-6.341457175927339
 30
0.0
 10
-10.24998318046118
 20
-6.430417821491097
 30
0.0
  0
ELLIPSE
  5
22EE
330
22DD
100
AcDbEntity
  8
0
100
AcDbEllipse
 10
-8.670265631275167
 20
-8.670265631275182
 30
0.0
 11
5.25
 21
5.250000000000004
 31
0.0
210
0.0
220
0.0
230
1.0
 40
0.7071067811865475
 41
2.379229803781926
 42
3.903955503397659
  0
SPLINE
  5
22EF
330
22DD
100
AcDbEntity
  8
0
100
AcDbSpline
210
0.0
220
0.0
230
1.0
 70
     8
 71
     3
 72
    18
 73
    14
 74
     0
 42
0.000000001
 43
0.0000000001
 40
0.9354645412963421
 40
0.9354645412963421
 40
0.9354645412963421
 40
0.9354645412963421
 40
0.997558613250972
 40
0.997558613250972
 40
1.164185799883979
 40
1.164185799883979
 40
1.330812986516987
 40
1.330812986516987
 40
1.562485139307318
 40
1.562485139307318
 40
1.794157292097649
 40
1.794157292097649
 40
1.870588405475398
 40
1.870588405475398
 40
1.870588405475398
 40
1.870588405475398
 10
-6.430417821491087
 20
-10.24998318046119
 30
0.0
 10
-6.341457175927328
 20
-10.42136857477128
 30
0.0
 10
-6.263905059203819
 20
-10.59012073083222
 30
0.0
 10
-6.022195517552093
 20
-11.19198630037576
 30
0.0
 10
-5.908255763325653
 20
-11.66050435087566
 30
0.0
 10
-5.881804999625272
 20
-12.55176566570806
 30
0.0
 10
-5.970063031543627
 20
-12.97512419856468
 30
0.0
 10
-6.362472606860602
 20
-13.82797892867535
 30
0.0
 10
-6.77191137947812
 20
-14.27241313458029
 30
0.0
 10
-7.855415127523011
 20
-14.88567617737588
 30
0.0
 10
-8.528073107055517
 20
-15.05331517118538
 30
0.0
 10
-9.432260263601456
 20
-15.0711242931394
 30
0.0
 10
-9.66544013694401
 20
-15.05973164489993
 30
0.0
 10
-9.90325679486364
 20
-15.03093926267377
 30
0.0
  0
ELLIPSE
  5
22F0
330
22DD
100
AcDbEntity
  8
0
100
AcDbEllipse
 10
-11.44913024486121
 20
-11.44913024486123
 30
0.0
 11
3.712310601229374
 21
-3.712310601229371
 31
0.0
210
0.0
220
0.0
230
1.0
 40
0.7071067811865474
 41
0.200360092416543
 42
2.941232561173251
  0
ELLIPSE
  5
22F1
330
22DD
100
AcDbEntity
  8
0
100
AcDbEllipse
 10
-12.44913024486121
 20
-12.44913024486123
 30
0.0
 11
2.298097038856281
 21
-2.29809703885628
 31
0.0
210
0.0
220
0.0
230
0.9999999999999998
 40
0.7071067811865472
 41
6.012156548230699
 42
9.695806719718243
  0
ELLIPSE
  5
22F2
330
22DD
100
AcDbEntity
  8
0
100
AcDbEllipse
 10
-0.0000727970894065
 20
-18.16157709158495
 30
0.0
 11
-0.0000000000000028
 21
7.424621202458751
 31
0.0
210
0.0
220
0.0
230
1.0
 40
0.7071067811865472
 41
5.742824037549548
 42
6.823546576809624
  0
SPLINE
  5
22F3
330
22DD
100
AcDbEntity
  8
0
100
AcDbSpline
210
0.0
220
0.0
230
1.0
 70
     8
 71
     3
 72
    19
 73
    15
 74
     0
 42
0.000000001
 43
0.0000000001
 40
-0.5397754188291986
 40
-0.5397754188291986
 40
-0.5397754188291986
 40
-0.5397754188291986
 40
-0.4633443055806623
 40
-0.4633443055806623
 40
-0.2316721527903311
 40
-0.2316721527903311
 40
0.0
 40
0.0
 40
0.0
 40
0.1666271866330077
 40
0.1666271866330077
 40
0.3332543732660153
 40
0.3332543732660153
 40
0.3953484452206451
 40
0.3953484452206451
 40
0.3953484452206451
 40
0.3953484452206451
 10
-3.625891841849294
 20
-17.63110896217785
 30
0.0
 10
-3.81441290222118
 20
-17.48330647927761
 30
0.0
 10
-3.987351790827424
 20
-17.32647922827804
 30
0.0
 10
-4.614115709519326
 20
-16.67452940779537
 30
0.0
 10
-4.971218058952016
 20
-16.08034971973471
 30
0.0
 10
-5.303728450423738
 20
-14.88055441583927
 30
0.0
 10
-5.278982942235648
 20
-14.27677504245409
 30
0.0
 10
-5.089605974839822
 20
-13.76460898898825
 30
0.0
 10
-4.953399050916535
 20
-13.39624020771664
 30
0.0
 10
-4.71644721432408
 20
-13.03447266539689
 30
0.0
 10
-4.06752678041675
 20
-12.42295926024976
 30
0.0
 10
-3.655666916939725
 20
-12.17223454249322
 30
0.0
 10
-3.05916923537336
 20
-11.91756577288571
 30
0.0
 10
-2.885005813852256
 20
-11.85307760662573
 30
0.0
 10
-2.70091336360239
 20
-11.7947945078496
 30
0.0
  0
ELLIPSE
  5
22F4
330
22DD
100
AcDbEntity
  8
0
100
AcDbEllipse
 10
-0.0000727970894074
 20
-12.26157709158494
 30
0.0
 11
-0.0000000000000028
 21
7.424621202458751
 31
0.0
210
0.0
220
0.0
230
1.0
 40
0.7071067811865472
 41
2.379229803781928
 42
3.903955503397657
  0
SPLINE
  5
22F5
330
22DD
100
AcDbEntity
  8
0
100
AcDbSpline
210
0.0
220
0.0
230
1.0
 70
     8
 71
     3
 72
    18
 73
    14
 74
     0
 42
0.000000001
 43
0.0000000001
 40
0.9354645412963423
 40
0.9354645412963423
 40
0.9354645412963423
 40
0.9354645412963423
 40
0.9975586132509722
 40
0.9975586132509722
 40
1.164185799883979
 40
1.164185799883979
 40
1.330812986516987
 40
1.330812986516987
 40
1.562485139307318
 40
1.562485139307318
 40
1.794157292097649
 40
1.794157292097649
 40
1.870588405475399
 40
1.870588405475399
 40
1.870588405475399
 40
1.870588405475399
 10
2.700767769423574
 20
-11.7947945078496
 30
0.0
 10
2.884860219673441
 20
-11.85307760662573
 30
0.0
 10
3.059023641194545
 20
-11.91756577288571
 30
0.0
 10
3.655521322760909
 20
-12.17223454249322
 30
0.0
 10
4.067381186237933
 20
-12.42295926024976
 30
0.0
 10
4.716301620145263
 20
-13.03447266539688
 30
0.0
 10
4.953253456737719
 20
-13.39624020771664
 30
0.0
 10
5.278837348056835
 20
-14.27677504245409
 30
0.0
 10
5.303582856244926
 20
-14.88055441583926
 30
0.0
 10
4.971072464773204
 20
-16.08034971973471
 30
0.0
 10
4.613970115340515
 20
-16.67452940779537
 30
0.0
 10
3.987206196385759
 20
-17.32647922855145
 30
0.0
 10
3.814267307883207
 20
-17.48330647940239
 30
0.0
 10
3.625746247670483
 20
-17.63110896217785
 30
0.0
  0
ELLIPSE
  5
22F6
330
22DD
100
AcDbEntity
  8
0
100
AcDbEllipse
 10
-0.0000727970894071
 20
-16.191485116117
 30
0.0
 11
5.249999999999999
 21
0.0000000000000025
 31
0.0
210
0.0
220
0.0
230
1.0
 40
0.7071067811865472
 41
0.200360092416543
 42
2.941232561173249
  0
ELLIPSE
  5
22F7
330
22DD
100
AcDbEntity
  8
0
100
AcDbEllipse
 10
-0.000072797089406
 20
-17.60569867849009
 30
0.0
 11
3.25
 21
0.0000000000000018
 31
0.0
210
0.0
220
0.0
230
1.0
 40
0.7071067811865474
 41
6.012156548230694
 42
9.695806719718245
  0
ELLIPSE
  5
22F8
330
22DD
100
AcDbEntity
  8
0
100
AcDbEllipse
 10
12.84205004609699
 20
-12.8421956402758
 30
0.0
 11
-5.250000000000004
 21
5.25
 31
0.0
210
0.0
220
0.0
230
1.0
 40
0.7071067811865475
 41
5.742824037549548
 42
6.823546576809625
  0
SPLINE
  5
22F9
330
22DD
100
AcDbEntity
  8
0
100
AcDbSpline
210
0.0
220
0.0
230
1.0
 70
     8
 71
     3
 72
    19
 73
    15
 74
     0
 42
0.000000001
 43
0.0000000001
 40
-0.539775418829199
 40
-0.539775418829199
 40
-0.539775418829199
 40
-0.539775418829199
 40
-0.4633443055806628
 40
-0.4633443055806628
 40
-0.2316721527903311
 40
-0.2316721527903311
 40
0.0
 40
0.0
 40
0.0
 40
0.1666271866330078
 40
0.1666271866330078
 40
0.3332543732660155
 40
0.3332543732660155
 40
0.3953484452206449
 40
0.3953484452206449
 40
0.3953484452206449
 40
0.3953484452206449
 10
9.903111200684838
 20
-15.03093926267375
 30
0.0
 10
9.665294542564428
 20
-15.05973164492422
 30
0.0
 10
9.432114669043448
 20
-15.07112429313192
 30
0.0
 10
8.527927512876704
 20
-15.05331517118538
 30
0.0
 10
7.855269533344194
 20
-14.88567617737587
 30
0.0
 10
6.771765785299304
 20
-14.27241313458027
 30
0.0
 10
6.362327012681791
 20
-13.82797892867534
 30
0.0
 10
6.134080661028676
 20
-13.33191310132997
 30
0.0
 10
5.969917437364816
 20
-12.97512419856467
 30
0.0
 10
5.881659405446457
 20
-12.55176566570805
 30
0.0
 10
5.908110169146839
 20
-11.66050435087565
 30
0.0
 10
6.022049923373278
 20
-11.19198630037575
 30
0.0
 10
6.263759465025
 20
-10.59012073083221
 30
0.0
 10
6.341311581748509
 20
-10.42136857477128
 30
0.0
 10
6.430272227312268
 20
-10.24998318046118
 30
0.0
  0
ELLIPSE
  5
22FA
330
22DD
100
AcDbEntity
  8
0
100
AcDbEllipse
 10
8.670120037096355
 20
-8.670265631275173
 30
0.0
 11
-5.250000000000004
 21
5.25
 31
0.0
210
0.0
220
0.0
230
1.0
 40
0.7071067811865475
 41
2.379229803781927
 42
3.903955503397658
  0
SPLINE
  5
22FB
330
22DD
100
AcDbEntity
  8
0
100
AcDbSpline
210
0.0
220
0.0
230
1.0
 70
     8
 71
     3
 72
    18
 73
    14
 74
     0
 42
0.000000001
 43
0.0000000001
 40
0.9354645412963421
 40
0.9354645412963421
 40
0.9354645412963421
 40
0.9354645412963421
 40
0.997558613250972
 40
0.997558613250972
 40
1.164185799883979
 40
1.164185799883979
 40
1.330812986516987
 40
1.330812986516987
 40
1.562485139307318
 40
1.562485139307318
 40
1.794157292097649
 40
1.794157292097649
 40
1.870588405475398
 40
1.870588405475398
 40
1.870588405475398
 40
1.870588405475398
 10
10.24983758628236
 20
-6.430417821491092
 30
0.0
 10
10.42122298059246
 20
-6.341457175927331
 30
0.0
 10
10.58997513665339
 20
-6.263905059203822
 30
0.0
 10
11.19184070619693
 20
-6.022195517552098
 30
0.0
 10
11.66035875669683
 20
-5.90825576332566
 30
0.0
 10
12.55162007152923
 20
-5.881804999625276
 30
0.0
 10
12.97497860438586
 20
-5.970063031543632
 30
0.0
 10
13.82783333449653
 20
-6.362472606860606
 30
0.0
 10
14.27226754040146
 20
-6.771911379478124
 30
0.0
 10
14.88553058319705
 20
-7.855415127523014
 30
0.0
 10
15.05316957700656
 20
-8.52807310705552
 30
0.0
 10
15.07097869896057
 20
-9.432260263601463
 30
0.0
 10
15.05958605072109
 20
-9.665440136944019
 30
0.0
 10
15.03079366849493
 20
-9.903256794863647
 30
0.0
  0
ELLIPSE
  5
22FC
330
22DD
100
AcDbEntity
  8
0
100
AcDbEllipse
 10
11.4489846506824
 20
-11.44913024486122
 30
0.0
 11
3.712310601229372
 21
3.712310601229373
 31
0.0
210
0.0
220
0.0
230
1.0
 40
0.7071067811865475
 41
0.2003600924165424
 42
2.941232561173252
  0
ELLIPSE
  5
22FD
330
22DD
100
AcDbEntity
  8
0
100
AcDbEllipse
 10
12.4489846506824
 20
-12.44913024486122
 30
0.0
 11
2.298097038856279
 21
2.298097038856281
 31
0.0
210
0.0
220
0.0
230
0.9999999999999998
 40
0.7071067811865474
 41
6.012156548230699
 42
9.695806719718243
  0
ELLIPSE
  5
22FE
330
22DD
100
AcDbEntity
  8
0
100
AcDbEllipse
 10
18.16143149740612
 20
-0.0000727970894125
 30
0.0
 11
-7.424621202458751
 21
-0.0000000000000016
 31
0.0
210
0.0
220
0.0
230
1.0
 40
0.7071067811865474
 41
5.742824037549548
 42
6.823546576809624
  0
SPLINE
  5
22FF
330
22DD
100
AcDbEntity
  8
0
100
AcDbSpline
210
0.0
220
0.0
230
1.0
 70
     8
 71
     3
 72
    19
 73
    15
 74
     0
 42
0.000000001
 43
0.0000000001
 40
-0.5397754188291987
 40
-0.5397754188291987
 40
-0.5397754188291987
 40
-0.5397754188291987
 40
-0.4633443055806628
 40
-0.4633443055806628
 40
-0.2316721527903316
 40
-0.2316721527903316
 40
0.0
 40
0.0
 40
0.0
 40
0.1666271866330077
 40
0.1666271866330077
 40
0.3332543732660153
 40
0.3332543732660153
 40
0.395348445220645
 40
0.395348445220645
 40
0.395348445220645
 40
0.395348445220645
 10
17.63096336799902
 20
-3.625891841849306
 30
0.0
 10
17.48316088509878
 20
-3.814412902221191
 30
0.0
 10
17.32633363409921
 20
-3.987351790827432
 30
0.0
 10
16.67438381361654
 20
-4.614115709519333
 30
0.0
 10
16.08020412555587
 20
-4.971218058952024
 30
0.0
 10
14.88040882166043
 20
-5.303728450423744
 30
0.0
 10
14.27662944827526
 20
-5.278982942235654
 30
0.0
 10
13.76446339480942
 20
-5.089605974839828
 30
0.0
 10
13.39609461353781
 20
-4.953399050916539
 30
0.0
 10
13.03432707121805
 20
-4.716447214324085
 30
0.0
 10
12.42281366607093
 20
-4.067526780416754
 30
0.0
 10
12.17208894831439
 20
-3.65566691693973
 30
0.0
 10
11.91742017870688
 20
-3.059169235373365
 30
0.0
 10
11.8529320124469
 20
-2.885005813852262
 30
0.0
 10
11.79464891367077
 20
-2.700913363602396
 30
0.0
  0
ELLIPSE
  5
2300
330
22DD
100
AcDbEntity
  8
0
100
AcDbEllipse
 10
12.26143149740611
 20
-0.0000727970894138
 30
0.0
 11
-7.424621202458751
 21
-0.0000000000000016
 31
0.0
210
0.0
220
0.0
230
1.0
 40
0.7071067811865474
 41
2.379229803781926
 42
3.903955503397658
  0
SPLINE
  5
2301
330
22DD
100
AcDbEntity
  8
0
100
AcDbSpline
210
0.0
220
0.0
230
1.0
 70
     8
 71
     3
 72
    18
 73
    14
 74
     0
 42
0.000000001
 43
0.0000000001
 40
0.9354645412963424
 40
0.9354645412963424
 40
0.9354645412963424
 40
0.9354645412963424
 40
0.9975586132509722
 40
0.9975586132509722
 40
1.164185799883979
 40
1.164185799883979
 40
1.330812986516987
 40
1.330812986516987
 40
1.562485139307318
 40
1.562485139307318
 40
1.79415729209765
 40
1.79415729209765
 40
1.870588405475399
 40
1.870588405475399
 40
1.870588405475399
 40
1.870588405475399
 10
11.79464891367077
 20
2.700767769423568
 30
0.0
 10
11.8529320124469
 20
2.884860219673434
 30
0.0
 10
11.91742017870688
 20
3.059023641194538
 30
0.0
 10
12.17208894831439
 20
3.655521322760901
 30
0.0
 10
12.42281366607093
 20
4.067381186237925
 30
0.0
 10
13.03432707121805
 20
4.716301620145257
 30
0.0
 10
13.39609461353781
 20
4.953253456737711
 30
0.0
 10
14.27662944827525
 20
5.278837348056827
 30
0.0
 10
14.88040882166043
 20
5.303582856244918
 30
0.0
 10
16.08020412555588
 20
4.971072464773198
 30
0.0
 10
16.67438381361654
 20
4.613970115340509
 30
0.0
 10
17.32633363437262
 20
3.987206196385752
 30
0.0
 10
17.48316088522356
 20
3.814267307883207
 30
0.0
 10
17.63096336799902
 20
3.62574624767048
 30
0.0
  0
ELLIPSE
  5
2302
330
22DD
100
AcDbEntity
  8
0
100
AcDbEllipse
 10
16.19133952193817
 20
-0.0000727970894129
 30
0.0
 11
-0.0000000000000015
 21
5.249999999999998
 31
0.0
210
0.0
220
0.0
230
1.0
 40
0.7071067811865474
 41
0.2003600924165419
 42
2.941232561173251
  0
ELLIPSE
  5
2303
330
22DD
100
AcDbEntity
  8
0
100
AcDbEllipse
 10
17.60555308431126
 20
-0.0000727970894126
 30
0.0
 11
-0.0000000000000006
 21
3.25
 31
0.0
210
0.0
220
0.0
230
1.0
 40
0.7071067811865475
 41
6.0121565482307
 42
9.695806719718245
  0
ELLIPSE
  5
2304
330
22DD
100
AcDbEntity
  8
0
100
AcDbEllipse
 10
12.44898465068239
 20
12.44898465068239
 30
0.0
 11
-2.298097038856281
 21
2.29809703885628
 31
0.0
210
0.0
220
0.0
230
1.0
 40
0.7071067811865472
 41
6.012156548230697
 42
9.695806719718245
  0
ELLIPSE
  5
2305
330
22DD
100
AcDbEntity
  8
0
100
AcDbEllipse
 10
11.44898465068239
 20
11.44898465068239
 30
0.0
 11
-3.712310601229373
 21
3.712310601229372
 31
0.0
210
0.0
220
0.0
230
1.0
 40
0.7071067811865474
 41
0.200360092416542
 42
2.941232561173251
  0
ELLIPSE
  5
2306
330
22DD
100
AcDbEntity
  8
0
100
AcDbEllipse
 10
12.84205004609698
 20
12.84205004609698
 30
0.0
 11
-5.25
 21
-5.250000000000003
 31
0.0
210
0.0
220
0.0
230
1.0
 40
0.7071067811865475
 41
5.742824037549548
 42
6.823546576809624
  0
SPLINE
  5
2307
330
22DD
100
AcDbEntity
  8
0
100
AcDbSpline
210
0.0
220
0.0
230
1.0
 70
     8
 71
     3
 72
    19
 73
    15
 74
     0
 42
0.000000001
 43
0.0000000001
 40
-0.5397754188291979
 40
-0.5397754188291979
 40
-0.5397754188291979
 40
-0.5397754188291979
 40
-0.4633443055806623
 40
-0.4633443055806623
 40
-0.2316721527903311
 40
-0.2316721527903311
 40
0.0
 40
0.0
 40
0.0
 40
0.1666271866330076
 40
0.1666271866330076
 40
0.3332543732660152
 40
0.3332543732660152
 40
0.3953484452206451
 40
0.3953484452206451
 40
0.3953484452206451
 40
0.3953484452206451
 10
15.03079366849493
 20
9.903111200684824
 30
0.0
 10
15.0595860507454
 20
9.665294542564415
 30
0.0
 10
15.07097869895309
 20
9.432114669043439
 30
0.0
 10
15.05316957700655
 20
8.527927512876699
 30
0.0
 10
14.88553058319705
 20
7.855269533344191
 30
0.0
 10
14.27226754040145
 20
6.771765785299301
 30
0.0
 10
13.82783333449652
 20
6.362327012681786
 30
0.0
 10
13.33176750715114
 20
6.13408066102867
 30
0.0
 10
12.97497860438584
 20
5.969917437364812
 30
0.0
 10
12.55162007152922
 20
5.881659405446452
 30
0.0
 10
11.66035875669682
 20
5.908110169146834
 30
0.0
 10
11.19184070619692
 20
6.02204992337327
 30
0.0
 10
10.58997513665339
 20
6.263759465024993
 30
0.0
 10
10.42122298059245
 20
6.341311581748504
 30
0.0
 10
10.24983758628235
 20
6.430272227312264
 30
0.0
  0
ELLIPSE
  5
2308
330
22DD
100
AcDbEntity
  8
0
100
AcDbEllipse
 10
8.670120037096348
 20
8.670120037096346
 30
0.0
 11
-5.25
 21
-5.250000000000003
 31
0.0
210
0.0
220
0.0
230
1.0
 40
0.7071067811865475
 41
2.379229803781926
 42
3.903955503397659
  0
SPLINE
  5
2309
330
22DD
100
AcDbEntity
  8
0
100
AcDbSpline
210
0.0
220
0.0
230
1.0
 70
     8
 71
     3
 72
    18
 73
    14
 74
     0
 42
0.000000001
 43
0.0000000001
 40
0.9354645412963421
 40
0.9354645412963421
 40
0.9354645412963421
 40
0.9354645412963421
 40
0.9975586132509716
 40
0.9975586132509716
 40
1.164185799883979
 40
1.164185799883979
 40
1.330812986516986
 40
1.330812986516986
 40
1.562485139307318
 40
1.562485139307318
 40
1.794157292097649
 40
1.794157292097649
 40
1.870588405475398
 40
1.870588405475398
 40
1.870588405475398
 40
1.870588405475398
 10
6.430272227312263
 20
10.24983758628235
 30
0.0
 10
6.341311581748504
 20
10.42122298059245
 30
0.0
 10
6.263759465024993
 20
10.58997513665339
 30
0.0
 10
6.02204992337327
 20
11.19184070619692
 30
0.0
 10
5.908110169146834
 20
11.66035875669682
 30
0.0
 10
5.881659405446449
 20
12.55162007152922
 30
0.0
 10
5.969917437364809
 20
12.97497860438584
 30
0.0
 10
6.362327012681784
 20
13.82783333449652
 30
0.0
 10
6.771765785299299
 20
14.27226754040145
 30
0.0
 10
7.855269533344189
 20
14.88553058319705
 30
0.0
 10
8.527927512876697
 20
15.05316957700655
 30
0.0
 10
9.432114669422638
 20
15.07097869896056
 30
0.0
 10
9.665294542765195
 20
15.05958605072109
 30
0.0
 10
9.903111200684822
 20
15.03079366849493
 30
0.0
  0
ARC
  5
230A
330
22DD
100
AcDbEntity
  8
0
100
AcDbCircle
 10
-0.000072797089412
 20
-0.0000727970894165
 30
0.0
 40
18.0
100
AcDbArc
 50
101.6208508769733
 51
123.3791491230267
  0
ARC
  5
230B
330
22DD
100
AcDbEntity
  8
0
100
AcDbCircle
 10
-0.000072797089412
 20
-0.0000727970894165
 30
0.0
 40
17.99999999999999
100
AcDbArc
 50
56.62085087697334
 51
78.37914912302675
  0
ARC
  5
230C
330
22DD
100
AcDbEntity
  8
0
100
AcDbCircle
 10
-0.000072797089412
 20
-0.0000727970894165
 30
0.0
 40
18.0
100
AcDbArc
 50
11.62085087697326
 51
33.37914912302675
  0
ARC
  5
230D
330
22DD
100
AcDbEntity
  8
0
100
AcDbCircle
 10
-0.000072797089412
 20
-0.0000727970894165
 30
0.0
 40
17.99999999999999
100
AcDbArc
 50
326.6208508769734
 51
348.3791491230268
  0
ARC
  5
230E
330
22DD
100
AcDbEntity
  8
0
100
AcDbCircle
 10
-0.000072797089412
 20
-0.0000727970894165
 30
0.0
 40
17.99999999999999
100
AcDbArc
 50
281.6208508769733
 51
303.3791491230268
  0
ARC
  5
230F
330
22DD
100
AcDbEntity
  8
0
100
AcDbCircle
 10
-0.000072797089412
 20
-0.0000727970894165
 30
0.0
 40
18.0
100
AcDbArc
 50
236.6208508769733
 51
258.3791491230268
  0
ARC
  5
2310
330
22DD
100
AcDbEntity
  8
0
100
AcDbCircle
 10
-0.000072797089412
 20
-0.0000727970894165
 30
0.0
 40
18.0
100
AcDbArc
 50
191.6208508769732
 51
213.3791491230268
  0
ARC
  5
2311
330
22DD
100
AcDbEntity
  8
0
100
AcDbCircle
 10
-0.000072797089412
 20
-0.0000727970894165
 30
0.0
 40
17.99999999999999
100
AcDbArc
 50
146.6208508769733
 51
168.3791491230268
  0
ARC
  5
2312
330
22DD
100
AcDbEntity
  8
0
100
AcDbCircle
 10
-0.0000727970894133
 20
-0.0000727970894165
 30
0.0
 40
12.09999999999999
100
AcDbArc
 50
102.8976399143464
 51
122.1023600856536
  0
ARC
  5
2313
330
22DD
100
AcDbEntity
  8
0
100
AcDbCircle
 10
-0.0000727970894133
 20
-0.0000727970894165
 30
0.0
 40
12.09999999999999
100
AcDbArc
 50
57.8976399143464
 51
77.10236008565364
  0
ARC
  5
2314
330
22DD
100
AcDbEntity
  8
0
100
AcDbCircle
 10
-0.0000727970894133
 20
-0.0000727970894165
 30
0.0
 40
12.09999999999999
100
AcDbArc
 50
12.89763991434636
 51
32.10236008565364
  0
ARC
  5
2315
330
22DD
100
AcDbEntity
  8
0
100
AcDbCircle
 10
-0.0000727970894133
 20
-0.0000727970894165
 30
0.0
 40
12.09999999999999
100
AcDbArc
 50
327.8976399143464
 51
347.1023600856537
  0
ARC
  5
2316
330
22DD
100
AcDbEntity
  8
0
100
AcDbCircle
 10
-0.0000727970894133
 20
-0.0000727970894165
 30
0.0
 40
12.09999999999999
100
AcDbArc
 50
282.8976399143463
 51
302.1023600856537
  0
ARC
  5
2317
330
22DD
100
AcDbEntity
  8
0
100
AcDbCircle
 10
-0.0000727970894133
 20
-0.0000727970894165
 30
0.0
 40
12.09999999999999
100
AcDbArc
 50
237.8976399143464
 51
257.1023600856537
  0
ARC
  5
2318
330
22DD
100
AcDbEntity
  8
0
100
AcDbCircle
 10
-0.0000727970894133
 20
-0.0000727970894165
 30
0.0
 40
12.09999999999999
100
AcDbArc
 50
192.8976399143463
 51
212.1023600856536
  0
CIRCLE
  5
2319
330
22DD
100
AcDbEntity
  8
0
100
AcDbCircle
 10
-0.0000727970894115
 20
-0.0000727970894165
 30
0.0
 40
21.49999999999999
  0
ARC
  5
231A
330
22DD
100
AcDbEntity
  8
0
100
AcDbCircle
 10
-0.0000727970894133
 20
-0.0000727970894165
 30
0.0
 40
12.09999999999999
100
AcDbArc
 50
147.8976399143463
 51
167.1023600856536
  0
CIRCLE
  5
231B
330
22DD
100
AcDbEntity
  8
0
100
AcDbCircle
 10
-0.0000727970894133
 20
-0.0000727970894165
 30
0.0
 40
8.644999999999999
  0
ELLIPSE
  5
231C
330
22DD
100
AcDbEntity
  8
0
100
AcDbEllipse
 10
-0.0000727970894147
 20
12.26143149740611
 30
0.0
 11
0.0000000000000016
 21
-7.424621202458751
 31
0.0
210
0.0
220
0.0
230
1.0
 40
0.7071067811865474
 41
2.379229803781926
 42
3.903955503397659
  0
SPLINE
  5
231D
330
22DD
100
AcDbEntity
  8
0
100
AcDbSpline
210
0.0
220
0.0
230
1.0
 70
     8
 71
     3
 72
    18
 73
    14
 74
     0
 42
0.000000001
 43
0.0000000001
 40
0.9354645412963423
 40
0.9354645412963423
 40
0.9354645412963423
 40
0.9354645412963423
 40
0.9975586132509718
 40
0.9975586132509718
 40
1.164185799883979
 40
1.164185799883979
 40
1.330812986516987
 40
1.330812986516987
 40
1.562485139307318
 40
1.562485139307318
 40
1.794157292097649
 40
1.794157292097649
 40
1.870588405475398
 40
1.870588405475398
 40
1.870588405475398
 40
1.870588405475398
 10
-2.700913363602401
 20
11.79464891367077
 30
0.0
 10
-2.885005813852266
 20
11.8529320124469
 30
0.0
 10
-3.059169235373368
 20
11.91742017870687
 30
0.0
 10
-3.655666916939732
 20
12.17208894831439
 30
0.0
 10
-4.067526780416757
 20
12.42281366607092
 30
0.0
 10
-4.716447214324086
 20
13.03432707121805
 30
0.0
 10
-4.953399050916541
 20
13.3960946135378
 30
0.0
 10
-5.278982942235655
 20
14.27662944827525
 30
0.0
 10
-5.303728450423747
 20
14.88040882166043
 30
0.0
 10
-4.971218058952027
 20
16.08020412555587
 30
0.0
 10
-4.614115709519338
 20
16.67438381361654
 30
0.0
 10
-3.987351790564582
 20
17.32633363437261
 30
0.0
 10
-3.814412902062037
 20
17.48316088522355
 30
0.0
 10
-3.625891841849314
 20
17.63096336799901
 30
0.0
  0
SPLINE
  5
231E
330
22DD
100
AcDbEntity
  8
0
100
AcDbSpline
210
0.0
220
0.0
230
1.0
 70
     8
 71
     3
 72
    19
 73
    15
 74
     0
 42
0.000000001
 43
0.0000000001
 40
-0.5397754188291984
 40
-0.5397754188291984
 40
-0.5397754188291984
 40
-0.5397754188291984
 40
-0.4633443055806628
 40
-0.4633443055806628
 40
-0.2316721527903316
 40
-0.2316721527903316
 40
0.0
 40
0.0
 40
0.0
 40
0.1666271866330076
 40
0.1666271866330076
 40
0.3332543732660152
 40
0.3332543732660152
 40
0.3953484452206448
 40
0.3953484452206448
 40
0.3953484452206448
 40
0.3953484452206448
 10
3.625746247670482
 20
17.63096336799901
 30
0.0
 10
3.814267308042367
 20
17.48316088509877
 30
0.0
 10
3.987206196648604
 20
17.3263336340992
 30
0.0
 10
4.613970115340505
 20
16.67438381361654
 30
0.0
 10
4.971072464773198
 20
16.08020412555587
 30
0.0
 10
5.303582856244916
 20
14.88040882166043
 30
0.0
 10
5.278837348056825
 20
14.27662944827525
 30
0.0
 10
5.089460380660999
 20
13.76446339480941
 30
0.0
 10
4.95325345673771
 20
13.3960946135378
 30
0.0
 10
4.716301620145255
 20
13.03432707121805
 30
0.0
 10
4.067381186237925
 20
12.42281366607092
 30
0.0
 10
3.6555213227609
 20
12.17208894831439
 30
0.0
 10
3.059023641194536
 20
11.91742017870687
 30
0.0
 10
2.884860219673434
 20
11.8529320124469
 30
0.0
 10
2.700767769423569
 20
11.79464891367077
 30
0.0
  0
ELLIPSE
  5
231F
330
22DD
100
AcDbEntity
  8
0
100
AcDbEllipse
 10
-0.0000727970894171
 20
17.60555308431126
 30
0.0
 11
-3.250000000000001
 21
-0.0000000000000016
 31
0.0
210
0.0
220
0.0
230
1.0
 40
0.7071067811865474
 41
6.012156548230696
 42
9.695806719718245
  0
ELLIPSE
  5
2320
330
22DD
100
AcDbEntity
  8
0
100
AcDbEllipse
 10
-0.0000727970894165
 20
16.19133952193816
 30
0.0
 11
-5.249999999999998
 21
-0.0000000000000022
 31
0.0
210
0.0
220
0.0
230
1.0
 40
0.7071067811865474
 41
0.200360092416541
 42
2.941232561173249
  0
ELLIPSE
  5
2321
330
22DD
100
AcDbEntity
  8
0
100
AcDbEllipse
 10
-0.0000727970894174
 20
18.16143149740612
 30
0.0
 11
0.0000000000000016
 21
-7.424621202458751
 31
0.0
210
0.0
220
0.0
230
1.0
 40
0.7071067811865474
 41
5.742824037549548
 42
6.823546576809624
  0
CIRCLE
  5
2322
330
22DD
100
AcDbEntity
  8
0
100
AcDbCircle
 10
-0.0000727970894118
 20
-0.0000727970894165
 30
0.0
 40
25.0
  0
CIRCLE
  5
2323
330
22DD
100
AcDbEntity
  8
0
100
AcDbCircle
 10
-0.0000727970894115
 20
-0.0000727970894165
 30
0.0
 40
24.0
  0
ARC
  5
2324
330
22DD
100
AcDbEntity
  8
0
100
AcDbCircle
 10
-0.000072797089414
 20
-0.0000727970894177
 30
0.0
 40
9.456898999999999
100
AcDbArc
 50
190.000000000049
 51
99.99999999999813
  0
ENDBLK
  5
22DF
330
22DD
100
AcDbEntity
  8
0
100
AcDbBlockEnd
  0
BLOCK
  5
2326
330
2325
100
AcDbEntity
  8
0
100
AcDbBlockBegin
  2
CCS50-C-Bottom
 70
     0
 10
0.0
 20
0.0
 30
0.0
  3
CCS50-C-Bottom
  1

  0
CIRCLE
  5
2328
330
2325
100
AcDbEntity
  8
0
100
AcDbCircle
 10
-0.0000727970894169
 20
0.0000727970894165
 30
0.0
 40
25.0
  0
CIRCLE
  5
2329
330
2325
100
AcDbEntity
  8
0
100
AcDbCircle
 10
-0.0000727970894171
 20
0.0000727970894165
 30
0.0
 40
24.0
  0
CIRCLE
  5
232A
330
2325
100
AcDbEntity
  8
0
100
AcDbCircle
 10
-0.0000727970894171
 20
0.0000727970894165
 30
0.0
 40
8.644999999999999
  0
ARC
  5
232B
330
2325
100
AcDbEntity
  8
0
100
AcDbCircle
 10
-0.0000727970894178
 20
0.0000727970894177
 30
0.0
 40
9.456898999999999
100
AcDbArc
 50
260.0000000000018
 51
169.9999999999509
  0
ENDBLK
  5
2327
330
2325
100
AcDbEntity
  8
0
100
AcDbBlockEnd
  0
BLOCK
  5
232D
330
232C
100
AcDbEntity
  8
0
100
AcDbBlockBegin
  2
CCS50-C-ISO
 70
     0
 10
0.0
 20
0.0
 30
0.0
  3
CCS50-C-ISO
  1

  0
ELLIPSE
  5
232F
330
232C
100
AcDbEntity
  8
0
100
AcDbEllipse
 10
-0.0000514753155925
 20
14.15975428820301
 30
0.0
 11
-5.250000000000001
 21
-0.0000000000000003
 31
0.0
210
0.0
220
0.0
230
1.0
 40
0.816496580927726
 41
1.030435057164859
 42
2.111157596424936
  0
SPLINE
  5
2330
330
232C
100
AcDbEntity
  8
0
100
AcDbSpline
210
0.0
220
0.0
230
1.0
 70
     8
 71
     3
 72
    19
 73
    15
 74
     0
 42
0.000000001
 43
0.0000000001
 40
-0.5397754188291991
 40
-0.5397754188291991
 40
-0.5397754188291991
 40
-0.5397754188291991
 40
-0.4633443055806628
 40
-0.4633443055806628
 40
-0.2316721527903311
 40
-0.2316721527903311
 40
0.0
 40
0.0
 40
0.0
 40
0.1666271866330078
 40
0.1666271866330078
 40
0.3332543732660155
 40
0.3332543732660155
 40
0.3953484452206449
 40
0.3953484452206449
 40
0.3953484452206449
 40
0.3953484452206449
 10
3.625767569444302
 20
18.67081819836689
 30
0.0
 10
3.814288629816189
 20
18.49828402674082
 30
0.0
 10
3.987227518422431
 20
18.3139010155579
 30
0.0
 10
4.613991437114332
 20
17.54010629826721
 30
0.0
 10
4.971093786547021
 20
16.81820788541985
 30
0.0
 10
5.303604178018743
 20
15.28125282483778
 30
0.0
 10
5.27885866983065
 20
14.46547792572975
 30
0.0
 10
5.089481702434826
 20
13.72392545096734
 30
0.0
 10
4.953274778511536
 20
13.19057346574953
 30
0.0
 10
4.716322941919082
 20
12.63657431738085
 30
0.0
 10
4.06740250801175
 20
11.63870545090946
 30
0.0
 10
3.655542644534727
 20
11.19481687718358
 30
0.0
 10
3.059044962968361
 20
10.72057897518441
 30
0.0
 10
2.88488154144726
 20
10.59747861861032
 30
0.0
 10
2.700789091197395
 20
10.48389064961158
 30
0.0
  0
ELLIPSE
  5
2331
330
232C
100
AcDbEntity
  8
0
100
AcDbEllipse
 10
-0.0000514753155896
 20
15.5707175274578
 30
0.0
 11
-5.250000000000001
 21
-0.0000000000000003
 31
0.0
210
0.0
220
0.0
230
1.0
 40
0.816496580927726
 41
3.950026130576825
 42
5.474751830192555
  0
SPLINE
  5
2332
330
232C
100
AcDbEntity
  8
0
100
AcDbSpline
210
0.0
220
0.0
230
1.0
 70
     8
 71
     3
 72
    18
 73
    14
 74
     0
 42
0.000000001
 43
0.0000000001
 40
0.9354645412963421
 40
0.9354645412963421
 40
0.9354645412963421
 40
0.9354645412963421
 40
0.997558613250972
 40
0.997558613250972
 40
1.164185799883979
 40
1.164185799883979
 40
1.330812986516987
 40
1.330812986516987
 40
1.562485139307318
 40
1.562485139307318
 40
1.794157292097649
 40
1.794157292097649
 40
1.870588405475398
 40
1.870588405475398
 40
1.870588405475398
 40
1.870588405475398
 10
-2.700892041828569
 20
10.48389064961158
 30
0.0
 10
-2.884984492078435
 20
10.59747861861032
 30
0.0
 10
-3.05914791359954
 20
10.72057897518441
 30
0.0
 10
-3.655645595165906
 20
11.19481687718359
 30
0.0
 10
-4.067505458642928
 20
11.63870545090946
 30
0.0
 10
-4.71642589255026
 20
12.63657431738085
 30
0.0
 10
-4.953377729142719
 20
13.19057346574953
 30
0.0
 10
-5.278961620461832
 20
14.46547792572975
 30
0.0
 10
-5.303707128649922
 20
15.28125282483778
 30
0.0
 10
-4.971196737178202
 20
16.81820788541985
 30
0.0
 10
-4.614094387745515
 20
17.54010629826722
 30
0.0
 10
-3.987330468790757
 20
18.31390101588242
 30
0.0
 10
-3.81439158028821
 20
18.49828402688648
 30
0.0
 10
-3.625870520075486
 20
18.67081819836688
 30
0.0
  0
ELLIPSE
  5
2333
330
232C
100
AcDbEntity
  8
0
100
AcDbEllipse
 10
-0.00005147531559
 20
14.63089451792099
 30
0.0
 11
5.249999999999996
 21
-0.000000000000026
 31
0.0
210
0.0
220
0.0
230
1.0
 40
0.9855985596534889
 41
0.0351197868946629
 42
3.106472866695138
  0
SPLINE
  5
2334
330
232C
100
AcDbEntity
  8
0
100
AcDbSpline
210
0.0
220
0.0
230
1.0
 70
     8
 71
     3
 72
    22
 73
    18
 74
     0
 42
0.000000001
 43
0.0000000001
 40
1.332536535795324
 40
1.332536535795324
 40
1.332536535795324
 40
1.332536535795324
 40
1.394262357857971
 40
1.394262357857971
 40
1.564711385593759
 40
1.564711385593759
 40
1.684767082001418
 40
1.684767082001418
 40
1.804822778409076
 40
1.804822778409076
 40
1.924878474816735
 40
1.924878474816735
 40
2.044934171224394
 40
2.044934171224394
 40
2.215383198960182
 40
2.215383198960182
 40
2.277109021022826
 40
2.277109021022826
 40
2.277109021022826
 40
2.277109021022826
 10
3.148374672607579
 20
13.50031494395162
 30
0.0
 10
3.108745990799755
 20
13.67907710012292
 30
0.0
 10
3.056859672638498
 20
13.85797458215377
 30
0.0
 10
2.811282610005045
 20
14.51891250670647
 30
0.0
 10
2.528549496724829
 20
14.97968961719799
 30
0.0
 10
1.900860341514531
 20
15.61153496202044
 30
0.0
 10
1.568042472982826
 20
15.85532577468288
 30
0.0
 10
0.817868295182906
 20
16.18859223828425
 30
0.0
 10
0.4001341793766006
 20
16.27713001212735
 30
0.0
 10
-0.4002371300077928
 20
16.27713001212735
 30
0.0
 10
-0.8179712458140979
 20
16.18859223828425
 30
0.0
 10
-1.568145423614016
 20
15.85532577468289
 30
0.0
 10
-1.900963292145725
 20
15.61153496202044
 30
0.0
 10
-2.528652447356023
 20
14.97968961719799
 30
0.0
 10
-2.811385560636235
 20
14.51891250670647
 30
0.0
 10
-3.056962623269686
 20
13.85797458215377
 30
0.0
 10
-3.108848941430944
 20
13.67907710012294
 30
0.0
 10
-3.148477623238764
 20
13.50031494395164
 30
0.0
  0
ELLIPSE
  5
2335
330
232C
100
AcDbEntity
  8
0
100
AcDbEllipse
 10
-0.0000514753155902
 20
14.29269056046947
 30
0.0
 11
3.25
 21
0.0
 31
0.0
210
0.0
220
0.0
230
1.0
 40
0.9855985596534885
 41
0.0
 42
6.283185307179586
  0
ELLIPSE
  5
2336
330
232C
100
AcDbEntity
  8
0
100
AcDbEllipse
 10
-12.84217431850198
 20
11.08860797536737
 30
0.0
 11
-6.368939942657074
 21
1.706552314277652
 31
0.0
210
0.0
220
0.0
230
1.0
 40
0.5176380902050415
 41
2.123573074897835
 42
3.204295614158167
  0
SPLINE
  5
2337
330
232C
100
AcDbEntity
  8
0
100
AcDbSpline
210
0.0
220
0.0
230
1.0
 70
     8
 71
     3
 72
    19
 73
    15
 74
     0
 42
0.000000001
 43
0.0000000001
 40
-0.5397754188291982
 40
-0.5397754188291982
 40
-0.5397754188291982
 40
-0.5397754188291982
 40
-0.4633443055806623
 40
-0.4633443055806623
 40
-0.2316721527903311
 40
-0.2316721527903311
 40
0.0
 40
0.0
 40
0.0
 40
0.1666271866330077
 40
0.1666271866330077
 40
0.3332543732660153
 40
0.3332543732660153
 40
0.3953484452206453
 40
0.3953484452206453
 40
0.3953484452206453
 40
0.3953484452206453
 10
-9.90323547308983
 20
17.16960952241949
 30
0.0
 10
-9.66541881496942
 20
17.0990324437257
 30
0.0
 10
-9.432238941448446
 20
17.01177123663314
 30
0.0
 10
-8.528051785281704
 20
16.60409782234638
 30
0.0
 10
-7.855393805749195
 20
16.12846279414527
 30
0.0
 10
-6.771890057704304
 20
14.93014229239759
 30
0.0
 10
-6.362451285086788
 20
14.20636536862834
 30
0.0
 10
-6.134204933433671
 20
13.47410836375059
 30
0.0
 10
-5.970041709769811
 20
12.94744202450558
 30
0.0
 10
-5.881783677851455
 20
12.35788330117079
 30
0.0
 10
-5.908234441551838
 20
11.19850190373738
 30
0.0
 10
-6.022174195778275
 20
10.62887029072441
 30
0.0
 10
-6.263883737429997
 20
9.954178222820397
 30
0.0
 10
-6.341435854153506
 20
9.770881023667936
 30
0.0
 10
-6.430396499717266
 20
9.5919934138967
 30
0.0
  0
ELLIPSE
  5
2338
330
232C
100
AcDbEntity
  8
0
100
AcDbEllipse
 10
-8.670244309501349
 20
13.49727288910417
 30
0.0
 11
-6.368939942657074
 21
1.706552314277652
 31
0.0
210
0.0
220
0.0
230
1.0
 40
0.5176380902050415
 41
5.043164148309738
 42
6.567889847925762
  0
SPLINE
  5
2339
330
232C
100
AcDbEntity
  8
0
100
AcDbSpline
210
0.0
220
0.0
230
1.0
 70
     8
 71
     3
 72
    18
 73
    14
 74
     0
 42
0.000000001
 43
0.0000000001
 40
0.9354645412963421
 40
0.9354645412963421
 40
0.9354645412963421
 40
0.9354645412963421
 40
0.9975586132509722
 40
0.9975586132509722
 40
1.164185799883979
 40
1.164185799883979
 40
1.330812986516987
 40
1.330812986516987
 40
1.562485139307318
 40
1.562485139307318
 40
1.794157292097649
 40
1.794157292097649
 40
1.870588405475398
 40
1.870588405475398
 40
1.870588405475398
 40
1.870588405475398
 10
-10.24996185868735
 20
7.386766325707949
 30
0.0
 10
-10.42134725299745
 20
7.415343079275562
 30
0.0
 10
-10.59009940905839
 20
7.456436440233369
 30
0.0
 10
-11.19196497860193
 20
7.644090190607128
 30
0.0
 10
-11.66048302910183
 20
7.877439633269746
 30
0.0
 10
-12.55174434393423
 20
8.506979715123687
 30
0.0
 10
-12.97510287679085
 20
8.903068074036195
 30
0.0
 10
-13.82795760690152
 20
9.896153284091752
 30
0.0
 10
-14.27239181280645
 20
10.5997255850321
 30
0.0
 10
-14.88565485560205
 20
12.06953968453938
 30
0.0
 10
-15.05329384941155
 20
12.83674756009355
 30
0.0
 10
-15.07110297136556
 20
13.7561715714267
 30
0.0
 10
-15.05971032312609
 20
13.98463678957963
 30
0.0
 10
-15.03091794089993
 20
14.20914066931041
 30
0.0
  0
ELLIPSE
  5
233A
330
232C
100
AcDbEntity
  8
0
100
AcDbEllipse
 10
-11.4491089230874
 20
11.89289465640874
 30
0.0
 11
2.624999999999995
 21
-4.546633369868303
 31
0.0
210
0.0
220
0.0
230
1.0
 40
0.8164965809277259
 41
0.1620038814040452
 42
3.120791100006813
  0
ELLIPSE
  5
233B
330
232C
100
AcDbEntity
  8
0
100
AcDbEllipse
 10
-12.44910892308739
 20
11.31554438721911
 30
0.0
 11
1.624999999999999
 21
-2.814582562299428
 31
0.0
210
0.0
220
0.0
230
1.0
 40
0.8164965809277257
 41
5.781000520903818
 42
9.972024586676397
  0
ELLIPSE
  5
233C
330
232C
100
AcDbEntity
  8
0
100
AcDbEllipse
 10
-18.16155576981111
 20
3.674204894887467
 30
0.0
 11
7.424621202458751
 21
0.0000000000000004
 31
0.0
210
0.0
220
0.0
230
1.0
 40
0.408248290463863
 41
5.742824037549544
 42
6.823546576809622
  0
SPLINE
  5
233D
330
232C
100
AcDbEntity
  8
0
100
AcDbSpline
210
0.0
220
0.0
230
1.0
 70
     8
 71
     3
 72
    19
 73
    15
 74
     0
 42
0.000000001
 43
0.0000000001
 40
-0.5397754188291986
 40
-0.5397754188291986
 40
-0.5397754188291986
 40
-0.5397754188291986
 40
-0.4633443055806628
 40
-0.4633443055806628
 40
-0.2316721527903311
 40
-0.2316721527903311
 40
0.0
 40
0.0
 40
0.0
 40
0.1666271866330078
 40
0.1666271866330078
 40
0.3332543732660155
 40
0.3332543732660155
 40
0.3953484452206448
 40
0.3953484452206448
 40
0.3953484452206448
 40
0.3953484452206448
 10
-17.63108764040402
 20
10.58490232388605
 30
0.0
 10
-17.48328515750378
 20
10.60654464050295
 30
0.0
 10
-17.3264579065042
 20
10.61255219879107
 30
0.0
 10
-16.67450808602154
 20
10.57702320302929
 30
0.0
 10
-16.08032839796087
 20
10.40434773060397
 30
0.0
 10
-14.88053309406543
 20
9.752069775722935
 30
0.0
 10
-14.27675372068025
 20
9.270600234556351
 30
0.0
 10
-13.76458766721441
 20
8.715410125527931
 30
0.0
 10
-13.39621888594281
 20
8.31609685114574
 30
0.0
 10
-13.03445134362305
 20
7.834160084077812
 30
0.0
 10
-12.42293793847593
 20
6.814694259482139
 30
0.0
 10
-12.17221322071939
 20
6.277774265998623
 30
0.0
 10
-11.91754445111187
 20
5.606181349663213
 30
0.0
 10
-11.8530562848519
 20
5.419759954940667
 30
0.0
 10
-11.79477318607577
 20
5.233535923002001
 30
0.0
  0
ELLIPSE
  5
233E
330
232C
100
AcDbEntity
  8
0
100
AcDbEllipse
 10
-12.26155576981111
 20
8.491534722361054
 30
0.0
 11
7.424621202458751
 21
0.0000000000000004
 31
0.0
210
0.0
220
0.0
230
1.0
 40
0.408248290463863
 41
2.379229803781925
 42
3.903955503397657
  0
SPLINE
  5
233F
330
232C
100
AcDbEntity
  8
0
100
AcDbSpline
210
0.0
220
0.0
230
1.0
 70
     8
 71
     3
 72
    18
 73
    14
 74
     0
 42
0.000000001
 43
0.0000000001
 40
0.9354645412963421
 40
0.9354645412963421
 40
0.9354645412963421
 40
0.9354645412963421
 40
0.997558613250972
 40
0.997558613250972
 40
1.164185799883979
 40
1.164185799883979
 40
1.330812986516987
 40
1.330812986516987
 40
1.562485139307318
 40
1.562485139307318
 40
1.794157292097649
 40
1.794157292097649
 40
1.870588405475398
 40
1.870588405475398
 40
1.870588405475398
 40
1.870588405475398
 10
-11.79477318607577
 20
2.114873866772937
 30
0.0
 10
-11.8530562848519
 20
2.088526247296531
 30
0.0
 10
-11.91754445111187
 20
2.073841045422686
 30
0.0
 10
-12.17221322071939
 20
2.05665776771144
 30
0.0
 10
-12.42293793847592
 20
2.118002955101228
 30
0.0
 10
-13.03445134362305
 20
2.388160005298811
 30
0.0
 10
-13.3962188859428
 20
2.596488359083475
 30
0.0
 10
-14.27675372068025
 20
3.175039847900293
 30
0.0
 10
-14.88053309406543
 20
3.62793573743962
 30
0.0
 10
-16.08032839796087
 20
4.664163620369752
 30
0.0
 10
-16.67450808602154
 20
5.249185367941491
 30
0.0
 10
-17.32645790677761
 20
6.008438998371914
 30
0.0
 10
-17.48328515762855
 20
6.202124067711222
 30
0.0
 10
-17.63108764040401
 20
6.398167120836051
 30
0.0
  0
ELLIPSE
  5
2340
330
232C
100
AcDbEntity
  8
0
100
AcDbEllipse
 10
-16.19146379434317
 20
5.282778256970194
 30
0.0
 11
-3.320391543176968
 21
4.066632513517646
 31
0.0
210
0.0
220
0.0
230
1.0
 40
0.4082482904638627
 41
3.572898365549098
 42
6.154985056670264
  0
SPLINE
  5
2341
330
232C
100
AcDbEntity
  8
0
100
AcDbSpline
210
0.0
220
0.0
230
1.0
 70
     8
 71
     3
 72
    24
 73
    20
 74
     0
 42
0.000000001
 43
0.0000000001
 40
0.0
 40
0.0
 40
0.0
 40
0.0
 40
0.1681536209276026
 40
0.1681536209276026
 40
0.3363072418552052
 40
0.3363072418552052
 40
0.4746035505907681
 40
0.4746035505907681
 40
0.5437517049585495
 40
0.5437517049585495
 40
0.6128998593263308
 40
0.6128998593263308
 40
0.6820480136941124
 40
0.6820480136941124
 40
0.7511961680618937
 40
0.7511961680618937
 40
0.8894924767974567
 40
0.8894924767974567
 40
1.023881697148313
 40
1.023881697148313
 40
1.023881697148313
 40
1.023881697148313
 10
-24.78790132156082
 20
-3.612571967028088
 30
0.0
 10
-24.78790132156082
 20
-4.070228155554771
 30
0.0
 10
-24.79824086107312
 20
-4.522941193193199
 30
0.0
 10
-24.83726812881981
 20
-5.288295161554828
 30
0.0
 10
-24.8656237497476
 20
-5.601329374200866
 30
0.0
 10
-24.91770662316503
 20
-5.969588990868982
 30
0.0
 10
-24.94480396440825
 20
-6.081958115707873
 30
0.0
 10
-24.97597463077607
 20
-6.067263906518851
 30
0.0
 10
-24.98474473039475
 20
-6.032512294844708
 30
0.0
 10
-24.99679433068858
 20
-5.896542731320495
 30
0.0
 10
-25.00005147531558
 20
-5.795255902205781
 30
0.0
 10
-25.00005147531558
 20
-5.529104531951086
 30
0.0
 10
-24.99679433068859
 20
-5.365206644280842
 30
0.0
 10
-24.98474473039475
 20
-4.990722264122467
 30
0.0
 10
-24.97597463077607
 20
-4.780177992977563
 30
0.0
 10
-24.94480396440825
 20
-4.110144433227618
 30
0.0
 10
-24.91770662316503
 20
-3.60997306633063
 30
0.0
 10
-24.87136219779746
 20
-2.702597968824871
 30
0.0
 10
-24.8486644527161
 20
-2.232019276569751
 30
0.0
 10
-24.8305089262036
 20
-1.770998014786574
 30
0.0
  0
SPLINE
  5
2342
330
232C
100
AcDbEntity
  8
0
100
AcDbSpline
210
0.0
220
0.0
230
1.0
 70
     8
 71
     3
 72
    14
 73
    10
 74
     0
 42
0.000000001
 43
0.0000000001
 40
1.806809166939553
 40
1.806809166939553
 40
1.806809166939554
 40
1.806809166939554
 40
1.926864863347213
 40
1.926864863347213
 40
2.046920559754872
 40
2.046920559754872
 40
2.217369587490659
 40
2.217369587490659
 40
2.387818615226446
 40
2.387818615226446
 40
2.387818615226446
 40
2.387818615226446
 10
-25.0000514753156
 20
1.843373282386708
 30
0.0
 10
-25.00005147531558
 20
1.612325986924341
 30
0.0
 10
-24.98948962221422
 20
1.288707197601994
 30
0.0
 10
-24.95365026584911
 20
0.5430193325537114
 30
0.0
 10
-24.92903721832424
 20
0.1212863835174294
 30
0.0
 10
-24.87459333223246
 20
-0.8415222717422709
 30
0.0
 10
-24.84214029970724
 20
-1.446798654230496
 30
0.0
 10
-24.79867966701041
 20
-2.600328437885384
 30
0.0
 10
-24.78790132156082
 20
-3.148668472465669
 30
0.0
 10
-24.78790132156082
 20
-3.612571967028088
 30
0.0
  0
ELLIPSE
  5
2343
330
232C
100
AcDbEntity
  8
0
100
AcDbEllipse
 10
-12.84217431850197
 20
-3.74019818559244
 30
0.0
 11
6.368939942657163
 21
1.706552314277309
 31
0.0
210
0.0
220
0.0
230
1.0
 40
0.5176380902050416
 41
0.3300141194326818
 42
1.018019578692292
  0
SPLINE
  5
2344
330
232C
100
AcDbEntity
  8
0
100
AcDbSpline
210
0.0
220
0.0
230
1.0
 70
     8
 71
     3
 72
    19
 73
    15
 74
     0
 42
0.000000001
 43
0.0000000001
 40
-0.5397754188291986
 40
-0.5397754188291986
 40
-0.5397754188291986
 40
-0.5397754188291986
 40
-0.4633443055806623
 40
-0.4633443055806623
 40
-0.2316721527903311
 40
-0.2316721527903311
 40
0.0
 40
0.0
 40
0.0
 40
0.1666271866330077
 40
0.1666271866330077
 40
0.3332543732660153
 40
0.3332543732660153
 40
0.3953484452206451
 40
0.3953484452206451
 40
0.3953484452206451
 40
0.3953484452206451
 10
-15.03091794089992
 20
2.773928775411698
 30
0.0
 10
-15.05971032315039
 20
2.824031918658576
 30
0.0
 10
-15.07110297135809
 20
2.864819625803469
 30
0.0
 10
-15.05329384941154
 20
2.989461010877245
 30
0.0
 10
-14.88565485560204
 20
2.998971666434366
 30
0.0
 10
-14.27239181280645
 20
2.780279928130462
 30
0.0
 10
-13.82795760690152
 20
2.549486798364901
 30
0.0
 10
-13.33189177955613
 20
2.235411625009251
 30
0.0
 10
-12.97510287679084
 20
2.009517136193028
 30
0.0
 10
-12.55174434393422
 20
1.71534037425294
 30
0.0
 10
-11.66048302910182
 20
1.055257581313628
 30
0.0
 10
-11.19196497860192
 20
0.6903418431029418
 30
0.0
 10
-10.59009940905838
 20
0.2235859548525343
 30
0.0
 10
-10.42134725299745
 20
0.0929431229616396
 30
0.0
 10
-10.24996185868735
 20
-0.0383565359330107
 30
0.0
  0
ELLIPSE
  5
2345
330
232C
100
AcDbEntity
  8
0
100
AcDbEllipse
 10
-8.670244309501342
 20
3.485796555617939
 30
0.0
 11
6.368939942657163
 21
1.706552314277309
 31
0.0
210
0.0
220
0.0
230
1.0
 40
0.5176380902050416
 41
4.068627892417232
 42
4.381613812459912
  0
ELLIPSE
  5
2346
330
232C
100
AcDbEntity
  8
0
100
AcDbEllipse
 10
-8.670244309501342
 20
3.485796555617939
 30
0.0
 11
6.368939942657163
 21
1.706552314277309
 31
0.0
210
0.0
220
0.0
230
1.0
 40
0.5176380902050416
 41
2.856888112844181
 42
3.336188320798798
  0
SPLINE
  5
2347
330
232C
100
AcDbEntity
  8
0
100
AcDbSpline
210
0.0
220
0.0
230
1.0
 70
    11
 71
     3
 72
    42
 73
    38
 74
     0
 42
0.000000001
 43
0.0000000001
 40
0.0
 40
0.0
 40
0.0
 40
0.0
 40
0.1681536209276028
 40
0.1681536209276028
 40
0.3363072418552055
 40
0.3363072418552055
 40
0.4746035505907682
 40
0.4746035505907682
 40
0.5437517049585496
 40
0.5437517049585496
 40
0.6128998593263308
 40
0.6128998593263308
 40
0.6820480136941122
 40
0.6820480136941122
 40
0.7511961680618935
 40
0.7511961680618935
 40
0.8894924767974561
 40
0.8894924767974561
 40
1.057646097725058
 40
1.057646097725058
 40
1.225799718652661
 40
1.225799718652661
 40
1.396248746388448
 40
1.396248746388448
 40
1.566697774124236
 40
1.566697774124236
 40
1.686753470531895
 40
1.686753470531895
 40
1.806809166939554
 40
1.806809166939554
 40
1.926864863347212
 40
1.926864863347212
 40
2.046920559754871
 40
2.046920559754871
 40
2.217369587490659
 40
2.217369587490659
 40
2.387818615226446
 40
2.387818615226446
 40
2.387818615226446
 40
2.387818615226446
 10
-15.22961115377322
 20
-13.18258786017391
 30
0.0
 10
-15.22961115377322
 20
-13.64024404870059
 30
0.0
 10
-15.29046943274918
 20
-14.10998378203428
 30
0.0
 10
-15.54533117372856
 20
-14.94562022289312
 30
0.0
 10
-15.73876129419705
 20
-15.31169367759017
 30
0.0
 10
-16.17453065061167
 20
-15.79662135569584
 30
0.0
 10
-16.43117076789429
 20
-15.97684524724312
 30
0.0
 10
-16.87252016911077
 20
-16.07515246943912
 30
0.0
 10
-17.02893400325087
 20
-16.07990398628179
 30
0.0
 10
-17.35004228213266
 20
-16.02360790078891
 30
0.0
 10
-17.51473724211263
 20
-15.96248619803959
 30
0.0
 10
-17.84070476784591
 20
-15.77428875931041
 30
0.0
 10
-18.00079342971975
 20
-15.64789655055404
 30
0.0
 10
-18.30486100044482
 20
-15.34324719098554
 30
0.0
 10
-18.44887204076083
 20
-15.1650452920044
 30
0.0
 10
-18.84613946285175
 20
-14.58256242112492
 30
0.0
 10
-19.06445815264394
 20
-14.128120934459
 30
0.0
 10
-19.42657120310427
 20
-13.18253563396242
 30
0.0
 10
-19.57990041988717
 20
-12.61626058255927
 30
0.0
 10
-19.77956926951681
 20
-11.51820078285739
 30
0.0
 10
-19.82580523148578
 20
-10.98663016068548
 30
0.0
 10
-19.82580523148578
 20
-10.06507047759637
 30
0.0
 10
-19.77820896080772
 20
-9.598095717832437
 30
0.0
 10
-19.55397433779257
 20
-8.81769212314305
 30
0.0
 10
-19.37699959549479
 20
-8.504325984918935
 30
0.0
 10
-18.97165397841799
 20
-8.182393480367798
 30
0.0
 10
-18.75372025948966
 20
-8.098733577758441
 30
0.0
 10
-18.24860926321543
 20
-8.107047657806383
 30
0.0
 10
-17.96069499514569
 20
-8.199458869813618
 30
0.0
 10
-17.39474701481283
 20
-8.526209088606119
 30
0.0
 10
-17.09189603084336
 20
-8.774876353891594
 30
0.0
 10
-16.53610053073086
 20
-9.379076925117555
 30
0.0
 10
-16.28335870618154
 20
-9.734481479454707
 30
0.0
 10
-15.80101780700543
 20
-10.56892003312047
 30
0.0
 10
-15.57814754597037
 20
-11.11313679165293
 30
0.0
 10
-15.29245030676604
 20
-12.18794968426309
 30
0.0
 10
-15.22961115377322
 20
-12.71868436561149
 30
0.0
 10
-15.22961115377322
 20
-13.18258786017391
 30
0.0
  0
ELLIPSE
  5
2348
330
232C
100
AcDbEntity
  8
0
100
AcDbEllipse
 10
-0.0000514753155763
 20
1.412351917264309
 30
0.0
 11
5.250000000000001
 21
0.0000000000000003
 31
0.0
210
0.0
220
0.0
230
1.0
 40
0.816496580927726
 41
5.330113303768259
 42
5.474751830192555
  0
ELLIPSE
  5
2349
330
232C
100
AcDbEntity
  8
0
100
AcDbEllipse
 10
-0.0000514753155763
 20
1.412351917264309
 30
0.0
 11
5.250000000000001
 21
0.0000000000000003
 31
0.0
210
0.0
220
0.0
230
1.0
 40
0.816496580927726
 41
3.950026130576825
 42
4.094664657001122
  0
SPLINE
  5
234A
330
232C
100
AcDbEntity
  8
0
100
AcDbSpline
210
0.0
220
0.0
230
1.0
 70
    11
 71
     3
 72
    42
 73
    38
 74
     0
 42
0.000000001
 43
0.0000000001
 40
0.0
 40
0.0
 40
0.0
 40
0.0
 40
0.1681536209276026
 40
0.1681536209276026
 40
0.3363072418552052
 40
0.3363072418552052
 40
0.4746035505907681
 40
0.4746035505907681
 40
0.5437517049585495
 40
0.5437517049585495
 40
0.6128998593263308
 40
0.6128998593263308
 40
0.6820480136941124
 40
0.6820480136941124
 40
0.7511961680618937
 40
0.7511961680618937
 40
0.8894924767974567
 40
0.8894924767974567
 40
1.057646097725059
 40
1.057646097725059
 40
1.225799718652661
 40
1.225799718652661
 40
1.396248746388449
 40
1.396248746388449
 40
1.566697774124236
 40
1.566697774124236
 40
1.686753470531895
 40
1.686753470531895
 40
1.806809166939554
 40
1.806809166939554
 40
1.926864863347213
 40
1.926864863347213
 40
2.046920559754872
 40
2.046920559754872
 40
2.217369587490659
 40
2.217369587490659
 40
2.387818615226446
 40
2.387818615226446
 40
2.387818615226446
 40
2.387818615226446
 10
3.249948524684423
 20
-16.04745537352351
 30
0.0
 10
3.249948524684423
 20
-16.5051115620502
 30
0.0
 10
3.174221460686234
 20
-17.00751517639365
 30
0.0
 10
2.852819797809865
 20
-17.98096288487423
 30
0.0
 10
2.607623918999664
 20
-18.45193212953122
 30
0.0
 10
2.043435858508942
 20
-19.17599593578495
 30
0.0
 10
1.707589265242067
 20
-19.49791083891398
 30
0.0
 10
1.114597622664278
 20
-19.84357690681272
 30
0.0
 10
0.9021651566992559
 20
-19.93653665592377
 30
0.0
 10
0.4600990740081852
 20
-20.06275090421412
 30
0.0
 10
0.2304423725770295
 20
-20.09593694681908
 30
0.0
 10
-0.2305453232081793
 20
-20.09593694681908
 30
0.0
 10
-0.460202024639335
 20
-20.06275090421412
 30
0.0
 10
-0.9022681073304053
 20
-19.93653665592377
 30
0.0
 10
-1.114700573295429
 20
-19.84357690681272
 30
0.0
 10
-1.707692215873219
 20
-19.49791083891398
 30
0.0
 10
-2.043538809140092
 20
-19.17599593578495
 30
0.0
 10
-2.607726869630817
 20
-18.45193212953121
 30
0.0
 10
-2.852922748441018
 20
-17.98096288487423
 30
0.0
 10
-3.174324411317387
 20
-17.00751517639364
 30
0.0
 10
-3.250051475315577
 20
-16.5051115620502
 30
0.0
 10
-3.250051475315577
 20
-15.5835518789611
 30
0.0
 10
-3.171961838354691
 20
-15.08651979794784
 30
0.0
 10
-2.811385560636215
 20
-14.16626083328378
 30
0.0
 10
-2.528652447355997
 20
-13.74295725692115
 30
0.0
 10
-1.900963292145699
 20
-13.17397829668034
 30
0.0
 10
-1.568145423613989
 20
-12.95860818324602
 30
0.0
 10
-0.8179712458140734
 20
-12.66672544373461
 30
0.0
 10
-0.4002371300077729
 20
-12.59038344735394
 30
0.0
 10
0.4001341793766206
 20
-12.59038344735394
 30
0.0
 10
0.8178682951829259
 20
-12.66672544373461
 30
0.0
 10
1.568042472982848
 20
-12.95860818324602
 30
0.0
 10
1.900860341514555
 20
-13.17397829668034
 30
0.0
 10
2.528549496724849
 20
-13.74295725692115
 30
0.0
 10
2.811282610005065
 20
-14.16626083328377
 30
0.0
 10
3.171858887723536
 20
-15.08651979794784
 30
0.0
 10
3.249948524684423
 20
-15.5835518789611
 30
0.0
 10
3.249948524684423
 20
-16.04745537352351
 30
0.0
  0
ELLIPSE
  5
234B
330
232C
100
AcDbEntity
  8
0
100
AcDbEllipse
 10
12.84207136787081
 20
-3.740198185592439
 30
0.0
 11
6.368939942657074
 21
-1.706552314277652
 31
0.0
210
0.0
220
0.0
230
1.0
 40
0.5176380902050413
 41
2.123573074897832
 42
2.811578534157664
  0
ELLIPSE
  5
234C
330
232C
100
AcDbEntity
  8
0
100
AcDbEllipse
 10
8.67014135887018
 20
3.485796555617939
 30
0.0
 11
6.368939942657074
 21
-1.706552314277652
 31
0.0
210
0.0
220
0.0
230
1.0
 40
0.5176380902050413
 41
6.088589639971157
 42
6.567889847925761
  0
ELLIPSE
  5
234D
330
232C
100
AcDbEntity
  8
0
100
AcDbEllipse
 10
8.67014135887018
 20
3.485796555617939
 30
0.0
 11
6.368939942657074
 21
-1.706552314277652
 31
0.0
210
0.0
220
0.0
230
1.0
 40
0.5176380902050413
 41
5.043164148309738
 42
5.35615006835251
  0
SPLINE
  5
234E
330
232C
100
AcDbEntity
  8
0
100
AcDbSpline
210
0.0
220
0.0
230
1.0
 70
     8
 71
     3
 72
    18
 73
    14
 74
     0
 42
0.000000001
 43
0.0000000001
 40
0.9354645412963424
 40
0.9354645412963424
 40
0.9354645412963424
 40
0.9354645412963424
 40
0.9975586132509722
 40
0.9975586132509722
 40
1.164185799883979
 40
1.164185799883979
 40
1.330812986516987
 40
1.330812986516987
 40
1.562485139307318
 40
1.562485139307318
 40
1.79415729209765
 40
1.79415729209765
 40
1.870588405475399
 40
1.870588405475399
 40
1.870588405475399
 40
1.870588405475399
 10
10.24985890805619
 20
-0.0383565359330107
 30
0.0
 10
10.42124430236628
 20
0.0929431229616396
 30
0.0
 10
10.58999645842722
 20
0.2235859548525343
 30
0.0
 10
11.19186202797076
 20
0.6903418431029396
 30
0.0
 10
11.66038007847066
 20
1.055257581313624
 30
0.0
 10
12.55164139330306
 20
1.715340374252936
 30
0.0
 10
12.97499992615968
 20
2.009517136193024
 30
0.0
 10
13.82785465627035
 20
2.549486798364899
 30
0.0
 10
14.27228886217529
 20
2.78027992813046
 30
0.0
 10
14.88555190497088
 20
2.998971666434357
 30
0.0
 10
15.05319089878038
 20
2.989461010877247
 30
0.0
 10
15.07100002073439
 20
2.8648196257512
 30
0.0
 10
15.05960737249492
 20
2.824031918616278
 30
0.0
 10
15.03081499026876
 20
2.7739287754117
 30
0.0
  0
SPLINE
  5
234F
330
232C
100
AcDbEntity
  8
0
100
AcDbSpline
210
0.0
220
0.0
230
1.0
 70
    11
 71
     3
 72
    42
 73
    38
 74
     0
 42
0.000000001
 43
0.0000000001
 40
0.0
 40
0.0
 40
0.0
 40
0.0
 40
0.1681536209276028
 40
0.1681536209276028
 40
0.3363072418552057
 40
0.3363072418552057
 40
0.4746035505907683
 40
0.4746035505907683
 40
0.5437517049585496
 40
0.5437517049585496
 40
0.6128998593263308
 40
0.6128998593263308
 40
0.6820480136941122
 40
0.6820480136941122
 40
0.7511961680618935
 40
0.7511961680618935
 40
0.8894924767974561
 40
0.8894924767974561
 40
1.057646097725058
 40
1.057646097725058
 40
1.225799718652661
 40
1.225799718652661
 40
1.396248746388448
 40
1.396248746388448
 40
1.566697774124236
 40
1.566697774124236
 40
1.686753470531895
 40
1.686753470531895
 40
1.806809166939554
 40
1.806809166939554
 40
1.926864863347212
 40
1.926864863347212
 40
2.046920559754871
 40
2.046920559754871
 40
2.217369587490659
 40
2.217369587490659
 40
2.387818615226446
 40
2.387818615226446
 40
2.387818615226446
 40
2.387818615226446
 10
19.82570228085463
 20
-10.52897397215879
 30
0.0
 10
19.82570228085463
 20
-10.98663016068548
 30
0.0
 10
19.77946631888565
 20
-11.51820078285739
 30
0.0
 10
19.57979746925601
 20
-12.61626058255927
 30
0.0
 10
19.42646825247311
 20
-13.18253563396242
 30
0.0
 10
19.06435520201278
 20
-14.128120934459
 30
0.0
 10
18.84603651222058
 20
-14.58256242112492
 30
0.0
 10
18.44876909012967
 20
-15.1650452920044
 30
0.0
 10
18.30475804981366
 20
-15.34324719098554
 30
0.0
 10
18.00069047908859
 20
-15.64789655055404
 30
0.0
 10
17.84060181721475
 20
-15.77428875931041
 30
0.0
 10
17.51463429148146
 20
-15.96248619803959
 30
0.0
 10
17.3499393315015
 20
-16.02360790078891
 30
0.0
 10
17.02883105261971
 20
-16.07990398628178
 30
0.0
 10
16.87241721847961
 20
-16.07515246943912
 30
0.0
 10
16.43106781726312
 20
-15.97684524724313
 30
0.0
 10
16.17442769998051
 20
-15.79662135569584
 30
0.0
 10
15.73865834356589
 20
-15.31169367759018
 30
0.0
 10
15.54522822309741
 20
-14.94562022289312
 30
0.0
 10
15.29036648211803
 20
-14.10998378203428
 30
0.0
 10
15.22950820314206
 20
-13.64024404870059
 30
0.0
 10
15.22950820314206
 20
-12.71868436561149
 30
0.0
 10
15.29234735613489
 20
-12.18794968426309
 30
0.0
 10
15.57804459533921
 20
-11.11313679165292
 30
0.0
 10
15.80091485637427
 20
-10.56892003312047
 30
0.0
 10
16.28325575555038
 20
-9.734481479454707
 30
0.0
 10
16.53599758009971
 20
-9.379076925117558
 30
0.0
 10
17.0917930802122
 20
-8.774876353891599
 30
0.0
 10
17.39464406418168
 20
-8.526209088606117
 30
0.0
 10
17.96059204451454
 20
-8.199458869813616
 30
0.0
 10
18.24850631258427
 20
-8.107047657806383
 30
0.0
 10
18.7536173088585
 20
-8.098733577758443
 30
0.0
 10
18.97155102778683
 20
-8.182393480367796
 30
0.0
 10
19.37689664486364
 20
-8.504325984918935
 30
0.0
 10
19.55387138716141
 20
-8.817692123143048
 30
0.0
 10
19.77810601017656
 20
-9.598095717832435
 30
0.0
 10
19.82570228085463
 20
-10.06507047759638
 30
0.0
 10
19.82570228085463
 20
-10.52897397215879
 30
0.0
  0
SPLINE
  5
2350
330
232C
100
AcDbEntity
  8
0
100
AcDbSpline
210
0.0
220
0.0
230
1.0
 70
     8
 71
     3
 72
    32
 73
    28
 74
     0
 42
0.000000001
 43
0.0000000001
 40
0.202827193476897
 40
0.202827193476897
 40
0.202827193476897
 40
0.202827193476897
 40
0.3673004283215764
 40
0.3673004283215764
 40
0.4896035466913343
 40
0.4896035466913343
 40
0.5507551058762132
 40
0.5507551058762132
 40
0.611906665061092
 40
0.611906665061092
 40
0.673058224245971
 40
0.673058224245971
 40
0.7342097834308499
 40
0.7342097834308499
 40
0.8565129018006077
 40
0.8565129018006077
 40
1.040163115961395
 40
1.040163115961395
 40
1.223813330122184
 40
1.223813330122184
 40
1.394262357857971
 40
1.394262357857971
 40
1.564711385593758
 40
1.564711385593758
 40
1.684767082001417
 40
1.684767082001417
 40
1.804822778409075
 40
1.804822778409075
 40
1.804822778409076
 40
1.804822778409076
 10
24.83038693512424
 20
-1.770957354182631
 30
0.0
 10
24.85253314927132
 20
-2.333471325303035
 30
0.0
 10
24.8817494534163
 20
-2.913766439819652
 30
0.0
 10
24.93123695859403
 20
-3.867624639496094
 30
0.0
 10
24.95448276636398
 20
-4.305920861259716
 30
0.0
 10
24.98047941712494
 20
-4.890972076996623
 30
0.0
 10
24.98765281759599
 20
-5.074462113133294
 30
0.0
 10
24.99739561563782
 20
-5.401247399515511
 30
0.0
 10
24.99994852468442
 20
-5.544493986555913
 30
0.0
 10
24.99994852468442
 20
-5.779866447600947
 30
0.0
 10
24.99739561563782
 20
-5.873968567894333
 30
0.0
 10
24.98765281759599
 20
-6.008695638221405
 30
0.0
 10
24.98047941712494
 20
-6.049395403666669
 30
0.0
 10
24.95448276636398
 20
-6.096542525544602
 30
0.0
 10
24.93123695859403
 20
-6.025697875183486
 30
0.0
 10
24.87844018173973
 20
-5.725320585177912
 30
0.0
 10
24.84570878210092
 20
-5.407046326261379
 30
0.0
 10
24.80017383376168
 20
-4.601151869387209
 30
0.0
 10
24.78779837092965
 20
-4.112404540191186
 30
0.0
 10
24.78779837092965
 20
-3.148668472465674
 30
0.0
 10
24.79857671637925
 20
-2.600328437885387
 30
0.0
 10
24.84203734907608
 20
-1.446798654230494
 30
0.0
 10
24.87449038160129
 20
-0.8415222717422722
 30
0.0
 10
24.92893426769307
 20
0.1212863835174294
 30
0.0
 10
24.95354731521794
 20
0.5430193325537159
 30
0.0
 10
24.98938667158305
 20
1.288707197601994
 30
0.0
 10
24.99994852468442
 20
1.612325986924336
 30
0.0
 10
24.99994852468442
 20
1.843373282386702
 30
0.0
  0
ELLIPSE
  5
2351
330
232C
100
AcDbEntity
  8
0
100
AcDbEllipse
 10
16.191360843712
 20
5.282778256970197
 30
0.0
 11
3.320391543176797
 21
4.066632513517785
 31
0.0
210
0.0
220
0.0
230
1.0
 40
0.4082482904638633
 41
0.1282002505082965
 42
2.710286941629559
  0
ELLIPSE
  5
2352
330
232C
100
AcDbEntity
  8
0
100
AcDbEllipse
 10
18.16145281917994
 20
3.674204894887467
 30
0.0
 11
-7.424621202458751
 21
0.0
 31
0.0
210
0.0
220
0.0
230
1.0
 40
0.4082482904638631
 41
5.742824037549546
 42
6.823546576809622
  0
SPLINE
  5
2353
330
232C
100
AcDbEntity
  8
0
100
AcDbSpline
210
0.0
220
0.0
230
1.0
 70
     8
 71
     3
 72
    19
 73
    15
 74
     0
 42
0.000000001
 43
0.0000000001
 40
-0.5397754188291979
 40
-0.5397754188291979
 40
-0.5397754188291979
 40
-0.5397754188291979
 40
-0.4633443055806623
 40
-0.4633443055806623
 40
-0.2316721527903311
 40
-0.2316721527903311
 40
0.0
 40
0.0
 40
0.0
 40
0.1666271866330076
 40
0.1666271866330076
 40
0.3332543732660152
 40
0.3332543732660152
 40
0.3953484452206451
 40
0.3953484452206451
 40
0.3953484452206451
 40
0.3953484452206451
 10
17.63098468977285
 20
6.398167120836053
 30
0.0
 10
17.4831822068726
 20
6.202124067545716
 30
0.0
 10
17.32635495587303
 20
6.008438998053502
 30
0.0
 10
16.67440513539037
 20
5.249185367941493
 30
0.0
 10
16.08022544732971
 20
4.664163620369752
 30
0.0
 10
14.88043014343427
 20
3.62793573743962
 30
0.0
 10
14.27665077004908
 20
3.175039847900298
 30
0.0
 10
13.76448471658324
 20
2.838523425080465
 30
0.0
 10
13.39611593531164
 20
2.596488359083479
 30
0.0
 10
13.03434839299188
 20
2.388160005298807
 30
0.0
 10
12.42283498784476
 20
2.118002955101228
 30
0.0
 10
12.17211027008822
 20
2.056657767711436
 30
0.0
 10
11.91744150048071
 20
2.073841045422681
 30
0.0
 10
11.85295333422073
 20
2.088526247296529
 30
0.0
 10
11.7946702354446
 20
2.114873866772934
 30
0.0
  0
ELLIPSE
  5
2354
330
232C
100
AcDbEntity
  8
0
100
AcDbEllipse
 10
12.26145281917994
 20
8.491534722361054
 30
0.0
 11
-7.424621202458751
 21
0.0
 31
0.0
210
0.0
220
0.0
230
1.0
 40
0.4082482904638631
 41
2.379229803781925
 42
3.903955503397657
  0
SPLINE
  5
2355
330
232C
100
AcDbEntity
  8
0
100
AcDbSpline
210
0.0
220
0.0
230
1.0
 70
     8
 71
     3
 72
    18
 73
    14
 74
     0
 42
0.000000001
 43
0.0000000001
 40
0.9354645412963421
 40
0.9354645412963421
 40
0.9354645412963421
 40
0.9354645412963421
 40
0.9975586132509716
 40
0.9975586132509716
 40
1.164185799883979
 40
1.164185799883979
 40
1.330812986516986
 40
1.330812986516986
 40
1.562485139307318
 40
1.562485139307318
 40
1.794157292097649
 40
1.794157292097649
 40
1.870588405475398
 40
1.870588405475398
 40
1.870588405475398
 40
1.870588405475398
 10
11.7946702354446
 20
5.233535923002001
 30
0.0
 10
11.85295333422073
 20
5.419759954940667
 30
0.0
 10
11.9174415004807
 20
5.606181349663213
 30
0.0
 10
12.17211027008822
 20
6.277774265998623
 30
0.0
 10
12.42283498784475
 20
6.814694259482134
 30
0.0
 10
13.03434839299188
 20
7.83416008407781
 30
0.0
 10
13.39611593531164
 20
8.31609685114574
 30
0.0
 10
14.27665077004908
 20
9.270600234556351
 30
0.0
 10
14.88043014343426
 20
9.752069775722935
 30
0.0
 10
16.0802254473297
 20
10.40434773060397
 30
0.0
 10
16.67440513539037
 20
10.57702320302929
 30
0.0
 10
17.32635495614645
 20
10.61255219880597
 30
0.0
 10
17.48318220699739
 20
10.60654464048468
 30
0.0
 10
17.63098468977285
 20
10.58490232388605
 30
0.0
  0
ELLIPSE
  5
2356
330
232C
100
AcDbEntity
  8
0
100
AcDbEllipse
 10
-0.0000514753155829
 20
8.491534722361054
 30
0.0
 11
-21.49999999999999
 21
0.0000000000000036
 31
0.0
210
0.0
220
0.0
230
1.0
 40
0.5773502691896261
 41
3.210713924880543
 42
6.214064035888836
  0
ELLIPSE
  5
2357
330
232C
100
AcDbEntity
  8
0
100
AcDbEllipse
 10
-0.0000514753155829
 20
8.491534722361054
 30
0.0
 11
17.99999999999999
 21
-0.0000000000000031
 31
0.0
210
0.0
220
0.0
230
1.0
 40
0.577350269189626
 41
0.9882202730839031
 42
1.367974217108443
  0
ELLIPSE
  5
2358
330
232C
100
AcDbEntity
  8
0
100
AcDbEllipse
 10
-0.0000514753155829
 20
8.491534722361054
 30
0.0
 11
17.99999999999999
 21
-0.0000000000000056
 31
0.0
210
0.0
220
0.0
230
1.0
 40
0.5773502691896259
 41
0.2028221096864549
 42
0.5825760537109943
  0
ELLIPSE
  5
2359
330
232C
100
AcDbEntity
  8
0
100
AcDbEllipse
 10
-0.0000514753155829
 20
8.491534722361054
 30
0.0
 11
17.99999999999999
 21
-0.0000000000000033
 31
0.0
210
0.0
220
0.0
230
1.0
 40
0.5773502691896259
 41
5.700609253468591
 42
6.080363197493132
  0
ELLIPSE
  5
235A
330
232C
100
AcDbEntity
  8
0
100
AcDbEllipse
 10
-0.0000514753155829
 20
8.491534722361054
 30
0.0
 11
-17.99999999999999
 21
0.0000000000010802
 31
0.0
210
0.0
220
0.0
230
1.0
 40
0.5773502691896259
 41
1.773618436481413
 42
2.153372380506024
  0
ELLIPSE
  5
235B
330
232C
100
AcDbEntity
  8
0
100
AcDbEllipse
 10
-0.0000514753155829
 20
8.491534722361054
 30
0.0
 11
-17.99999999999999
 21
0.0000000000000031
 31
0.0
210
0.0
220
0.0
230
1.0
 40
0.577350269189626
 41
0.9882202730839022
 42
1.367974217108443
  0
ELLIPSE
  5
235C
330
232C
100
AcDbEntity
  8
0
100
AcDbEllipse
 10
-0.0000514753155829
 20
8.491534722361054
 30
0.0
 11
-18.0
 21
0.000000000000005
 31
0.0
210
0.0
220
0.0
230
1.0
 40
0.5773502691896258
 41
0.2028221096864549
 42
0.5825760537109952
  0
ELLIPSE
  5
235D
330
232C
100
AcDbEntity
  8
0
100
AcDbEllipse
 10
-0.0000514753155829
 20
8.491534722361054
 30
0.0
 11
-17.99999999999999
 21
0.0000000000000036
 31
0.0
210
0.0
220
0.0
230
1.0
 40
0.577350269189626
 41
5.700609253468592
 42
6.080363197493132
  0
ELLIPSE
  5
235E
330
232C
100
AcDbEntity
  8
0
100
AcDbEllipse
 10
-0.0000514753155829
 20
8.491534722361054
 30
0.0
 11
17.99999999999999
 21
-0.0000000000010791
 31
0.0
210
0.0
220
0.0
230
1.0
 40
0.5773502691896259
 41
1.773618436481413
 42
2.153372380506024
  0
ELLIPSE
  5
235F
330
232C
100
AcDbEntity
  8
0
100
AcDbEllipse
 10
-0.0000514753155836
 20
3.674204894887469
 30
0.0
 11
12.09999999999999
 21
-0.0000000000000019
 31
0.0
210
0.0
220
0.0
230
1.0
 40
0.5773502691896259
 41
1.010504445639432
 42
1.345690044552913
  0
ELLIPSE
  5
2360
330
232C
100
AcDbEntity
  8
0
100
AcDbEllipse
 10
-0.0000514753155836
 20
3.674204894887469
 30
0.0
 11
12.09999999999999
 21
-0.000000000000005
 31
0.0
210
0.0
220
0.0
230
1.0
 40
0.5773502691896258
 41
0.2251062822419847
 42
0.5602918811554654
  0
ELLIPSE
  5
2361
330
232C
100
AcDbEntity
  8
0
100
AcDbEllipse
 10
-0.0000514753155836
 20
3.674204894887469
 30
0.0
 11
12.1
 21
-0.0000000000000028
 31
0.0
210
0.0
220
0.0
230
1.0
 40
0.5773502691896259
 41
5.722893426024121
 42
6.058079024937603
  0
ELLIPSE
  5
2362
330
232C
100
AcDbEntity
  8
0
100
AcDbEllipse
 10
-0.0000514753155836
 20
3.674204894887469
 30
0.0
 11
-12.09999999999999
 21
0.0000000000000017
 31
0.0
210
0.0
220
0.0
230
1.0
 40
0.5773502691896259
 41
0.2251062822419838
 42
0.5602918811554654
  0
ELLIPSE
  5
2363
330
232C
100
AcDbEntity
  8
0
100
AcDbEllipse
 10
-0.0000514753155836
 20
3.674204894887469
 30
0.0
 11
-12.1
 21
0.0000000000000028
 31
0.0
210
0.0
220
0.0
230
1.0
 40
0.5773502691896259
 41
5.722893426024121
 42
6.058079024937603
  0
ELLIPSE
  5
2364
330
232C
100
AcDbEntity
  8
0
100
AcDbEllipse
 10
-0.0000514753155827
 20
10.20617754230928
 30
0.0
 11
-21.49999999999999
 21
0.0000000000000044
 31
0.0
210
0.0
220
0.0
230
1.0
 40
0.5773502691896259
 41
0.0
 42
6.283185307179586
  0
ELLIPSE
  5
2365
330
232C
100
AcDbEntity
  8
0
100
AcDbEllipse
 10
-0.0000514753155836
 20
3.674204894887469
 30
0.0
 11
12.09999999999999
 21
-0.000000000000725
 31
0.0
210
0.0
220
0.0
230
1.0
 40
0.5773502691896259
 41
1.795902609036938
 42
2.131088207950483
  0
ELLIPSE
  5
2366
330
232C
100
AcDbEntity
  8
0
100
AcDbEllipse
 10
-0.0000514753155836
 20
3.674204894887469
 30
0.0
 11
-8.644999999999999
 21
0.0000000000000025
 31
0.0
210
0.0
220
0.0
230
1.0
 40
0.5773502691896259
 41
0.0
 42
6.283185307179586
  0
LINE
  5
2367
330
232C
100
AcDbEntity
  8
0
100
AcDbLine
 10
24.99994852468442
 20
9.389680961381545
 30
0.0
 11
24.99994852468442
 21
1.843373282386704
 31
0.0
  0
LINE
  5
2368
330
232C
100
AcDbEntity
  8
0
100
AcDbLine
 10
24.99994852468442
 20
-5.66218021707843
 30
0.0
 11
24.99994852468442
 21
-9.389740399956146
 31
0.0
  0
LINE
  5
2369
330
232C
100
AcDbEntity
  8
0
100
AcDbLine
 10
-25.00005147531558
 20
9.389680961381554
 30
0.0
 11
-25.00005147531558
 21
1.843373282386713
 31
0.0
  0
LINE
  5
236A
330
232C
100
AcDbEntity
  8
0
100
AcDbLine
 10
-25.00005147531558
 20
-5.66218021707842
 30
0.0
 11
-25.00005147531558
 21
-9.389740399956137
 31
0.0
  0
ELLIPSE
  5
236B
330
232C
100
AcDbEntity
  8
0
100
AcDbEllipse
 10
8.670141358870177
 20
13.49727288910417
 30
0.0
 11
-6.368939942657165
 21
-1.706552314277308
 31
0.0
210
0.0
220
0.0
230
1.0
 40
0.5176380902050415
 41
2.856888112844181
 42
4.381613812459914
  0
SPLINE
  5
236C
330
232C
100
AcDbEntity
  8
0
100
AcDbSpline
210
0.0
220
0.0
230
1.0
 70
     8
 71
     3
 72
    18
 73
    14
 74
     0
 42
0.000000001
 43
0.0000000001
 40
0.9354645412963423
 40
0.9354645412963423
 40
0.9354645412963423
 40
0.9354645412963423
 40
0.9975586132509718
 40
0.9975586132509718
 40
1.164185799883979
 40
1.164185799883979
 40
1.330812986516987
 40
1.330812986516987
 40
1.562485139307318
 40
1.562485139307318
 40
1.794157292097649
 40
1.794157292097649
 40
1.870588405475398
 40
1.870588405475398
 40
1.870588405475398
 40
1.870588405475398
 10
6.430293549086089
 20
9.591993413896702
 30
0.0
 10
6.34133290352233
 20
9.770881023667936
 30
0.0
 10
6.263780786798822
 20
9.954178222820397
 30
0.0
 10
6.022071245147099
 20
10.62887029072441
 30
0.0
 10
5.90813149092066
 20
11.19850190373738
 30
0.0
 10
5.881680727220278
 20
12.35788330117079
 30
0.0
 10
5.969938759138637
 20
12.94744202450558
 30
0.0
 10
6.362348334455612
 20
14.20636536862834
 30
0.0
 10
6.771787107073129
 20
14.93014229239758
 30
0.0
 10
7.855290855118019
 20
16.12846279414525
 30
0.0
 10
8.527948834650523
 20
16.60409782234638
 30
0.0
 10
9.432135991196465
 20
17.01177123680411
 30
0.0
 10
9.665315864539023
 20
17.09903244378528
 30
0.0
 10
9.903132522458651
 20
17.16960952241949
 30
0.0
  0
SPLINE
  5
236D
330
232C
100
AcDbEntity
  8
0
100
AcDbSpline
210
0.0
220
0.0
230
1.0
 70
     8
 71
     3
 72
    19
 73
    15
 74
     0
 42
0.000000001
 43
0.0000000001
 40
-0.5397754188291984
 40
-0.5397754188291984
 40
-0.5397754188291984
 40
-0.5397754188291984
 40
-0.4633443055806628
 40
-0.4633443055806628
 40
-0.2316721527903316
 40
-0.2316721527903316
 40
0.0
 40
0.0
 40
0.0
 40
0.1666271866330076
 40
0.1666271866330076
 40
0.3332543732660152
 40
0.3332543732660152
 40
0.3953484452206448
 40
0.3953484452206448
 40
0.3953484452206448
 40
0.3953484452206448
 10
15.03081499026876
 20
14.2091406693104
 30
0.0
 10
15.05960737251923
 20
13.98463678939009
 30
0.0
 10
15.07100002072692
 20
13.7561715710411
 30
0.0
 10
15.05319089878037
 20
12.83674756009354
 30
0.0
 10
14.88555190497088
 20
12.06953968453937
 30
0.0
 10
14.27228886217528
 20
10.5997255850321
 30
0.0
 10
13.82785465627035
 20
9.896153284091749
 30
0.0
 10
13.33178882892497
 20
9.318521925599148
 30
0.0
 10
12.97499992615967
 20
8.903068074036191
 30
0.0
 10
12.55164139330305
 20
8.50697971512368
 30
0.0
 10
11.66038007847065
 20
7.877439633269744
 30
0.0
 10
11.19186202797076
 20
7.644090190607125
 30
0.0
 10
10.58999645842722
 20
7.456436440233369
 30
0.0
 10
10.42124430236628
 20
7.415343079275558
 30
0.0
 10
10.24985890805618
 20
7.386766325707947
 30
0.0
  0
ELLIPSE
  5
236E
330
232C
100
AcDbEntity
  8
0
100
AcDbEllipse
 10
12.44900597245622
 20
11.31554438721911
 30
0.0
 11
1.625000000000003
 21
2.814582562299425
 31
0.0
210
0.0
220
0.0
230
1.0
 40
0.8164965809277262
 41
5.735938681272569
 42
9.926962747045148
  0
ELLIPSE
  5
236F
330
232C
100
AcDbEntity
  8
0
100
AcDbEllipse
 10
11.44900597245622
 20
11.89289465640874
 30
0.0
 11
2.625
 21
4.5466333698683
 31
0.0
210
0.0
220
0.0
230
0.9999999999999998
 40
0.8164965809277264
 41
0.0208015535829693
 42
2.979588772185748
  0
ELLIPSE
  5
2370
330
232C
100
AcDbEntity
  8
0
100
AcDbEllipse
 10
12.84207136787081
 20
11.08860797536737
 30
0.0
 11
-6.368939942657165
 21
-1.706552314277308
 31
0.0
210
0.0
220
0.0
230
1.0
 40
0.5176380902050415
 41
6.220482346611802
 42
7.301204885871879
  0
ELLIPSE
  5
2371
330
232C
100
AcDbEntity
  8
0
100
AcDbEllipse
 10
-0.0000514753155854
 20
-9.389740399956142
 30
0.0
 11
25.0
 21
-0.0000000000000014
 31
0.0
210
0.0
220
0.0
230
1.0
 40
0.5773502691896259
 41
3.141592653589791
 42
6.283185307179584
  0
ELLIPSE
  5
2372
330
232C
100
AcDbEntity
  8
0
100
AcDbEllipse
 10
-0.0000514753155855
 20
-10.20623698088387
 30
0.0
 11
23.99999999999999
 21
0.0000000000014255
 31
0.0
210
0.0
220
0.0
230
1.0
 40
0.5773502691896259
 41
3.926990816986997
 42
5.497787143781899
  0
ELLIPSE
  5
2373
330
232C
100
AcDbEntity
  8
0
100
AcDbEllipse
 10
-0.0000514753155828
 20
9.38968096138155
 30
0.0
 11
-25.0
 21
0.0000000000000056
 31
0.0
210
0.0
220
0.0
230
1.0
 40
0.5773502691896259
 41
5.497787143782137
 42
10.21017612416683
  0
ELLIPSE
  5
2374
330
232C
100
AcDbEntity
  8
0
100
AcDbEllipse
 10
-0.0000514753155827
 20
10.20617754230928
 30
0.0
 11
-23.99999999999999
 21
0.0000000000000044
 31
0.0
210
0.0
220
0.0
230
1.0
 40
0.5773502691896259
 41
0.0
 42
6.283185307179586
  0
LINE
  5
2375
330
232C
100
AcDbEntity
  8
0
100
AcDbLine
 10
-16.97061422379277
 20
-20.00419595201656
 30
0.0
 11
-17.67772100497932
 21
-19.59594766155269
 31
0.0
  0
LINE
  5
2376
330
232C
100
AcDbEntity
  8
0
100
AcDbLine
 10
16.9705112731616
 20
-20.00419595201656
 30
0.0
 11
17.67761805434815
 21
-19.5959476615527
 31
0.0
  0
LINE
  5
2377
330
232C
100
AcDbEntity
  8
0
100
AcDbLine
 10
16.97051127316155
 20
20.00413651344199
 30
0.0
 11
17.6776180543481
 21
19.59588822297813
 31
0.0
  0
LINE
  5
2378
330
232C
100
AcDbEntity
  8
0
100
AcDbLine
 10
-16.97061422379271
 20
20.004136513442
 30
0.0
 11
-17.67772100497926
 21
19.59588822297813
 31
0.0
  0
ENDBLK
  5
232E
330
232C
100
AcDbEntity
  8
0
100
AcDbBlockEnd
  0
ENDSEC
  0
SECTION
  2
ENTITIES
  0
INSERT
  5
2379
330
1F
100
AcDbEntity
  8
0
100
AcDbBlockReference
  2
CCS50-C-Front
 10
0.0
 20
0.0
 30
0.0
  0
INSERT
  5
237A
330
1F
100
AcDbEntity
  8
0
100
AcDbBlockReference
  2
CCS50-C-Left
 10
65.05781303062983
 20
0.0
 30
0.0
  0
INSERT
  5
237B
330
1F
100
AcDbEntity
  8
0
100
AcDbBlockReference
  2
CCS50-C-Right
 10
-65.06582337165605
 20
0.0
 30
0.0
  0
INSERT
  5
237C
330
1F
100
AcDbEntity
  8
0
100
AcDbBlockReference
  2
CCS50-C-Top
 10
0.0
 20
-40.01382845031746
 30
0.0
  0
INSERT
  5
237D
330
1F
100
AcDbEntity
  8
0
100
AcDbBlockReference
  2
CCS50-C-Bottom
 10
0.0
 20
65.01382845031746
 30
0.0
  0
INSERT
  5
237E
330
1F
100
AcDbEntity
  8
0
100
AcDbBlockReference
  2
CCS50-C-ISO
 10
65.03746067751527
 20
-39.07648525026717
 30
0.0
  0
MTEXT
  5
237F
330
1F
100
AcDbEntity
  8
0
100
AcDbMText
 10
0.0
 20
-80.02780249481375
 30
0.0
 40
5.004633749135625
 41
0.0
 71
     5
 72
     5
  1
CCS50
 73
     1
 44
1.0
1001
ACAD
1000
MTEXTBEGIN
1070
    73
1070
     1
1070
    44
1040
1.0
1070
    74
1070
     0
1000
MTEXTEND
  0
ENDSEC
  0
SECTION
  2
OBJECTS
  0
DICTIONARY
  5
C
330
0
100
AcDbDictionary
281
     1
  3
ACAD_CIP_PREVIOUS_PRODUCT_INFO
350
216
  3
ACAD_COLOR
350
6B
  3
ACAD_DETAILVIEWSTYLE
350
21B
  3
ACAD_GROUP
350
D
  3
ACAD_LAYOUT
350
1A
  3
ACAD_MATERIAL
350
6A
  3
ACAD_MLEADERSTYLE
350
12D
  3
ACAD_MLINESTYLE
350
17
  3
ACAD_PLOTSETTINGS
350
19
  3
ACAD_PLOTSTYLENAME
350
E
  3
ACAD_SCALELIST
350
10C
  3
ACAD_SECTIONVIEWSTYLE
350
219
  3
ACAD_TABLESTYLE
350
7E
  3
ACAD_VISUALSTYLE
350
EF
  3
ACDB_RECOMPOSE_DATA
350
2480
  3
AcDbVariableDictionary
350
5E
  3
DWGPROPS
350
2481
  0
DICTIONARY
  5
23D0
330
8
100
AcDbDictionary
280
     1
281
     1
  0
DICTIONARY
  5
1FF
330
2
100
AcDbDictionary
280
     1
281
     1
  3
ACAD_LAYERSTATES
360
200
  0
DICTIONARY
  5
13C
330
10
100
AcDbDictionary
280
     1
281
     1
  0
DICTIONARY
  5
1CE
330
1F
100
AcDbDictionary
280
     1
281
     1
  3
ACAD_LAYOUTSELFREF
360
23D8
  0
DICTIONARY
  5
2383
330
D2
100
AcDbDictionary
280
     1
281
     1
  3
ACAD_LAYOUTSELFREF
360
23E1
  0
DICTIONARY
  5
2385
330
D6
100
AcDbDictionary
280
     1
281
     1
  3
ACAD_LAYOUTSELFREF
360
23E4
  0
XRECORD
  5
216
102
{ACAD_REACTORS
330
C
102
}
330
C
100
AcDbXrecord
280
     1
300
ACD
300
2021
300

  0
DICTIONARY
  5
6B
102
{ACAD_REACTORS
330
C
102
}
330
C
100
AcDbDictionary
281
     1
  0
DICTIONARY
  5
21B
102
{ACAD_REACTORS
330
C
102
}
330
C
100
AcDbDictionary
281
     1
  3
Metric50
350
21C
  0
DICTIONARY
  5
D
102
{ACAD_REACTORS
330
C
102
}
330
C
100
AcDbDictionary
281
     1
  0
DICTIONARY
  5
1A
102
{ACAD_REACTORS
330
C
102
}
330
C
100
AcDbDictionary
281
     1
  3
Layout1
350
D3
  3
Layout2
350
D7
  3
Model
350
22
  0
DICTIONARY
  5
6A
102
{ACAD_REACTORS
330
C
102
}
330
C
100
AcDbDictionary
281
     1
  3
ByBlock
350
ED
  3
ByLayer
350
EC
  3
Global
350
EE
  0
DICTIONARY
  5
12D
102
{ACAD_REACTORS
330
C
102
}
330
C
100
AcDbDictionary
281
     1
  3
Standard
350
12E
  0
DICTIONARY
  5
17
102
{ACAD_REACTORS
330
C
102
}
330
C
100
AcDbDictionary
281
     1
  3
Standard
350
18
  0
DICTIONARY
  5
19
102
{ACAD_REACTORS
330
C
102
}
330
C
100
AcDbDictionary
281
     1
  0
ACDBDICTIONARYWDFLT
  5
E
102
{ACAD_REACTORS
330
C
102
}
330
C
100
AcDbDictionary
281
     1
  3
Normal
350
F
100
AcDbDictionaryWithDefault
340
F
  0
DICTIONARY
  5
10C
102
{ACAD_REACTORS
330
C
102
}
330
C
100
AcDbDictionary
281
     1
  3
A0
350
10D
  3
A1
350
1BE
  3
A2
350
1BF
  3
A3
350
1C0
  3
A4
350
1C1
  3
A5
350
1C2
  3
A6
350
1C3
  3
A7
350
1C4
  3
A8
350
1C5
  3
A9
350
1C6
  3
B0
350
1C7
  3
B1
350
1C8
  3
B2
350
1C9
  3
B3
350
1CA
  3
B4
350
1CB
  3
B5
350
1CC
  3
B6
350
1CD
  0
DICTIONARY
  5
219
102
{ACAD_REACTORS
330
C
102
}
330
C
100
AcDbDictionary
281
     1
  3
Metric50
350
21A
  0
DICTIONARY
  5
7E
102
{ACAD_REACTORS
330
C
102
}
330
C
100
AcDbDictionary
281
     1
  3
Standard
350
7F
  0
DICTIONARY
  5
EF
102
{ACAD_REACTORS
330
C
102
}
330
C
100
AcDbDictionary
281
     1
  3
2dWireframe
350
F5
  3
Basic
350
F4
  3
Brighten
350
FB
  3
ColorChange
350
FF
  3
Conceptual
350
F8
  3
Dim
350
FA
  3
EdgeColorOff
350
1E6
  3
Facepattern
350
FE
  3
Flat
350
F0
  3
FlatWithEdges
350
F1
  3
Gouraud
350
F2
  3
GouraudWithEdges
350
F3
  3
Hidden
350
F7
  3
JitterOff
350
1E4
  3
Linepattern
350
FD
  3
OverhangOff
350
1E5
  3
Realistic
350
F9
  3
Shaded
350
1F3
  3
Shaded with edges
350
1F2
  3
Shades of Gray
350
1EF
  3
Sketchy
350
1F0
  3
Thicken
350
FC
  3
Wireframe
350
F6
  3
X-Ray
350
1F1
  0
XRECORD
  5
2480
102
{ACAD_REACTORS
330
C
102
}
330
C
100
AcDbXrecord
280
     1
 90
        1
330
7F
  0
DICTIONARY
  5
5E
102
{ACAD_REACTORS
330
C
102
}
330
C
100
AcDbDictionary
281
     1
  3
CANNOSCALE
350
146
  3
CENTEREXE
350
259
  3
CENTERLTYPEFILE
350
25A
  3
CMLEADERSTYLE
350
145
  3
CTABLESTYLE
350
84
  3
CVIEWDETAILSTYLE
350
227
  3
CVIEWSECTIONSTYLE
350
228
  3
DIMASSOC
350
5F
  3
HIDETEXT
350
63
  3
INDEXCTL
350
242D
  3
LAYEREVAL
350
1AE
  3
LAYERNOTIFY
350
1AF
  3
LIGHTINGUNITS
350
242B
  3
MSLTSCALE
350
242A
  3
PSOLHEIGHT
350
247D
  3
PSOLWIDTH
350
247C
  3
SORTENTS
350
242C
  3
XCLIPFRAME
350
247E
  0
XRECORD
  5
2481
102
{ACAD_REACTORS
330
C
102
}
330
C
100
AcDbXrecord
280
     1
  1
DWGPROPS COOKIE
  2

  3

  4

  6

  7

  8
tronnguyen
  9

300
=
301
=
302
=
303
=
304
=
305
=
306
=
307
=
308
=
309
=
 40
0.008287037037037
 41
2460312.625706019
 42
2460312.634479167
  1

 90
        0
  0
DICTIONARY
  5
200
102
{ACAD_REACTORS
330
1FF
102
}
330
1FF
100
AcDbDictionary
281
     1
  0
XRECORD
  5
23D8
102
{ACAD_REACTORS
330
1CE
102
}
330
1CE
100
AcDbXrecord
280
     1
340
1F
  0
XRECORD
  5
23E1
102
{ACAD_REACTORS
330
2383
102
}
330
2383
100
AcDbXrecord
280
     1
340
D2
  0
XRECORD
  5
23E4
102
{ACAD_REACTORS
330
2385
102
}
330
2385
100
AcDbXrecord
280
     1
340
D6
  0
ACDBDETAILVIEWSTYLE
  5
21C
102
{ACAD_XDICTIONARY
360
24C0
102
}
102
{ACAD_REACTORS
330
21B
102
}
330
21B
100
AcDbModelDocViewStyle
 70
     0
  3
Metric50
290
     0
100
AcDbDetailViewStyle
 70
     0
 71
     0
 90
        3
 71
     1
340
11
 40
5.0
340
0
 40
5.0
300

 40
0.0
280
     1
 71
     2
340
16
 90
       25
 71
     3
340
11
 40
5.0
 90
        0
 40
15.0
 90
        1
300
%<\AcVar ViewDetailId>% (%<\AcVar ViewScale \f "%sn">%)
 71
     4
340
16
 90
       25
340
16
 90
       25
280
     0
  0
LAYOUT
  5
D3
102
{ACAD_XDICTIONARY
360
2485
102
}
102
{ACAD_REACTORS
330
1A
102
}
330
1A
100
AcDbPlotSettings
  1

  2
C:\Documents and Settings\basas\Application Data\Autodesk\AutoCAD 2005\R16.1\enu\plotters\Default Windows System Printer.pc3
  4

  6

 40
0.0
 41
0.0
 42
0.0
 43
0.0
 44
0.0
 45
0.0
 46
0.0
 47
0.0
 48
0.0
 49
0.0
140
0.0
141
0.0
142
1.0
143
1.0
 70
   688
 72
     0
 73
     0
 74
     5
  7

 75
    16
147
1.0
148
0.0
149
0.0
100
AcDbLayout
  1
Layout1
 70
     1
 71
     1
 10
0.0
 20
0.0
 11
12.0
 21
9.0
 12
0.0
 22
0.0
 32
0.0
 14
0.0
 24
0.0
 34
0.0
 15
0.0
 25
0.0
 35
0.0
146
0.0
 13
0.0
 23
0.0
 33
0.0
 16
1.0
 26
0.0
 36
0.0
 17
0.0
 27
1.0
 37
0.0
 76
     0
330
D2
  0
LAYOUT
  5
D7
102
{ACAD_XDICTIONARY
360
2487
102
}
102
{ACAD_REACTORS
330
1A
102
}
330
1A
100
AcDbPlotSettings
  1

  2
C:\Documents and Settings\basas\Application Data\Autodesk\AutoCAD 2005\R16.1\enu\plotters\Default Windows System Printer.pc3
  4

  6

 40
0.0
 41
0.0
 42
0.0
 43
0.0
 44
0.0
 45
0.0
 46
0.0
 47
0.0
 48
0.0
 49
0.0
140
0.0
141
0.0
142
1.0
143
1.0
 70
   688
 72
     0
 73
     0
 74
     5
  7

 75
    16
147
1.0
148
0.0
149
0.0
100
AcDbLayout
  1
Layout2
 70
     1
 71
     2
 10
0.0
 20
0.0
 11
12.0
 21
9.0
 12
0.0
 22
0.0
 32
0.0
 14
0.0
 24
0.0
 34
0.0
 15
0.0
 25
0.0
 35
0.0
146
0.0
 13
0.0
 23
0.0
 33
0.0
 16
1.0
 26
0.0
 36
0.0
 17
0.0
 27
1.0
 37
0.0
 76
     0
330
D6
  0
LAYOUT
  5
22
102
{ACAD_XDICTIONARY
360
2482
102
}
102
{ACAD_REACTORS
330
1A
102
}
330
1A
100
AcDbPlotSettings
  1

  2
none_device
  4
ISO_A4_(210.00_x_297.00_MM)
  6

 40
7.5
 41
20.0
 42
7.5
 43
20.0
 44
210.0
 45
297.0
 46
11.54999923706054
 47
-13.65000009536743
 48
0.0
 49
0.0
140
0.0
141
0.0
142
1.0
143
8.704084754739808
 70
 11952
 72
     1
 73
     0
 74
     0
  7

 75
     0
147
0.1148885871608098
148
0.0
149
0.0
100
AcDbLayout
  1
Model
 70
     1
 71
     0
 10
0.0
 20
0.0
 11
12.0
 21
9.0
 12
0.0
 22
0.0
 32
0.0
 14
0.0
 24
0.0
 34
0.0
 15
0.0
 25
0.0
 35
0.0
146
0.0
 13
0.0
 23
0.0
 33
0.0
 16
1.0
 26
0.0
 36
0.0
 17
0.0
 27
1.0
 37
0.0
 76
     0
330
1F
331
EA
1001
ACAD_PSEXT
1000
None
1000
None
1000
Not applicable
1000
The layout will not be plotted unless a new plotter configuration name is selected.
1070
     0
  0
MATERIAL
  5
ED
102
{ACAD_XDICTIONARY
360
1F9
102
}
102
{ACAD_REACTORS
330
6A
102
}
330
6A
100
AcDbMaterial
  1
ByBlock
  0
MATERIAL
  5
EC
102
{ACAD_XDICTIONARY
360
1F7
102
}
102
{ACAD_REACTORS
330
6A
102
}
330
6A
100
AcDbMaterial
  1
ByLayer
  0
MATERIAL
  5
EE
102
{ACAD_XDICTIONARY
360
173
102
}
102
{ACAD_REACTORS
330
6A
102
}
330
6A
100
AcDbMaterial
  1
Global
 43
0.0007999999797903
 43
0.0
 43
0.0
 43
0.0
 43
0.0
 43
0.0007999999797903
 43
0.0
 43
0.0
 43
0.0
 43
0.0
 43
1.0
 43
0.0
 43
0.0
 43
0.0
 43
0.0
 43
1.0
 49
0.0007999999797903
 49
0.0
 49
0.0
 49
0.0
 49
0.0
 49
0.0007999999797903
 49
0.0
 49
0.0
 49
0.0
 49
0.0
 49
1.0
 49
0.0
 49
0.0
 49
0.0
 49
0.0
 49
1.0
142
0.0007999999797903
142
0.0
142
0.0
142
0.0
142
0.0
142
0.0007999999797903
142
0.0
142
0.0
142
0.0
142
0.0
142
1.0
142
0.0
142
0.0
142
0.0
142
0.0
142
1.0
144
0.0007999999797903
144
0.0
144
0.0
144
0.0
144
0.0
144
0.0007999999797903
144
0.0
144
0.0
144
0.0
144
0.0
144
1.0
144
0.0
144
0.0
144
0.0
144
0.0
144
1.0
1001
ACAD
1070
    -1
1070
     3
1070
     0
1000

1071
        0
1070
     0
  0
MLEADERSTYLE
  5
12E
102
{ACAD_XDICTIONARY
360
24AC
102
}
102
{ACAD_REACTORS
330
12D
102
}
330
12D
100
AcDbMLeaderStyle
170
     2
171
     1
172
     0
 90
        2
 40
0.0
 41
0.0
173
     1
 91
-1056964608
340
14
 92
       -2
290
     1
 42
2.0
291
     1
 43
8.0
  3
Standard
 44
4.0
300

342
11
174
     1
178
     1
175
     1
176
     0
 93
-1056964608
 45
4.0
292
     0
297
     0
 46
4.0
 94
-1056964608
 47
1.0
 49
1.0
140
1.0
293
     1
141
0.0
294
     1
177
     0
142
1.0
295
     0
296
     0
143
3.75
1001
ACAD_MLEADERVER
1070
     2
  0
MLINESTYLE
  5
18
102
{ACAD_REACTORS
330
17
102
}
330
17
100
AcDbMlineStyle
  2
STANDARD
 70
     0
  3

 62
   256
 51
90.0
 52
90.0
 71
     2
 49
0.5
 62
   256
  6
BYLAYER
 49
-0.5
 62
   256
  6
BYLAYER
  0
ACDBPLACEHOLDER
  5
F
102
{ACAD_REACTORS
330
E
102
}
330
E
  0
SCALE
  5
10D
102
{ACAD_REACTORS
330
10C
102
}
330
10C
100
AcDbScale
 70
     0
300
1:1
140
1.0
141
1.0
290
     1
  0
SCALE
  5
1BE
102
{ACAD_REACTORS
330
10C
102
}
330
10C
100
AcDbScale
 70
     0
300
1:2
140
1.0
141
2.0
290
     0
  0
SCALE
  5
1BF
102
{ACAD_REACTORS
330
10C
102
}
330
10C
100
AcDbScale
 70
     0
300
1:4
140
1.0
141
4.0
290
     0
  0
SCALE
  5
1C0
102
{ACAD_REACTORS
330
10C
102
}
330
10C
100
AcDbScale
 70
     0
300
1:5
140
1.0
141
5.0
290
     0
  0
SCALE
  5
1C1
102
{ACAD_REACTORS
330
10C
102
}
330
10C
100
AcDbScale
 70
     0
300
1:8
140
1.0
141
8.0
290
     0
  0
SCALE
  5
1C2
102
{ACAD_REACTORS
330
10C
102
}
330
10C
100
AcDbScale
 70
     0
300
1:10
140
1.0
141
10.0
290
     0
  0
SCALE
  5
1C3
102
{ACAD_REACTORS
330
10C
102
}
330
10C
100
AcDbScale
 70
     0
300
1:16
140
1.0
141
16.0
290
     0
  0
SCALE
  5
1C4
102
{ACAD_REACTORS
330
10C
102
}
330
10C
100
AcDbScale
 70
     0
300
1:20
140
1.0
141
20.0
290
     0
  0
SCALE
  5
1C5
102
{ACAD_REACTORS
330
10C
102
}
330
10C
100
AcDbScale
 70
     0
300
1:30
140
1.0
141
30.0
290
     0
  0
SCALE
  5
1C6
102
{ACAD_REACTORS
330
10C
102
}
330
10C
100
AcDbScale
 70
     0
300
1:40
140
1.0
141
40.0
290
     0
  0
SCALE
  5
1C7
102
{ACAD_REACTORS
330
10C
102
}
330
10C
100
AcDbScale
 70
     0
300
1:50
140
1.0
141
50.0
290
     0
  0
SCALE
  5
1C8
102
{ACAD_REACTORS
330
10C
102
}
330
10C
100
AcDbScale
 70
     0
300
1:100
140
1.0
141
100.0
290
     0
  0
SCALE
  5
1C9
102
{ACAD_REACTORS
330
10C
102
}
330
10C
100
AcDbScale
 70
     0
300
2:1
140
2.0
141
1.0
290
     0
  0
SCALE
  5
1CA
102
{ACAD_REACTORS
330
10C
102
}
330
10C
100
AcDbScale
 70
     0
300
4:1
140
4.0
141
1.0
290
     0
  0
SCALE
  5
1CB
102
{ACAD_REACTORS
330
10C
102
}
330
10C
100
AcDbScale
 70
     0
300
8:1
140
8.0
141
1.0
290
     0
  0
SCALE
  5
1CC
102
{ACAD_REACTORS
330
10C
102
}
330
10C
100
AcDbScale
 70
     0
300
10:1
140
10.0
141
1.0
290
     0
  0
SCALE
  5
1CD
102
{ACAD_REACTORS
330
10C
102
}
330
10C
100
AcDbScale
 70
     0
300
100:1
140
100.0
141
1.0
290
     0
  0
ACDBSECTIONVIEWSTYLE
  5
21A
102
{ACAD_XDICTIONARY
360
24BE
102
}
102
{ACAD_REACTORS
330
219
102
}
330
219
100
AcDbModelDocViewStyle
 70
     0
  3
Metric50
290
     0
100
AcDbSectionViewStyle
 70
     0
 71
     0
 90
      102
 71
     1
340
11
 40
5.0
340
0
340
0
 40
5.0
300
I, O, Q, S, X, Z
 40
10.0
 90
        0
 40
2.5
 90
        0
 71
     2
340
16
 90
       25
340
16
 90
       50
 40
5.0
 40
2.5
 40
5.0
 71
     3
340
11
 40
5.0
 90
        0
 40
15.0
 90
        1
300
%<\AcVar ViewSectionStartId>%-%<\AcVar ViewSectionEndId>% (%<\AcVar ViewScale \f "%sn">%)
 71
     4
300
ANSI31
 40
1.0
 90
        0
290
     0
290
     0
 90
        6
 40
0.0
 40
1.570796326794896
 40
0.2617993877991494
 40
1.308996938995747
 40
-0.2617993877991494
 40
1.832595714594046
  0
TABLESTYLE
  5
7F
102
{ACAD_XDICTIONARY
360
162
102
}
102
{ACAD_REACTORS
330
7E
102
}
330
7E
100
AcDbTableStyle
  3
Standard
 70
     0
 71
     0
 40
1.5
 41
1.5
280
     0
281
     0
  7
Standard
140
4.5
170
     2
 62
     0
 63
     7
283
     0
274
    -2
284
     1
 64
     0
275
    -2
285
     1
 65
     0
276
    -2
286
     1
 66
     0
277
    -2
287
     1
 67
     0
278
    -2
288
     1
 68
     0
279
    -2
289
     1
 69
     0
  7
Standard
140
6.0
170
     5
 62
     0
 63
     7
283
     0
274
    -2
284
     1
 64
     0
275
    -2
285
     1
 65
     0
276
    -2
286
     1
 66
     0
277
    -2
287
     1
 67
     0
278
    -2
288
     1
 68
     0
279
    -2
289
     1
 69
     0
  7
Standard
140
4.5
170
     5
 62
     0
 63
     7
283
     0
274
    -2
284
     1
 64
     0
275
    -2
285
     1
 65
     0
276
    -2
286
     1
 66
     0
277
    -2
287
     1
 67
     0
278
    -2
288
     1
 68
     0
279
    -2
289
     1
 69
     0
  0
VISUALSTYLE
  5
F5
102
{ACAD_XDICTIONARY
360
2496
102
}
102
{ACAD_REACTORS
330
EF
102
}
330
EF
100
AcDbVisualStyle
  2
2dWireframe
 70
     4
 71
     0
 72
     2
 73
     1
 90
        0
 40
-0.6
 41
-30.0
 62
     5
 63
     7
 74
     1
 91
        4
 64
     7
 65
   257
 75
     1
175
     1
 42
1.0
 92
        0
 66
   257
 43
1.0
 76
     1
 77
     6
 78
     2
 67
     7
 79
     5
170
     0
171
     0
290
     0
174
     0
 93
        1
 44
0.0
173
     0
291
     0
 45
0.0
1001
ACAD
1000
AcDbSavedByObjectVersion
1070
     0
  0
VISUALSTYLE
  5
F4
102
{ACAD_XDICTIONARY
360
2494
102
}
102
{ACAD_REACTORS
330
EF
102
}
330
EF
100
AcDbVisualStyle
  2
Basic
 70
     7
 71
     1
 72
     0
 73
     1
 90
        0
 40
-0.6
 41
-30.0
 62
     5
 63
     7
 74
     0
 91
        4
 64
     7
 65
   257
 75
     1
175
     1
 42
1.0
 92
        8
 66
     7
 43
1.0
 76
     1
 77
     6
 78
     2
 67
     7
 79
     5
170
     0
171
     0
290
     0
174
     0
 93
        1
 44
0.0
173
     0
291
     1
 45
0.0
1001
ACAD
1000
AcDbSavedByObjectVersion
1070
     0
  0
VISUALSTYLE
  5
FB
102
{ACAD_XDICTIONARY
360
24A2
102
}
102
{ACAD_REACTORS
330
EF
102
}
330
EF
100
AcDbVisualStyle
  2
Brighten
 70
    12
 71
     2
 72
     2
 73
     1
 90
        0
 40
-0.6
 41
-30.0
 62
     5
 63
     7
 74
     1
 91
        4
 64
     7
 65
   257
 75
     1
175
     1
 42
1.0
 92
        8
 66
     7
 43
1.0
 76
     1
 77
     6
 78
     2
 67
     7
 79
     5
170
     0
171
     0
290
     0
174
     0
 93
        1
 44
50.0
173
     0
291
     1
 45
0.0
1001
ACAD
1000
AcDbSavedByObjectVersion
1070
     0
  0
VISUALSTYLE
  5
FF
102
{ACAD_XDICTIONARY
360
24AA
102
}
102
{ACAD_REACTORS
330
EF
102
}
330
EF
100
AcDbVisualStyle
  2
ColorChange
 70
    16
 71
     2
 72
     2
 73
     3
 90
        0
 40
-0.6
 41
-30.0
 62
     5
 63
     8
 74
     1
 91
        4
 64
     7
 65
   257
 75
     1
175
     1
 42
1.0
 92
        8
 66
     8
 43
1.0
 76
     1
 77
     6
 78
     2
 67
     7
 79
     5
170
     0
171
     0
290
     0
174
     0
 93
        1
 44
0.0
173
     0
291
     1
 45
0.0
1001
ACAD
1000
AcDbSavedByObjectVersion
1070
     0
  0
VISUALSTYLE
  5
F8
102
{ACAD_XDICTIONARY
360
249C
102
}
102
{ACAD_REACTORS
330
EF
102
}
330
EF
100
AcDbVisualStyle
  2
Conceptual
 70
     9
 71
     3
 72
     2
 73
     1
 90
        0
 40
-0.6
 41
-30.0
 62
     5
 63
     7
 74
     2
 91
        2
 64
     7
 65
   257
 75
     1
175
     1
 42
40.0
 92
        8
 66
     7
 43
1.0
 76
     1
 77
     6
 78
     2
 67
     7
 79
     3
170
     0
171
     0
290
     0
174
     0
 93
        1
 44
0.0
173
     0
291
     0
 45
0.0
1001
ACAD
1000
AcDbSavedByObjectVersion
1070
     0
  0
VISUALSTYLE
  5
FA
102
{ACAD_XDICTIONARY
360
24A0
102
}
102
{ACAD_REACTORS
330
EF
102
}
330
EF
100
AcDbVisualStyle
  2
Dim
 70
    11
 71
     2
 72
     2
 73
     1
 90
        0
 40
-0.6
 41
-30.0
 62
     5
 63
     7
 74
     1
 91
        4
 64
     7
 65
   257
 75
     1
175
     1
 42
1.0
 92
        8
 66
     7
 43
1.0
 76
     1
 77
     6
 78
     2
 67
     7
 79
     5
170
     0
171
     0
290
     0
174
     0
 93
        1
 44
-50.0
173
     0
291
     1
 45
0.0
1001
ACAD
1000
AcDbSavedByObjectVersion
1070
     0
  0
VISUALSTYLE
  5
1E6
102
{ACAD_XDICTIONARY
360
24B2
102
}
102
{ACAD_REACTORS
330
EF
102
}
330
EF
100
AcDbVisualStyle
  2
EdgeColorOff
 70
    22
 71
     2
 72
     2
 73
     0
 90
        0
 40
-0.6
 41
-30.0
 62
     5
 63
     7
 74
     1
 91
        4
 64
     7
 65
   257
 75
     1
175
     1
 42
1.0
 92
        8
 66
     7
 43
1.0
 76
     1
 77
     6
 78
     2
 67
     7
 79
     5
170
     0
171
     0
290
     0
174
     0
 93
        1
 44
0.0
173
     0
291
     1
 45
0.0
1001
ACAD
1000
AcDbSavedByObjectVersion
1070
     0
  0
VISUALSTYLE
  5
FE
102
{ACAD_XDICTIONARY
360
24A8
102
}
102
{ACAD_REACTORS
330
EF
102
}
330
EF
100
AcDbVisualStyle
  2
Facepattern
 70
    15
 71
     2
 72
     2
 73
     1
 90
        0
 40
-0.6
 41
-30.0
 62
     5
 63
     7
 74
     1
 91
        4
 64
     7
 65
   257
 75
     1
175
     1
 42
1.0
 92
        8
 66
     7
 43
1.0
 76
     1
 77
     6
 78
     2
 67
     7
 79
     5
170
     0
171
     0
290
     0
174
     0
 93
        1
 44
0.0
173
     0
291
     1
 45
0.0
1001
ACAD
1000
AcDbSavedByObjectVersion
1070
     0
  0
VISUALSTYLE
  5
F0
102
{ACAD_XDICTIONARY
360
248C
102
}
102
{ACAD_REACTORS
330
EF
102
}
330
EF
100
AcDbVisualStyle
  2
Flat
 70
     0
 71
     2
 72
     1
 73
     1
 90
        2
 40
-0.6
 41
30.0
 62
     5
 63
     7
 74
     0
 91
        0
 64
     7
 65
   257
 75
     1
175
     1
 42
1.0
 92
        8
 66
     7
 43
1.0
 76
     1
 77
     6
 78
     2
 67
     7
 79
     5
170
     0
171
     0
290
     0
174
     0
 93
       13
 44
0.0
173
     0
291
     1
 45
0.0
1001
ACAD
1000
AcDbSavedByObjectVersion
1070
     0
  0
VISUALSTYLE
  5
F1
102
{ACAD_XDICTIONARY
360
248E
102
}
102
{ACAD_REACTORS
330
EF
102
}
330
EF
100
AcDbVisualStyle
  2
FlatWithEdges
 70
     1
 71
     2
 72
     1
 73
     1
 90
        2
 40
-0.6
 41
30.0
 62
     5
 63
     7
 74
     1
 91
        0
 64
     7
 65
   257
 75
     1
175
     1
 42
1.0
 92
        0
 66
   257
 43
1.0
 76
     1
 77
     6
 78
     2
 67
     7
 79
     5
170
     0
171
     0
290
     0
174
     0
 93
       13
 44
0.0
173
     0
291
     1
 45
0.0
1001
ACAD
1000
AcDbSavedByObjectVersion
1070
     0
  0
VISUALSTYLE
  5
F2
102
{ACAD_XDICTIONARY
360
2490
102
}
102
{ACAD_REACTORS
330
EF
102
}
330
EF
100
AcDbVisualStyle
  2
Gouraud
 70
     2
 71
     2
 72
     2
 73
     1
 90
        2
 40
-0.6
 41
30.0
 62
     5
 63
     7
 74
     0
 91
        0
 64
     7
 65
   257
 75
     1
175
     1
 42
1.0
 92
        0
 66
     7
 43
1.0
 76
     1
 77
     6
 78
     2
 67
     7
 79
     5
170
     0
171
     0
290
     0
174
     0
 93
       13
 44
0.0
173
     0
291
     1
 45
0.0
1001
ACAD
1000
AcDbSavedByObjectVersion
1070
     0
  0
VISUALSTYLE
  5
F3
102
{ACAD_XDICTIONARY
360
2492
102
}
102
{ACAD_REACTORS
330
EF
102
}
330
EF
100
AcDbVisualStyle
  2
GouraudWithEdges
 70
     3
 71
     2
 72
     2
 73
     1
 90
        2
 40
-0.6
 41
30.0
 62
     5
 63
     7
 74
     1
 91
        0
 64
     7
 65
   257
 75
     1
175
     1
 42
1.0
 92
        0
 66
   257
 43
1.0
 76
     1
 77
     6
 78
     2
 67
     7
 79
     5
170
     0
171
     0
290
     0
174
     0
 93
       13
 44
0.0
173
     0
291
     1
 45
0.0
1001
ACAD
1000
AcDbSavedByObjectVersion
1070
     0
  0
VISUALSTYLE
  5
F7
102
{ACAD_XDICTIONARY
360
249A
102
}
102
{ACAD_REACTORS
330
EF
102
}
330
EF
100
AcDbVisualStyle
  2
Hidden
 70
     6
 71
     1
 72
     2
 73
     2
 90
        0
 40
-0.6
 41
-30.0
 62
     5
 63
     7
 74
     2
 91
        2
 64
     7
 65
   257
 75
     2
175
     1
 42
40.0
 92
        0
 66
   257
 43
1.0
 76
     1
 77
     6
 78
     2
 67
     7
 79
     3
170
     0
171
     0
290
     0
174
     0
 93
        1
 44
0.0
173
     0
291
     0
 45
0.0
1001
ACAD
1000
AcDbSavedByObjectVersion
1070
     0
  0
VISUALSTYLE
  5
1E4
102
{ACAD_XDICTIONARY
360
24AE
102
}
102
{ACAD_REACTORS
330
EF
102
}
330
EF
100
AcDbVisualStyle
  2
JitterOff
 70
    20
 71
     2
 72
     2
 73
     0
 90
        0
 40
-0.6
 41
-30.0
 62
     5
 63
     7
 74
     1
 91
        4
 64
     7
 65
   257
 75
     1
175
     1
 42
1.0
 92
       10
 66
     7
 43
1.0
 76
     1
 77
     6
 78
     2
 67
     7
 79
     5
170
     0
171
     0
290
     0
174
     0
 93
        1
 44
0.0
173
     0
291
     1
 45
0.0
1001
ACAD
1000
AcDbSavedByObjectVersion
1070
     0
  0
VISUALSTYLE
  5
FD
102
{ACAD_XDICTIONARY
360
24A6
102
}
102
{ACAD_REACTORS
330
EF
102
}
330
EF
100
AcDbVisualStyle
  2
Linepattern
 70
    14
 71
     2
 72
     2
 73
     1
 90
        0
 40
-0.6
 41
-30.0
 62
     5
 63
     7
 74
     1
 91
        4
 64
     7
 65
   257
 75
     7
175
     7
 42
1.0
 92
        8
 66
     7
 43
1.0
 76
     1
 77
     6
 78
     2
 67
     7
 79
     5
170
     0
171
     0
290
     0
174
     0
 93
        1
 44
0.0
173
     0
291
     1
 45
0.0
1001
ACAD
1000
AcDbSavedByObjectVersion
1070
     0
  0
VISUALSTYLE
  5
1E5
102
{ACAD_XDICTIONARY
360
24B0
102
}
102
{ACAD_REACTORS
330
EF
102
}
330
EF
100
AcDbVisualStyle
  2
OverhangOff
 70
    21
 71
     2
 72
     2
 73
     0
 90
        0
 40
-0.6
 41
-30.0
 62
     5
 63
     7
 74
     1
 91
        4
 64
     7
 65
   257
 75
     1
175
     1
 42
1.0
 92
        9
 66
     7
 43
1.0
 76
     1
 77
     6
 78
     2
 67
     7
 79
     5
170
     0
171
     0
290
     0
174
     0
 93
        1
 44
0.0
173
     0
291
     1
 45
0.0
1001
ACAD
1000
AcDbSavedByObjectVersion
1070
     0
  0
VISUALSTYLE
  5
F9
102
{ACAD_XDICTIONARY
360
249E
102
}
102
{ACAD_REACTORS
330
EF
102
}
330
EF
100
AcDbVisualStyle
  2
Realistic
 70
     8
 71
     2
 72
     2
 73
     0
 90
        2
 40
-0.6
 41
30.0
 62
     5
 63
     7
 74
     0
 91
        0
 64
     7
 65
   257
 75
     1
175
     1
 42
1.0
 92
        8
 66
   257
 43
1.0
 76
     1
 77
     6
 78
     2
 67
     7
 79
     3
170
     0
171
     0
290
     0
174
     0
 93
       13
 44
0.0
173
     0
291
     0
 45
0.0
1001
ACAD
1000
AcDbSavedByObjectVersion
1070
     0
  0
VISUALSTYLE
  5
1F3
102
{ACAD_XDICTIONARY
360
24BC
102
}
102
{ACAD_REACTORS
330
EF
102
}
330
EF
100
AcDbVisualStyle
  2
Shaded
 70
    27
 71
     2
 72
     2
 73
     1
 90
        2
 40
-0.6
 41
30.0
 62
     5
 63
     7
 74
     0
 91
        4
 64
     7
 65
   257
 75
     1
175
     1
 42
1.0
 92
        8
 66
   257
 43
1.0
 76
     1
 77
     6
 78
     2
 67
     8
 79
     3
170
     0
171
     0
290
     0
174
     0
 93
        5
 44
0.0
173
     0
291
     0
 45
0.0
1001
ACAD
1000
AcDbSavedByObjectVersion
1070
     0
  0
VISUALSTYLE
  5
1F2
102
{ACAD_XDICTIONARY
360
24BA
102
}
102
{ACAD_REACTORS
330
EF
102
}
330
EF
100
AcDbVisualStyle
  2
Shaded with edges
 70
    26
 71
     2
 72
     2
 73
     1
 90
        2
 40
-0.6
 41
30.0
 62
     5
 63
     7
 74
     1
 91
        2
 64
     7
 65
   257
 75
     2
175
     1
 42
1.0
 92
        8
 66
   257
 43
1.0
 76
     1
 77
     6
 78
     2
 67
     7
 79
     3
170
     0
171
     0
290
     0
174
     0
 93
        5
 44
0.0
173
     0
291
     0
 45
0.0
1001
ACAD
1000
AcDbSavedByObjectVersion
1070
     0
  0
VISUALSTYLE
  5
1EF
102
{ACAD_XDICTIONARY
360
24B4
102
}
102
{ACAD_REACTORS
330
EF
102
}
330
EF
100
AcDbVisualStyle
  2
Shades of Gray
 70
    23
 71
     2
 72
     2
 73
     3
 90
        0
 40
-0.6
 41
-30.0
 62
     5
 63
     7
 74
     2
 91
        2
 64
     7
 65
     7
 75
     1
175
     1
 42
40.0
 92
        8
 66
     7
 43
1.0
 76
     1
 77
     6
 78
     2
 67
     7
 79
     3
170
     0
171
     0
290
     0
174
     0
 93
        1
 44
0.0
173
     0
291
     0
 45
0.0
1001
ACAD
1000
AcDbSavedByObjectVersion
1070
     0
  0
VISUALSTYLE
  5
1F0
102
{ACAD_XDICTIONARY
360
24B6
102
}
102
{ACAD_REACTORS
330
EF
102
}
330
EF
100
AcDbVisualStyle
  2
Sketchy
 70
    24
 71
     1
 72
     2
 73
     2
 90
        0
 40
-0.6
 41
-30.0
 62
     5
 63
     7
 74
     2
 91
        2
 64
     7
 65
     7
 75
     1
175
     1
 42
40.0
 92
       11
 66
     7
 43
1.0
 76
     1
 77
     6
 78
     2
 67
     7
 79
     6
170
     0
171
     0
290
     0
174
     0
 93
        1
 44
0.0
173
     0
291
     0
 45
0.0
1001
ACAD
1000
AcDbSavedByObjectVersion
1070
     0
  0
VISUALSTYLE
  5
FC
102
{ACAD_XDICTIONARY
360
24A4
102
}
102
{ACAD_REACTORS
330
EF
102
}
330
EF
100
AcDbVisualStyle
  2
Thicken
 70
    13
 71
     2
 72
     2
 73
     1
 90
        0
 40
-0.6
 41
-30.0
 62
     5
 63
     7
 74
     1
 91
        4
 64
     7
 65
   257
 75
     1
175
     1
 42
1.0
 92
       12
 66
     7
 43
1.0
 76
     1
 77
     6
 78
     2
 67
     7
 79
     5
170
     0
171
     0
290
     0
174
     0
 93
        1
 44
0.0
173
     0
291
     1
 45
0.0
1001
ACAD
1000
AcDbSavedByObjectVersion
1070
     0
  0
VISUALSTYLE
  5
F6
102
{ACAD_XDICTIONARY
360
2498
102
}
102
{ACAD_REACTORS
330
EF
102
}
330
EF
100
AcDbVisualStyle
  2
Wireframe
 70
     5
 71
     0
 72
     2
 73
     0
 90
        0
 40
-0.6
 41
-30.0
 62
     5
 63
     7
 74
     1
 91
        4
 64
     7
 65
   257
 75
     1
175
     1
 42
1.0
 92
        0
 66
   257
 43
1.0
 76
     1
 77
     6
 78
     2
 67
     7
 79
     3
170
     0
171
     0
290
     0
174
     0
 93
        1
 44
0.0
173
     0
291
     0
 45
0.0
1001
ACAD
1000
AcDbSavedByObjectVersion
1070
     0
  0
VISUALSTYLE
  5
1F1
102
{ACAD_XDICTIONARY
360
24B8
102
}
102
{ACAD_REACTORS
330
EF
102
}
330
EF
100
AcDbVisualStyle
  2
X-Ray
 70
    25
 71
     2
 72
     2
 73
     1
 90
        1
 40
0.5
 41
-30.0
 62
     5
 63
     7
 74
     1
 91
        0
 64
     7
 65
   257
 75
     1
175
     1
 42
1.0
 92
        8
 66
     7
 43
1.0
 76
     1
 77
     6
 78
     2
 67
     7
 79
     3
170
     0
171
     0
290
     0
174
     0
 93
       13
 44
0.0
173
     0
291
     0
 45
0.0
1001
ACAD
1000
AcDbSavedByObjectVersion
1070
     0
  0
DICTIONARYVAR
  5
146
102
{ACAD_REACTORS
330
5E
102
}
330
5E
100
DictionaryVariables
280
     0
  1
1:1
  0
DICTIONARYVAR
  5
259
102
{ACAD_REACTORS
330
5E
102
}
330
5E
100
DictionaryVariables
280
     0
  1
3.500000
  0
DICTIONARYVAR
  5
25A
102
{ACAD_REACTORS
330
5E
102
}
330
5E
100
DictionaryVariables
280
     0
  1
acadiso.lin
  0
DICTIONARYVAR
  5
145
102
{ACAD_REACTORS
330
5E
102
}
330
5E
100
DictionaryVariables
280
     0
  1
STANDARD
  0
DICTIONARYVAR
  5
84
102
{ACAD_REACTORS
330
5E
102
}
330
5E
100
DictionaryVariables
280
     0
  1
STANDARD
  0
DICTIONARYVAR
  5
227
102
{ACAD_REACTORS
330
5E
102
}
330
5E
100
DictionaryVariables
280
     0
  1
Metric50
  0
DICTIONARYVAR
  5
228
102
{ACAD_REACTORS
330
5E
102
}
330
5E
100
DictionaryVariables
280
     0
  1
Metric50
  0
DICTIONARYVAR
  5
5F
102
{ACAD_REACTORS
330
5E
102
}
330
5E
100
DictionaryVariables
280
     0
  1
2
  0
DICTIONARYVAR
  5
63
102
{ACAD_REACTORS
330
5E
102
}
330
5E
100
DictionaryVariables
280
     0
  1
1
  0
DICTIONARYVAR
  5
242D
102
{ACAD_REACTORS
330
5E
102
}
330
5E
100
DictionaryVariables
280
     0
  1
0
  0
DICTIONARYVAR
  5
1AE
102
{ACAD_REACTORS
330
5E
102
}
330
5E
100
DictionaryVariables
280
     0
  1
0
  0
DICTIONARYVAR
  5
1AF
102
{ACAD_REACTORS
330
5E
102
}
330
5E
100
DictionaryVariables
280
     0
  1
0
  0
DICTIONARYVAR
  5
242B
102
{ACAD_REACTORS
330
5E
102
}
330
5E
100
DictionaryVariables
280
     0
  1
2
  0
DICTIONARYVAR
  5
242A
102
{ACAD_REACTORS
330
5E
102
}
330
5E
100
DictionaryVariables
280
     0
  1
1
  0
DICTIONARYVAR
  5
247D
102
{ACAD_REACTORS
330
5E
102
}
330
5E
100
DictionaryVariables
280
     0
  1
80.000000
  0
DICTIONARYVAR
  5
247C
102
{ACAD_REACTORS
330
5E
102
}
330
5E
100
DictionaryVariables
280
     0
  1
5.000000
  0
DICTIONARYVAR
  5
242C
102
{ACAD_REACTORS
330
5E
102
}
330
5E
100
DictionaryVariables
280
     0
  1
127
  0
DICTIONARYVAR
  5
247E
102
{ACAD_REACTORS
330
5E
102
}
330
5E
100
DictionaryVariables
280
     0
  1
2
  0
DICTIONARY
  5
24C0
330
21C
100
AcDbDictionary
280
     1
281
     1
  3
ACAD_XREC_ROUNDTRIP
360
24C1
  0
DICTIONARY
  5
2485
330
D3
100
AcDbDictionary
280
     1
281
     1
  3
ACAD_XREC_ROUNDTRIP
360
2486
  0
DICTIONARY
  5
2487
330
D7
100
AcDbDictionary
280
     1
281
     1
  3
ACAD_XREC_ROUNDTRIP
360
2488
  0
DICTIONARY
  5
2482
330
22
100
AcDbDictionary
280
     1
281
     1
  3
ACAD_XREC_ROUNDTRIP
360
2483
  0
DICTIONARY
  5
1F9
330
ED
100
AcDbDictionary
280
     1
281
     1
  3
ACAD_XREC_ROUNDTRIP
360
248A
  3
FBXASSET
360
1FA
  0
DICTIONARY
  5
1F7
330
EC
100
AcDbDictionary
280
     1
281
     1
  3
ACAD_XREC_ROUNDTRIP
360
2489
  3
FBXASSET
360
1F8
  0
DICTIONARY
  5
173
330
EE
100
AcDbDictionary
280
     1
281
     1
  3
ACAD_XREC_ROUNDTRIP
360
248B
  3
BUMPTILE
360
175
  3
DIFFUSETILE
360
174
  3
FBXASSET
360
1FB
  3
OPACITYTILE
360
176
  3
REFLECTIONTILE
360
177
  0
DICTIONARY
  5
24AC
330
12E
100
AcDbDictionary
280
     1
281
     1
  3
ACAD_XREC_ROUNDTRIP
360
24AD
  0
DICTIONARY
  5
24BE
330
21A
100
AcDbDictionary
280
     1
281
     1
  3
ACAD_XREC_ROUNDTRIP
360
24BF
  0
DICTIONARY
  5
162
330
7F
100
AcDbDictionary
280
     1
281
     1
  3
ACAD_ROUNDTRIP_2008_TABLESTYLE_CELLSTYLEMAP
360
247F
  3
ACAD_XREC_ROUNDTRIP
360
2484
  0
DICTIONARY
  5
2496
330
F5
100
AcDbDictionary
280
     1
281
     1
  3
ACAD_XREC_ROUNDTRIP
360
2497
  0
DICTIONARY
  5
2494
330
F4
100
AcDbDictionary
280
     1
281
     1
  3
ACAD_XREC_ROUNDTRIP
360
2495
  0
DICTIONARY
  5
24A2
330
FB
100
AcDbDictionary
280
     1
281
     1
  3
ACAD_XREC_ROUNDTRIP
360
24A3
  0
DICTIONARY
  5
24AA
330
FF
100
AcDbDictionary
280
     1
281
     1
  3
ACAD_XREC_ROUNDTRIP
360
24AB
  0
DICTIONARY
  5
249C
330
F8
100
AcDbDictionary
280
     1
281
     1
  3
ACAD_XREC_ROUNDTRIP
360
249D
  0
DICTIONARY
  5
24A0
330
FA
100
AcDbDictionary
280
     1
281
     1
  3
ACAD_XREC_ROUNDTRIP
360
24A1
  0
DICTIONARY
  5
24B2
330
1E6
100
AcDbDictionary
280
     1
281
     1
  3
ACAD_XREC_ROUNDTRIP
360
24B3
  0
DICTIONARY
  5
24A8
330
FE
100
AcDbDictionary
280
     1
281
     1
  3
ACAD_XREC_ROUNDTRIP
360
24A9
  0
DICTIONARY
  5
248C
330
F0
100
AcDbDictionary
280
     1
281
     1
  3
ACAD_XREC_ROUNDTRIP
360
248D
  0
DICTIONARY
  5
248E
330
F1
100
AcDbDictionary
280
     1
281
     1
  3
ACAD_XREC_ROUNDTRIP
360
248F
  0
DICTIONARY
  5
2490
330
F2
100
AcDbDictionary
280
     1
281
     1
  3
ACAD_XREC_ROUNDTRIP
360
2491
  0
DICTIONARY
  5
2492
330
F3
100
AcDbDictionary
280
     1
281
     1
  3
ACAD_XREC_ROUNDTRIP
360
2493
  0
DICTIONARY
  5
249A
330
F7
100
AcDbDictionary
280
     1
281
     1
  3
ACAD_XREC_ROUNDTRIP
360
249B
  0
DICTIONARY
  5
24AE
330
1E4
100
AcDbDictionary
280
     1
281
     1
  3
ACAD_XREC_ROUNDTRIP
360
24AF
  0
DICTIONARY
  5
24A6
330
FD
100
AcDbDictionary
280
     1
281
     1
  3
ACAD_XREC_ROUNDTRIP
360
24A7
  0
DICTIONARY
  5
24B0
330
1E5
100
AcDbDictionary
280
     1
281
     1
  3
ACAD_XREC_ROUNDTRIP
360
24B1
  0
DICTIONARY
  5
249E
330
F9
100
AcDbDictionary
280
     1
281
     1
  3
ACAD_XREC_ROUNDTRIP
360
249F
  0
DICTIONARY
  5
24BC
330
1F3
100
AcDbDictionary
280
     1
281
     1
  3
ACAD_XREC_ROUNDTRIP
360
24BD
  0
DICTIONARY
  5
24BA
330
1F2
100
AcDbDictionary
280
     1
281
     1
  3
ACAD_XREC_ROUNDTRIP
360
24BB
  0
DICTIONARY
  5
24B4
330
1EF
100
AcDbDictionary
280
     1
281
     1
  3
ACAD_XREC_ROUNDTRIP
360
24B5
  0
DICTIONARY
  5
24B6
330
1F0
100
AcDbDictionary
280
     1
281
     1
  3
ACAD_XREC_ROUNDTRIP
360
24B7
  0
DICTIONARY
  5
24A4
330
FC
100
AcDbDictionary
280
     1
281
     1
  3
ACAD_XREC_ROUNDTRIP
360
24A5
  0
DICTIONARY
  5
2498
330
F6
100
AcDbDictionary
280
     1
281
     1
  3
ACAD_XREC_ROUNDTRIP
360
2499
  0
DICTIONARY
  5
24B8
330
1F1
100
AcDbDictionary
280
     1
281
     1
  3
ACAD_XREC_ROUNDTRIP
360
24B9
  0
XRECORD
  5
24C1
102
{ACAD_REACTORS
330
24C0
102
}
330
24C0
100
AcDbXrecord
280
     1
102
DISPLAYNAME
  1
Metric50
102
FLAGS
 90
        0
  0
XRECORD
  5
2486
102
{ACAD_REACTORS
330
2485
102
}
330
2485
100
AcDbXrecord
280
     1
102
SHADEPLOT
 70
     0
102
SHADEPLOTRESLEVEL
 70
     2
102
SHADEPLOTCUSTOMDPI
 70
   300
  0
XRECORD
  5
2488
102
{ACAD_REACTORS
330
2487
102
}
330
2487
100
AcDbXrecord
280
     1
102
SHADEPLOT
 70
     0
102
SHADEPLOTRESLEVEL
 70
     2
102
SHADEPLOTCUSTOMDPI
 70
   300
  0
XRECORD
  5
2483
102
{ACAD_REACTORS
330
2482
102
}
330
2482
100
AcDbXrecord
280
     1
102
SHADEPLOT
 70
     0
102
SHADEPLOTRESLEVEL
 70
     2
102
SHADEPLOTCUSTOMDPI
 70
   300
  0
XRECORD
  5
248A
102
{ACAD_REACTORS
330
1F9
102
}
330
1F9
100
AcDbXrecord
280
     1
102
MATERIAL
148
0.0
149
0.0
149
0.0
 93
        0
 94
       63
282
     0
 72
     1
 77
     1
171
     1
175
     1
179
     1
273
     0
  0
XRECORD
  5
1FA
102
{ACAD_REACTORS
330
1F9
102
}
330
1F9
100
AcDbXrecord
280
     1
 70
     1
 90
429727718
  1
D62C5603-E3A1-4AEA-B7FB-FE5D8D0755AF
310
504B03040A0000080000CC70623B3DEE336E79000000790000001B0000006175746F6465736B2D64657369676E2D7061636B6167652E786D6C3C3F786D6C2076657273696F6E3D22312E302220656E636F64696E673D227574662D3822203F3E3C666F726D6174733E3C666F726D61743E687474703A2F2F736368656D612E
310
6175746F6465736B2E636F6D2F64657369676E2D7061636B6167652F323030393C2F666F726D61743E3C2F666F726D6174733E504B0304140006080800CC70623BD486FD9CA0000000F4000000130000005B436F6E74656E745F54797065735D2E786D6C7D8EC10E82300C865F65E91D8A1E8C310C0EEA1BF002731658846E
310
D98AC1B77784ABF1D8FE5FBFBF75BBCE937A534CCEB38643598122B6FEE978D0B0485F9C41B54DDD7D022595594E1A469170414C76A4D9A4D207E29CF43ECE46F218070CC6BECC4078ACAA135ACF422C856C0E68EA1BF5669944DDD7BCDE7B1F8E415D77AECB980613C2E4AC91FC167A2B244592486606FC29C8FD7F045B9A
310
EF7053A7E60B504B0304140006080800CC70623B853B8169EB0000007C01000008000000636F72652E786D6C8D90416EC3201045AF62CDB6C206821CC7C244919D9CA01740401C94182C03558F5F9C3852BBEB6A467FFE9B197D7EFC9E1EC5975982F5AE035262288C535E5B377690E21535501C055FBC8FBF6C503839990E
310
5619041F179FE64D52DE45E362569DD7661365082642A11EB9E920A89B99642953CC8E702F67A9EE7234257977194EC9EAE275C4EABCCF5EAD5940D4AC6F0E35A568B8F43562CD7046CD199FD07E60174276A7BE677B5EADB0E0D14EEFFB6A31321A0D82627C4084204C3F096B71DD52F6819B16635EADF63F509AF53FA164
310
5DDCD1EDDD17164090FCC8732078B56691CB33A85CD7DCC40F504B0304140006080800CC70623B55019EA25F0000007C00000007000000636E782E786D6C4DCB3B0E80201045D1AD90E915ED2CF8AC45050C11660C8261F98AB1B07AC9C97D42D718D865D3E909258CFD00CCE24AC6E326A164D74DC0B4128928FF32603847
310
2BA13128B1252AC747C6BAB984FC68F0B87FE8960A5C09FE86CFB69FBA01504B0304140006080800CC70623BDBABAAF470010000D40300000C0000006662782F636F72652E786D6CC553D16E823014FD95A6AF4B694182CC941A83FA05FB810A9511A125A5257EFE2E82712ECEB8A7F100CD39F7F69E734AF9FADC366850B6
310
AF8DCE7018308C942E4C59EB2AC3DE1D498AD15A706B8CFB56869196ADCAF00863C12B6B7C374385D14E6907A836A59A41D9F7CA615434B0C8705F7CAA5606D23BA8E84F41278B93AC54100640439DE0BDB320004D43C63716C7C399D30917DCFBBA9CD9BA8469F5B156168B24CED3F7248AC8769F27244EB73B92EED8862C
310
B7F13E0C179B3C8F979C8ECD82BBBABDAA2BAC924E9558448CBD9330242CFA08E3154B5651FCC6D215639C8EE5774DBE2B5F6CF2B5768B68963BB5F5588420E442FC700B1139D4CB01F450C1E918227C2E09DF070D8140C84E1E9AAB8F1340832A9CB13130A5F1376A908D57309505ECF2A0DF179C4E9D30F5B239B87E3823
310
7A79C6F31DE1A8A5AEC08474B03C7837EAE4938639B44E5932B833D2C6B6B279CDC613877FA26EE21F4A2A4C63EC7F29A2F301D1F9F7A0E37D145F504B0304140006080800CC70623B9C113CC27E0000009D0000000B0000006662782F636E782E786D6C4DCCDF0A83201C86E15B91DFB94BFB330DD428C8FB886521330DA7
310
6397BF1A1DECE883878F57749FCDA1B7892F1BBC047A23808C7F84D9FA55424E0BE6803A256208E9EF06C84F9B91703228B1C690F78B66B34CD9A5439DF5CF0BFBF65E35BCA1B8D6A5C6F540381E886698B5741C695F9503EBA150A2F8958E3DC3EA0B504B0304140006080800CC70623B7DF2F77C2A010000120200003100
310
00006662782F41393633353835312D344632462D344230382D423046372D3739314545314133324237412F636F72652E786D6C8D51DB8EC22014FC15C2939B0D2DB4B45643319AE817EC0F6041255A68B86CFCFC856D4D76DF7CE190393373060EDB3DC707F856CE6B6B7A480A0C81328395DA5C7B18C3057510EC3873D686
310
3F34088C18550F330C39BB3A1BA7051AAC09CA84841A2BD5020AEF55806078A44B0FFD7053A328440C89E1EFC52486BBB8AA8214A99D789CF9E05200300FC927E4FB4D5B375D43103D5527440FB843077C5AA3F5861C8F645F5787F59E95B390B318B55CE45AA638FAA2957BD7248B390B7A7CC51F9C124149C82B8C378810
310
84AB2F42B7B8DD56F413775B8C5999E9FF4471926F8AA236A1AE96B8B3CC434E5839373893369E1FAF30EA395917409EB7F26AF8801C171837A4A6AC9C89E9F9C9B1A58BA30FD6A5EF5DDDCF894B9AD9B6A59C957943A9FCAE2FD5BC4DFE03504B0304140006080800CC70623BAD7543B64E01000033030000300000006662
310
782F41393633353835312D344632462D344230382D423046372D3739314545314133324237412F636E782E786D6CD593CD6EC32010845F0571AD6CE3D48AD20813A9873E410FBD12D82434182C7EAAE6EDBB2424CD25871E7B41D6EC30B3FA84F9E67BB2E40B4234DE8DB46F1925E094D7C6ED479AD3AE5951B2113C789FEE
310
6C943839C1488B4C05DF079FE72A69D8C96C13AAD6B8631503449F83828872B949AC57D26200B826A308D316B4064D6E46FCDA41C05550DC9E483A00797BFD207EFB092A45DE9514C1BBD22178396BD39D891265658C238DEA00936C654E5E433CB65A26D9F6EDB5EBC14EBF49A45CB856E66048291F6939A9A81BB5C89177
310
38143CA680F4AA299D66A042CEB3354A2684DC9D8D178FE0D9B8B41CAAD720F880EE7EF93C0C18769E099ECC04D5A102C8049A8A05632F4DDF376CF1DE0F6BB65C2F8627B65A33C6BB62177CEBBDAD973006829F89F22E814B54F4BC2BE347F8AA8F681390B50FA73F804400B5F542E796F19FF974E7F78DB802FE05E20750
310
4B0304140006080800CC70623BE75B7789680500003C100000340000006662782F41393633353835312D344632462D344230382D423046372D3739314545314133324237412F6F626A656374732E786D6CAD575B8F9B3818FD2B887D06C22499CB8AA1CA655245D5B455A356FB305264C061D8018C6C3393D95FBFC7600890
310
A4CD5EF210B0B1BFEBF98E3F7B1FF6596ABC522E1296DF9BAE3D320D9A872C4AF2F8DE2CE5CEBA358D0FBEC719939D65A691938CDE9B6ADAF4BD98B3B2D05311DD91329583D9D5FC0F438434A7A611A644887B5384CF34233629258BA878B12322891DEFF6B66BD70BFB62634E8AE781D082709A4B588AF91C528CDA28B73F
310
1C998EEF39EABBEFA97FBD6A7C7E9553F9D3D79FE442923C3C523610337627CB87ABE99D359D4CC6D6E4FACAB5E6ABF9D2726FC6A3C5F56271377BB88362213924694B38DD99FE47C48627A1E7D49F5A8BB5E1A74C0A599ED3B0F21F1E56366B89112D681E218F0915D0D6F17AD41FBA2A369DCF6335D62ABBD39779D5DDD1
310
11D4D8DE3CBB96B2E04FB8202E41051754A1AA8E8F76B4C6DFE810B580B1547F4B84911149794252234D024EF8BBE963A95AE27B3D310A9D5C215C7960FAEE415ED75694C6AFB17BCACA5D99A60A9AA65F217B0BFC53292ACB92BF283FAD0D3621576592CB5BED907C2FA8E9DF794E35E97BEA31BED21FEB401ABB94C44839
310
DCACBF0E1C5DA8DA5B2F4DFFD32AD86F543D9E565E7056502E157C00AD2671CD534549AB752FCA9CDA00677A313F04E51B22FF19E57B300579E3C97EB29F682D92935CEC18CF901B7B54FD8C51F362B56FC72FE0B3C1EAE335EDCCBF5AEC39ADB17DC238973F804BA5E6F6BFE7AF1FB32E523BE9F3BD571418E3631DCA4D48
310
5250CF639223210A9446CA30052EDF057BD35F8329C1ECD84552BF0DC8D18BE7BCE23BFE6BD960AB4A7DE79923A103BEBD80F911CBAA2C60DB19B01CF164A5583B772EE6D3FFA56666CBCDA74DC97724A48F9A58967497E489C4D979006FD7A05E227A1EBDD0F737C623387A9C844D3709995625106D157315F8B8392CD4E0
310
A0B9A720C4BE9829CEF37EA1E13111214D53925356365ADA634861B52519DD27A00AEB808EAF0628E6F435519D446F45CF2C9CF5214F0A15B2F6D06B79DA3EE3CBF7F56780D2F4E7EF73A0F5E5B02A38D07DC852C6B7C1FBB6664213E0C39E3EBA7FF4E1AD23EA2829407C85E586727488B751B2DB9502BC7B228A3FD68B6E
310
A65A22397E690AA8D158D7E404EC8CDA235CC3B7D1898680131CEC2CDF2638C65196279577750F15884AEE19F94199155B92B13297978469D4F8D358DF0AEF7631E28DC8F0D9F437D5D39A83B2231A1D52D543813A824EF8D44BCFF2FA6A31BD1E8DAD87F1CCB526B3879935BF59CDADD5C37479BB1CDD4CA7B3556B516589
310
EF352754B706114D9C885EC9131DE6EFEB43D99AFE2391C2F958179413D7CFEF6B1B6DB1E7600F00DE6E5C67454A339A4BA2E0FBA85ED26F045D454F463DBFCE484C2F90F2E5E3666003662ED8F755951A7D1BECD5B30B550B2785C8E7320B7292A4838DDA71BBC863ED7613CAF659337A3354231D4FF4A182A54904C2898C
310
98B28C4AD0CE056CCF332A80986E571EE9DBC305BB5FEB7E509220A58D25CF042D712A806AC0AD0C657FDEF80D2D9CEAA2EE4D1C76F60BFE74219A06527D6F82DF6412526107381E55E353090704D085B52408A8913C4ED159D79BDA71BB4BC506F4831350EB6F975CD22D69BF7AC49B91A2C0A9DDA3D5CA36AD20FC478E37
310
E61844E2352865EBCB61A275A65283CAAA9DD27703B4102F5AF51EF5F573B75CBB5AD38BC845F7A49F82A0966A49C2E3EA5EA0ECD326CD965F1DB402C6FA8B51A4658C5C5E2EC9E214602E55810345408596591009A82E7E7FFACA19EEA299B14A0081A705CB3296EBC14CDF658DCD336EA6D1136881AAEB87B81AB9EE53D5
310
F5EB8BC8362082DA24122F98680A4E7930C01A0079749CEA14382A0783E5EBA5A10F8C098456A03D6A4AEB6BB881E2513747552A5DB22C7EDAF83BD5528081A365F7FF06504B0304140006080000CC70623B000000000000000000000000350000006662782F41393633353835312D344632462D344230382D423046372D37
310
39314545314133324237412F76657274696365732E62696E504B0304140006080800CC70623BF270F1330600000004000000360000006662782F41393633353835312D344632462D344230382D423046372D3739314545314133324237412F747269616E676C65732E62696E636660600000504B0304140006080000CC7062
310
3B000000000000000000000000370000006662782F41393633353835312D344632462D344230382D423046372D3739314545314133324237412F617474726962757465732E62696E504B0304140006080800CC70623B08DA0BD19000000041010000360000006662782F41393633353835312D344632462D344230382D4230
310
46372D3739314545314133324237412F6469726563746F72792E786D6C858F410AC3201045AF22B36F53E9A60B35CBEEBAE80D244E44489C6234F4F835464A48035D0DF398FF9F8AF63D0E6CC63039F212F8F9020C7D47C6792B21C5FE7403D62A1188E2E60C98D7234A5830286103A55745067B9D86B8A3CF9C7F90C11DE6
310
07FB144396D7B6A82D282E9A152AD114D5EF2CB866EEE831B8EEA07A7BB5A8D7D61A2BAAEB7FD5F70921FF497D00504B0304140006080800CC70623BEDD1DC58FD000000A00100003B0000006662782F41393633353835312D344632462D344230382D423046372D3739314545314133324237412F7265736F75726365732F
310
636F72652E786D6C8D504B6E833010BD0A9A6D65B00922041947112427E8052C33A156828DFCA97AFC9A40A576D7CDCCE87D344F8F9FBFE667F689CE6B6B3A6039850C8DB2A336530731DC4903D95970676DF82583CCC8193B5861107C72362E3BA4AC096842428D1D7107A5F7182053CF7474E0D507CE32973124857FE48B
310
540F3961CEF244279DE03EB81420DB9EAC1384436FA353E879B1B182C7A8C75DA3C7F453DF353A1075D537A7BA6464B8F535A99AE14A9A2BBD90E350DD183B5CFABE3AF262350B1EF4FC9351399401471025A527C218A1E53BAB5A5AB765F5469B96525EACF23FA6B88CFF34456DC2A1DCE36E360F82A5202F42F062ED2BAD
310
579969AFDD8A6F504B010214000A0000080000CC70623B3DEE336E79000000790000001B00000000000000000000000000000000006175746F6465736B2D64657369676E2D7061636B6167652E786D6C504B01021400140006080800CC70623BD486FD9CA0000000F40000001300000000000000000000000000B20000005B
310
436F6E74656E745F54797065735D2E786D6C504B01021400140006080800CC70623B853B8169EB0000007C010000080000000000000000000000000083010000636F72652E786D6C504B01021400140006080800CC70623B55019EA25F0000007C000000070000000000000000000000000094020000636E782E786D6C504B
310
01021400140006080800CC70623BDBABAAF470010000D40300000C00000000000000000000000000180300006662782F636F72652E786D6C504B01021400140006080800CC70623B9C113CC27E0000009D0000000B00000000000000000000000000B20400006662782F636E782E786D6C504B01021400140006080800CC70
310
623B7DF2F77C2A010000120200003100000000000000000000000000590500006662782F41393633353835312D344632462D344230382D423046372D3739314545314133324237412F636F72652E786D6C504B01021400140006080800CC70623BAD7543B64E010000330300003000000000000000000000000000D2060000
310
6662782F41393633353835312D344632462D344230382D423046372D3739314545314133324237412F636E782E786D6C504B01021400140006080800CC70623BE75B7789680500003C10000034000000000000000000000000006E0800006662782F41393633353835312D344632462D344230382D423046372D3739314545
310
314133324237412F6F626A656374732E786D6C504B01021400140006080000CC70623B0000000000000000000000003500000000000000000000000000280E00006662782F41393633353835312D344632462D344230382D423046372D3739314545314133324237412F76657274696365732E62696E504B01021400140006
310
080800CC70623BF270F133060000000400000036000000000000000000000000007B0E00006662782F41393633353835312D344632462D344230382D423046372D3739314545314133324237412F747269616E676C65732E62696E504B01021400140006080000CC70623B0000000000000000000000003700000000000000
310
000000000000D50E00006662782F41393633353835312D344632462D344230382D423046372D3739314545314133324237412F617474726962757465732E62696E504B01021400140006080800CC70623B08DA0BD1900000004101000036000000000000000000000000002A0F00006662782F41393633353835312D344632
310
462D344230382D423046372D3739314545314133324237412F6469726563746F72792E786D6C504B01021400140006080800CC70623BEDD1DC58FD000000A00100003B000000000000000000000000000E1000006662782F41393633353835312D344632462D344230382D423046372D3739314545314133324237412F7265
310
736F75726365732F636F72652E786D6C504B0506000000000E000E0080040000641100000000
  0
XRECORD
  5
2489
102
{ACAD_REACTORS
330
1F7
102
}
330
1F7
100
AcDbXrecord
280
     1
102
MATERIAL
148
0.0
149
0.0
149
0.0
 93
        0
 94
       63
282
     0
 72
     1
 77
     1
171
     1
175
     1
179
     1
273
     0
  0
XRECORD
  5
1F8
102
{ACAD_REACTORS
330
1F7
102
}
330
1F7
100
AcDbXrecord
280
     1
 70
     1
 90
429727718
  1
30362254-06B7-45E0-A893-8CFA70E3D6BC
310
504B03040A0000080000CC70623B3DEE336E79000000790000001B0000006175746F6465736B2D64657369676E2D7061636B6167652E786D6C3C3F786D6C2076657273696F6E3D22312E302220656E636F64696E673D227574662D3822203F3E3C666F726D6174733E3C666F726D61743E687474703A2F2F736368656D612E
310
6175746F6465736B2E636F6D2F64657369676E2D7061636B6167652F323030393C2F666F726D61743E3C2F666F726D6174733E504B0304140006080800CC70623BD486FD9CA0000000F4000000130000005B436F6E74656E745F54797065735D2E786D6C7D8EC10E82300C865F65E91D8A1E8C310C0EEA1BF002731658846E
310
D98AC1B77784ABF1D8FE5FBFBF75BBCE937A534CCEB38643598122B6FEE978D0B0485F9C41B54DDD7D022595594E1A469170414C76A4D9A4D207E29CF43ECE46F218070CC6BECC4078ACAA135ACF422C856C0E68EA1BF5669944DDD7BCDE7B1F8E415D77AECB980613C2E4AC91FC167A2B244592486606FC29C8FD7F045B9A
310
EF7053A7E60B504B0304140006080800CC70623B1EC5D7A3EB0000007C01000008000000636F72652E786D6C8D90416EC3201045AF82665B6103C6756C6122AB4D4ED00B204C5C94182C03558F5F9C3852BBEB6A467FFE9B197D71FC9E6FE8CBACC17AD7032D0820E3B41FAD9B7A48F1820F808E52ACDEC75F36404ECDA687
310
4D0629A6D5A76597B477D1B89855E747B38B2A041301E95B6E7A08FAD3CCAA50296647B8168BD2573599823EBB0CA76447F43862C7BCCF5EAC59410E4DDD9C7973C2755553CCCFA4C603E3040F1565ED3B1FDE4E432BCA0D9622DAF9795FAF464533826484B498524CD807E51D79ED187F21878E10516EF63F505AC67F42C9
310
BA58B1FDDD071640D2FCC87D2045B96591CB3DA85CB7DCE40F504B0304140006080800CC70623B55019EA25F0000007C00000007000000636E782E786D6C4DCB3B0E80201045D1AD90E915ED2CF8AC45050C11660C8261F98AB1B07AC9C97D42D718D865D3E909258CFD00CCE24AC6E326A164D74DC0B4128928FF32603847
310
2BA13128B1252AC747C6BAB984FC68F0B87FE8960A5C09FE86CFB69FBA01504B0304140006080800CC70623B8C9102E971010000D40300000C0000006662782F636F72652E786D6CC5535B6E833010BC8AE5DF0A6C08340F1947A84D4ED00B38C6A128602363A31CBFCB234A53A551FA553EC09AD9F5CE8C31DB9E9B1AF5CA
310
7695D1198E428A91D2D214952E33ECDD315861B4E5CC1AE3BE9561A445A3323CC098B3D21ADFCE9034DA29ED00D5A6503328BA4E398C640D8B0C77F253352214DE4145770A5B214FA2546114020D759C75CE8200340D19DE981F0F6746269C33EFAB6266AB02A655C74A59CCF365BADC27CB5D902ED22848F6340DF238A141
310
BE88E2F57B92BFEDF23523433367AE6A2EEAA455C2A902F398D2751045018D3FA264435F3771F242571B4A1919CA6F9A7C5B3CD9E42BED16F12C776AEB308F40C848FC700B1139D4891EF410CEC810227CC6846F8386402064270EF5C5C709A05E49676C024C61FC95EA45ED154CA5211D1FF4FB8291A913A68E9B83EBBB33
310
E2A7673CDE118E5AE8124C0807CB8377834E366998436B950D7A7746DAD846D4CFD978E0F04FD455FC5D49D2D4C6FE9722321F10997F0F32DC47FE05504B0304140006080800CC70623BFFEA85907E0000009D0000000B0000006662782F636E782E786D6C4DCCD10A83201886E15B91FFDC95D95A811AB6F23E625948A6C3
310
E9D8E5AF46073BFAE0E1E365ED67B3E8ADC3CB78C7815C7240DA3DFC64DCC221C519D7805AC182F7F1EF06C88D9BE6703008B6049F9E274D7A1E938DBB5AE3D6131B2589BA0D3D965551E0B2EA732C9B9A624AAEB41E3A557677029960D9AFB4EF11165F504B0304140006080800CC70623B4FEEA4082C0100001202000031
310
0000006662782F39464131463745442D413632322D343644302D413938332D3331353338454246344243312F636F72652E786D6C8D515B6EC32010BC0AE2AB55850DD871ED0813254D72825EC00192A2C460F1A872FC42ED48ED5F7E00CDCECCCEB26C731F6FE05B39AFADE921293004CA082BB5B9F43086336A21D870E6AC
310
0D7F68109861543DCC30E4ECE26C9C164858139409093556AA051CBC570102714B8F1E7AF1A5C6A11862480C7F2DA6415C878B2A4891CA89C7990F2E050073937C42DE1DB7E4F87ED8A36D4329AA9B3D46DBAEAD504556557BD81DEBDD0761E52CE42C462D17B996298E3E6BE59E35C962CE821E1FF18553435012728A7187
310
0841987E927A8D9B35ADDF70BBC6989599FE4F1427F9A4286A132ABAC49D651EF234CD5CE04CDA78BA3DC2A8FB645D00B9DF8B57E215725C60BCA2A463E54C4CE327C7A65E1C7DB02E7DEFCBF594B864C5CA6CDBD49C957943E9FA5D5FBAF336F90F504B0304140006080800CC70623BAD7543B64E01000033030000300000
310
006662782F39464131463745442D413632322D343644302D413938332D3331353338454246344243312F636E782E786D6CD593CD6EC32010845F0571AD6CE3D48AD20813A9873E410FBD12D82434182C7EAAE6EDBB2424CD25871E7B41D6EC30B3FA84F9E67BB2E40B4234DE8DB46F1925E094D7C6ED479AD3AE5951B2113C
310
789FEE6C943839C1488B4C05DF079FE72A69D8C96C13AAD6B8631503449F83828872B949AC57D26200B826A308D316B4064D6E46FCDA41C05550DC9E483A00797BFD207EFB092A45DE9514C1BBD22178396BD39D891265658C238DEA00936C654E5E433CB65A26D9F6EDB5EBC14EBF49A45CB856E66048291F6939A9A81BB5
310
C8917738143CA680F4AA299D66A042CEB3354A2684DC9D8D178FE0D9B8B41CAAD720F880EE7EF93C0C18769E099ECC04D5A102C8049A8A05632F4DDF376CF1DE0F6BB65C2F8627B65A33C6BB62177CEBBDAD973006829F89F22E814B54F4BC2BE347F8AA8F681390B50FA73F804400B5F542E796F19FF974E7F78DB802FE05
310
E207504B0304140006080800CC70623B16AB87BA640500003C100000340000006662782F39464131463745442D413632322D343644302D413938332D3331353338454246344243312F6F626A656374732E786D6CAD575B6FA33818FD2B887DE6924B3BED8A326A92B68A663B534DD4D13E548A0C38942D60649B369D5FBFC7
310
600890A493BDE42160637FD7F31D7FF63E6FB3D478A55C242CBF3247B66B1A340F5994E4F19559CA8D75611A9F7D8F33263BCB4C232719BD32D5B4E97B316765A1A722BA21652A07B3B7B33F0D11D29C9A46981221AE4C113ED38CD8A4942CA2E2C58E882476BCD9DA23BB5ED8171B73523C0F841684D35CC252CCE79062D4
310
468DFA43D7747CCF51DF7D4FFDEB5593E3AB9CCA9FBEFE241792E4E19EB28198C968BAB8199F5D5A67D3E9C49A9E8F47D6EC76B6B0469F26EEFC7C3EBFBCBEB98462213924694B38DD98FE1D62C393D073EA4FADC5DAF04326852CCF6958F90F0F2B9BB5C48816348F90C7840A68EB78EDF68723159BCEE7891A6B95DDE9D3
310
BCEAEEE8086A6C6F9E5D4B59F0175C10A7A0820BAA5055C7473B5AE3CFDD452D602CD5DF12616444529E90D448938013FE6EFA58AA96F85E4F8C42275708571E98FE6827AF6B2B4AE3D7D83D64E5A64C53054DD3AF90BD06FEA9149565C94FCA0F6B834DC85599E4F2423B24DF0B6AFA979E534DFA9E7A4CC6FA631D486393
310
921829879BF5D781A373557BCB85E97FB90DB62B558F8795179C15944B051F40AB495CF35451D26A4727654E6D8033BD98EF82F21D91FF8AF2DD9982BCF1643BDD4EB516C9492E368C67C88DED563FC36D5EACF66DFF057C3658BDBFA69DF9578B3DA735B64F18C7F20770A9D45CFCF7FCF563D6456A277DBEF78A02637CA2
310
43B90A490AEAB94F72244481D24819A6C0E59B606BFA4B3025981DBB48EAB701D97BF19C577CC77F2D1B6C55A9EF3C732474C0B727303F625995056C3B02963D9EAC146BE78EC5FCEC7FA999EBC5EACBAAE41B12D27B4D2C0BBA49F244E2ECDC81B76B502F113D8F5EE8FB1BE3111CDD4FC2AA9B844CAB1288B68AB90A7CDC
310
1C166AB0D3DC5310625FCC14E779BFD0709F8890A629C9292B1B2DED31A4B0DA928CEE135085754027E3018A397D4D5427D15BD1330B677DC8934285AC3DF45A9EB68FF8F2B8FC0A509AFEECFD0FF2DE25CC6047F7214B195F07EFEB9A094D800F7BFAE8FED187B78EA8A3A400F115961BCAD1215E47C966530AF0EE8128FE
310
58CEBB996A8964FFA529A046635D9353B0336A8F700DDF46271A024E70B0B37C9DE01847591E54DED53D54202AB947E4076556AC49C6CA5C9E1226B7F1A7B1BE15DEED62C41B91E1B3E9AFAAA735036547343A925075041DF0A9979E893B391F8FCFA6967B3EFB644DCF6E5CEBFAE272625DCC6FAF3FB93793C5F90CE1EF57
310
407342756B10D1C489E8953CD1617E5CEECAD6F4EF8914CE5D5D504E5C3F1F9736DA62CFC11E00BCDDB8CC8A9466349744C1F75EBDA4DF09BA8A9E8C7A7E9991989E20E5DBDD6A6003664ED8F7A04A8DBE0DF6EAD9B9AA858342E47399053949D2C146EDB85DE4B176BB0965FBAC19BD19AA918E27FA50C1D22402E144464C
310
59462568E704B6E71915404CB72B8FF4EDE184DDAF753F284990D2C6926782963815403548A70C657FDEF80D2D9CEAA2AE4C1C76F60BFE74219A06527D6582DF6412526107381E55E353090704D085B52408D0933C4ED159D79BDA71BB4BC506F4831350EB6F979CD22D69BF7AC49B91A2C0A9DDA3D5CA36AD20FC478E37E6
310
1844E2352865EBCB6EA275A652E3836BE04EFB400BF1A2556F515F1FBB35B2AB35BD889C744FFA1004B5544B121E57F70215746DD2F5E2C1412B602CBF19455AC6C8E5E9922C4E01E65215385004546899059180EAFCF7A707CE7017CD8CDB0410789AB32C63B91E5CEBBBACB17AC6CD347A022D5075FD106377347AAABA7E
310
7D11590744509B44E205134DC1290F06580320F78E537D3D73540E06CB970B431F185308AD40BBD794D6D77003C5A36E8EAA54BA64597CD8F83BD552A080A365F7FF06504B0304140006080000CC70623B000000000000000000000000350000006662782F39464131463745442D413632322D343644302D413938332D3331
310
353338454246344243312F76657274696365732E62696E504B0304140006080800CC70623BF270F1330600000004000000360000006662782F39464131463745442D413632322D343644302D413938332D3331353338454246344243312F747269616E676C65732E62696E636660600000504B0304140006080000CC70623B
310
000000000000000000000000370000006662782F39464131463745442D413632322D343644302D413938332D3331353338454246344243312F617474726962757465732E62696E504B0304140006080800CC70623B08DA0BD19000000041010000360000006662782F39464131463745442D413632322D343644302D413938
310
332D3331353338454246344243312F6469726563746F72792E786D6C858F410AC3201045AF22B36F53E9A60B35CBEEBAE80D244E44489C6234F4F835464A48035D0DF398FF9F8AF63D0E6CC63039F212F8F9020C7D47C6792B21C5FE7403D62A1188E2E60C98D7234A5830286103A55745067B9D86B8A3CF9C7F90C11DE607
310
FB144396D7B6A82D282E9A152AD114D5EF2CB866EEE831B8EEA07A7BB5A8D7D61A2BAAEB7FD5F70921FF497D00504B0304140006080800CC70623B0D6EF93BFE000000A00100003B0000006662782F39464131463745442D413632322D343644302D413938332D3331353338454246344243312F7265736F75726365732F63
310
6F72652E786D6C8D50596E833010BD0A9ADFCA60B334011947A8694ED00B586642AC041B79A97AFC9A40A5F6AF3F33A3B7689E1E3F7DCD8FEC139DD7D6F4C0720A191A65476DA61E62B892236427C19DB5E1970C322367EC618541F0C9D9B8EC90B226A009093576C41D94DE63804C3DD2D18357379C652E63480A7FCF17A9
310
EE72C29CE5894E3AC17D702940B63D59270887DE46A7D0F36263058F518FBB468FE9A7BE6A7420864373B8D4873369AA8691FA421B3294352543C5CAF65C0F6FEF43CB8BD52C78D0F34F46E550061C419494B6843142CB0F5677F4B52BEB177AEC28E5C52AFF638ACBF84F53D42654E51E77B379102C05791282176B5F693D
310
CB4C7BED567C03504B010214000A0000080000CC70623B3DEE336E79000000790000001B00000000000000000000000000000000006175746F6465736B2D64657369676E2D7061636B6167652E786D6C504B01021400140006080800CC70623BD486FD9CA0000000F40000001300000000000000000000000000B20000005B
310
436F6E74656E745F54797065735D2E786D6C504B01021400140006080800CC70623B1EC5D7A3EB0000007C010000080000000000000000000000000083010000636F72652E786D6C504B01021400140006080800CC70623B55019EA25F0000007C000000070000000000000000000000000094020000636E782E786D6C504B
310
01021400140006080800CC70623B8C9102E971010000D40300000C00000000000000000000000000180300006662782F636F72652E786D6C504B01021400140006080800CC70623BFFEA85907E0000009D0000000B00000000000000000000000000B30400006662782F636E782E786D6C504B01021400140006080800CC70
310
623B4FEEA4082C0100001202000031000000000000000000000000005A0500006662782F39464131463745442D413632322D343644302D413938332D3331353338454246344243312F636F72652E786D6C504B01021400140006080800CC70623BAD7543B64E010000330300003000000000000000000000000000D5060000
310
6662782F39464131463745442D413632322D343644302D413938332D3331353338454246344243312F636E782E786D6C504B01021400140006080800CC70623B16AB87BA640500003C1000003400000000000000000000000000710800006662782F39464131463745442D413632322D343644302D413938332D3331353338
310
454246344243312F6F626A656374732E786D6C504B01021400140006080000CC70623B0000000000000000000000003500000000000000000000000000270E00006662782F39464131463745442D413632322D343644302D413938332D3331353338454246344243312F76657274696365732E62696E504B01021400140006
310
080800CC70623BF270F133060000000400000036000000000000000000000000007A0E00006662782F39464131463745442D413632322D343644302D413938332D3331353338454246344243312F747269616E676C65732E62696E504B01021400140006080000CC70623B0000000000000000000000003700000000000000
310
000000000000D40E00006662782F39464131463745442D413632322D343644302D413938332D3331353338454246344243312F617474726962757465732E62696E504B01021400140006080800CC70623B08DA0BD190000000410100003600000000000000000000000000290F00006662782F39464131463745442D413632
310
322D343644302D413938332D3331353338454246344243312F6469726563746F72792E786D6C504B01021400140006080800CC70623B0D6EF93BFE000000A00100003B000000000000000000000000000D1000006662782F39464131463745442D413632322D343644302D413938332D3331353338454246344243312F7265
310
736F75726365732F636F72652E786D6C504B0506000000000E000E0080040000641100000000
  0
XRECORD
  5
248B
102
{ACAD_REACTORS
330
173
102
}
330
173
100
AcDbXrecord
280
     1
102
MATERIAL
148
0.0
149
0.0
149
0.0
 93
        0
 94
       63
282
     0
 72
     1
 77
     1
171
     1
175
     1
179
     1
273
     0
  0
XRECORD
  5
175
102
{ACAD_REACTORS
330
173
102
}
330
173
100
AcDbXrecord
280
     1
270
     1
271
     1
  0
XRECORD
  5
174
102
{ACAD_REACTORS
330
173
102
}
330
173
100
AcDbXrecord
280
     1
270
     1
271
     1
  0
XRECORD
  5
1FB
102
{ACAD_REACTORS
330
173
102
}
330
173
100
AcDbXrecord
280
     1
 70
     0
 90
1673772943
  1
ECE7A1D2-D628-4531-984C-D00F80459256
310
504B03040A0000080000CC70623B3DEE336E79000000790000001B0000006175746F6465736B2D64657369676E2D7061636B6167652E786D6C3C3F786D6C2076657273696F6E3D22312E302220656E636F64696E673D227574662D3822203F3E3C666F726D6174733E3C666F726D61743E687474703A2F2F736368656D612E
310
6175746F6465736B2E636F6D2F64657369676E2D7061636B6167652F323030393C2F666F726D61743E3C2F666F726D6174733E504B0304140006080800CC70623BD486FD9CA0000000F4000000130000005B436F6E74656E745F54797065735D2E786D6C7D8EC10E82300C865F65E91D8A1E8C310C0EEA1BF002731658846E
310
D98AC1B77784ABF1D8FE5FBFBF75BBCE937A534CCEB38643598122B6FEE978D0B0485F9C41B54DDD7D022595594E1A469170414C76A4D9A4D207E29CF43ECE46F218070CC6BECC4078ACAA135ACF422C856C0E68EA1BF5669944DDD7BCDE7B1F8E415D77AECB980613C2E4AC91FC167A2B244592486606FC29C8FD7F045B9A
310
EF7053A7E60B504B0304140006080800CC70623BD9DDAED0EC0000007C01000008000000636F72652E786D6C8D90416EC3201045AF82665B61836D9CD8C2444DD39CA01740405C94182C03558F5F9C3852BBEB6A467FFE9B197D7EF89E6EE8CB2CC17A37002D0820E394D7D68D03A478C17B4007C117EFE32F1B20272733C0
310
2A83E0E3E2D3BC49CABB685CCCAAF3DA6CA20CC14440EA969B0182FA34932C648AD911AEC52CD5558EA6A0CF2EC329598D1E47ACCEFBECC59A050463A7EA5833865FEBDD0E37353BE3EE8DBDE3F6786A48D375FBF6CC78B9C282473B3DEFABC5C86834888A900E538A49F5419B9EB47DD5BC907D4F082F57FB1F28CDFA9F50
310
B22ED6D5F6EE030B20687EE43E10BC5CB3C8E51E54AE6B6EE207504B0304140006080800CC70623B55019EA25F0000007C00000007000000636E782E786D6C4DCB3B0E80201045D1AD90E915ED2CF8AC45050C11660C8261F98AB1B07AC9C97D42D718D865D3E909258CFD00CCE24AC6E326A164D74DC0B4128928FF326038
310
472BA13128B1252AC747C6BAB984FC68F0B87FE8960A5C09FE86CFB69FBA01504B0304140006080800CC70623BA24EB22D72010000D40300000C0000006662782F636F72652E786D6CC5535B6E833010BC8AE5DF0A6C5E49888CA3A6694ED00B38E05014B091B1518EDFE511A5A9D228FD2A1F60CDEC7A67C6986DCE4D8D7A
310
69BA4AAB0C073EC548AA5C17952A33ECECD15B61B4E1CC686DBF9561A44423333CC098B3D268D7CE50AE9595CA02AA74216750749DB418E5352C32DCE59FB211BE70162ABA93DF8AFC244AE9073ED050C759670D0840D390E18DF9F1706664C23973AE2A66B62A605A75ACA4C13C4976E1364A12EF355A2EBD384AF65EFA96
310
BC7B8BED2EA6719AAE16FB8491A199335B351775B991C2CA02F390D2D40B028F861F41BCA68B7518BFD0D59A524686F29B26D7164F36B94AD9289CE54E6D1DE6010819891F6E21228B3AD1831EC219194284CF98F06DD01008846CC5A1BEF83801D4CBDC6A1303536877A57A513B0953A94FC707FDBE6064EA84A9E3E6E0FA
310
EE8CF0E9198F7784A316AA0413C2C2F2E0ECA0934D1AE6D05A69BCDE9E91D2A611F573361E38FC1375157F5752AE6B6DFE4B11990F88CCBF0719EE23FF02504B0304140006080800CC70623B408A7D3B7C0000009D0000000B0000006662782F636E782E786D6C4DCCD10A83201886E15B91FFDC552A92A0064DBC8F581632
310
D3703A76F9ABD1C18E3E78F878E5F0D9027ABBFCF2292AE86E2D20171F69F6715550CB827B40839639A5F2770314A7CD293819B45C73AAFB45B35BA61ACAA1C1C7E7855C58C15BC331339661262CC762340413D68D77DA5B42298546CBE6573AF60CEB2F504B0304140006080800CC70623B449FB9BD290100001202000031
310
0000006662782F36394639363044362D344446342D343946362D394244322D3234314243333846323333332F636F72652E786D6C8D515B6EC32010BC0AE22B55850D98B871848994463E412FE002495162B07854397EA176A4F62F3F2C9A9D991D587EB84F37F0AD7D30CEF6905418026DA553C65E7A98E219ED203808EE9D
310
8B7F6810D871D23D2C3014FCE25D9A57483A1BB58D19B54EE9151C43D0110279CB971E06F9A5A7B11A53CC8C70ADE6515EC78BAE4895DB992778883E0700CB907242D17643D7E2538BD869608875438BBAE38922CAC8F1BDD90DB4691A5E2F42C153326A951B95E398B3D1FE599322163C9AE9115F7A3D46ADA0A018778810
310
84E907617BDCEE297BC5BB3DC6BC2EF47FA234AB2745C9D8D8D035EE220B50105E2F0DC1954B9FB747187D9F9D8FA0CCDB042D5FA0C015C65B42DF78BD10F3F3B363CB56C7109DCFDFBBB97E662ED92EB62D13BC2E1BCAE5777DB9966D8A1F504B0304140006080800CC70623BAD7543B64E01000033030000300000006662
310
782F36394639363044362D344446342D343946362D394244322D3234314243333846323333332F636E782E786D6CD593CD6EC32010845F0571AD6CE3D48AD20813A9873E410FBD12D82434182C7EAAE6EDBB2424CD25871E7B41D6EC30B3FA84F9E67BB2E40B4234DE8DB46F1925E094D7C6ED479AD3AE5951B2113C789FEE
310
6C943839C1488B4C05DF079FE72A69D8C96C13AAD6B8631503449F83828872B949AC57D26200B826A308D316B4064D6E46FCDA41C05550DC9E483A00797BFD207EFB092A45DE9514C1BBD22178396BD39D891265658C238DEA00936C654E5E433CB65A26D9F6EDB5EBC14EBF49A45CB856E66048291F6939A9A81BB5C89177
310
38143CA680F4AA299D66A042CEB3354A2684DC9D8D178FE0D9B8B41CAAD720F880EE7EF93C0C18769E099ECC04D5A102C8049A8A05632F4DDF376CF1DE0F6BB65C2F8627B65A33C6BB62177CEBBDAD973006829F89F22E814B54F4BC2BE347F8AA8F681390B50FA73F804400B5F542E796F19FF974E7F78DB802FE05E20750
310
4B0304140006080800CC70623B8D05915C650500003B100000340000006662782F36394639363044362D344446342D343946362D394244322D3234314243333846323333332F6F626A656374732E786D6CAD575B6FA33814FE2B887D06429276DA1565D4266D158D3A339A6846FB502932E050B66023DB74D2FDF5FB190C01
310
9276B2973C046C8ECFF53B17071F77456EBD502133CEAE6CDF9DD81665314F32965ED995DA3A17B6F5310C04E7AA47665B8C14F4CAD6DB7618A48257A5D94AE89654B91AEDDEDDFC61C998326A5B714EA4BCB265FC440BE2924AF184CA6737218AB8E976E7FA6E4338649B0A523E8D98964450A6A029F619B8588D52FE7039
310
B1BD30F0F4F730D0FF866AF6369557DB33949F31A9088B0F848DD8CCFCF9F2767A76E99CCDE733677E3EF59D9BBB9BA5E37F984D16E78BC5E5F5ED25044B25C0C96822E8D60EEFE11B91C581D77CEA34368A1F5329E68CD1B8B61F16D63A1B8E092D294B10C78C4A48EB593D192E7DED9BDEE7995E1B91FDEDD3ACEA9FE831
310
6A756F9F7D4D79F4274C90A7A04248AA51D5F8C718DAE06FB2F75AC4796EBE65D22A88A22223B995679120E2D50E41AA49C260C046A35368846B0BECD0DFF3EBEB8AD4F835768F69B9ADF25C43D30E6B646F807FAA64AD59F61715C7A54127C4AACA98BA3006A9D792DAE165E0D59B61A01FB3A9F9D838D2DAE62445C86166
310
F37564E842E7DE6A69879FEEA2DD5AE7E371E1A5E025154AC307D06A03D73EB5978C58FFA4C8E9033066E0F3BD53BEC1F39F91BE7B55103791EDE6BBB991A2046172CB4581D8B893FA674DDA17A77B3B7C413D1B511FD2743BFF8A38F03A658705E3ADF8015C3A3417FF3D7E439FF591DA0B5F18BC20C1B8981957AE6392A3
310
F43C640C01D1A0B4728E2DD4F26DB4B3C3152A252A3B4E913CEC1C72F012782FF88EFF8637AA552DBEF76408E8A8DE9E50F9E1CB3A2DA0DB1B6039A893B56063DC5B3E3FFB5F72E67AB9FEB4AEC496C4F4C1149625DD662C53E89D7BF0F6151A046260D1337DFDC94502430F83B0EE07A130A224BCAD7DAE1D9FB6CD422FF6
310
920702629C4BB9AE79C12F243C6432A6794E18E5552BA56B431AAB5D91317302B2B071E86C3A42B1A02F999E24061403B5D0EB639195DA655DD3EBEAB4FB862DDF579F014AD0E73C22F99E28DA57FB98E75C6CA2D74D53086D600F4786E0FE3144B771A8A7B900F03594DB8A633CBC49B2EDB69228BB479CF863B5E807AAAB
310
23872F6DFEB4129B949CA33823F58830E86D65621E10047D9DB34D862E8EAC3C2ABC2F7B2C40D67CDFE01F5545B92105AF983AC54D93D69E56FB8E797F88913F898A9FEC705D3F9D1B54EC8426FB500D40A03BD0119B06E1B95DDC7EB8F6975367793EBD70E66733DFB9BC982F9CE564727731999F5D4ECFCE3B8D6A4DC2A0
310
6D50FD148437D110834A64C6CDDF57FBACB5C307A2A477DFE4939736CFEF2B175371E0E10CF0DD1D5C15654E0BCA14D1E87DD02FF93782A162C0A3D95F1524A52770F972BF1EE9809D13CE7DD599467F8ECE9ADD85CE85A34CD45355448C64F9E8A031DC2D596ACC6E5DD93D9B82DE2EF5CAF81363A8E47996A0DE24564A79
310
4115AACE09C55E14540231FDA13C319787134EBF34E3A022514E5B4D9E0826E25C02D5805B15ABE1BEF51B26383D445DD9E875EE33FE4C22DA16427D65A3BCA92CA6D28DD01DF5DC53330704308475351050232CCD31583787BA75774AFB06E5070DD0C8EF484E19968C5D83BA5B90B244D31E54D55A372320FE4786B7EA58
310
44E135AA5467CB7EA333A61683CC6A8C3257034C10CF46F40EF9F5BE59BE5BD30C3C72D235E95D10345C1D45445A5F0BB47E46A5EBE5570F9380B5FA629579952296A773720405982B9DE04011506178964401AA8BDF1FBF0A8EAB6861DD6580C0E38217056766716DAEB2D6FA0917D3E4116581EADB879C4E7CFFB11EFACD
310
3D641311495D92C8676CB409A72D18610D803CE8A626049E8EC1887CB5B44CC39883690DDA8399B4B9855B481E7D71D4A9D22F96E5BB73BF5793020C02137BF837504B0304140006080000CC70623B000000000000000000000000350000006662782F36394639363044362D344446342D343946362D394244322D32343142
310
43333846323333332F76657274696365732E62696E504B0304140006080800CC70623BF270F1330600000004000000360000006662782F36394639363044362D344446342D343946362D394244322D3234314243333846323333332F747269616E676C65732E62696E636660600000504B0304140006080000CC70623B0000
310
00000000000000000000370000006662782F36394639363044362D344446342D343946362D394244322D3234314243333846323333332F617474726962757465732E62696E504B0304140006080800CC70623B08DA0BD19000000041010000360000006662782F36394639363044362D344446342D343946362D394244322D
310
3234314243333846323333332F6469726563746F72792E786D6C858F410AC3201045AF22B36F53E9A60B35CBEEBAE80D244E44489C6234F4F835464A48035D0DF398FF9F8AF63D0E6CC63039F212F8F9020C7D47C6792B21C5FE7403D62A1188E2E60C98D7234A5830286103A55745067B9D86B8A3CF9C7F90C11DE607FB14
310
4396D7B6A82D282E9A152AD114D5EF2CB866EEE831B8EEA07A7BB5A8D7D61A2BAAEB7FD5F70921FF497D00504B0304140006080800CC70623BCA768048FE000000A00100003B0000006662782F36394639363044362D344446342D343946362D394244322D3234314243333846323333332F7265736F75726365732F636F72
310
652E786D6C8D50596E833010BD0A9ADFCA60D600328E9AA639412F609909B1126CE4A5EAF16B0295DABFFECC8CDEA2797AECF8353F924FB44E193D409E5248504B332A3D0D10FC95B4901C39B3C6F85F3248B49871801506CE266BC2B243D2688FDA47549B11775038871E12F988C7004EDE7016A9083E2ADC3D5D84BC8B09
310
D33C8D74D471E6BC8D0192EDC93A815B742658898E651BCB59086ADC356A8C3FD555A1055ED7E7E254D615792D0F075295F585746FF53B694EE78A565DD736979A65AB9933AFE69F8CD2A2F038022F28ED489E135A7CE4554F9BBEA85E68DB53CAB255FEC71496F19FA6A0B42F8B3DEE6673C0F318E4497096AD7DC5F52C33
310
EEB55BFE0D504B010214000A0000080000CC70623B3DEE336E79000000790000001B00000000000000000000000000000000006175746F6465736B2D64657369676E2D7061636B6167652E786D6C504B01021400140006080800CC70623BD486FD9CA0000000F40000001300000000000000000000000000B20000005B436F
310
6E74656E745F54797065735D2E786D6C504B01021400140006080800CC70623BD9DDAED0EC0000007C010000080000000000000000000000000083010000636F72652E786D6C504B01021400140006080800CC70623B55019EA25F0000007C000000070000000000000000000000000095020000636E782E786D6C504B0102
310
1400140006080800CC70623BA24EB22D72010000D40300000C00000000000000000000000000190300006662782F636F72652E786D6C504B01021400140006080800CC70623B408A7D3B7C0000009D0000000B00000000000000000000000000B50400006662782F636E782E786D6C504B01021400140006080800CC70623B
310
449FB9BD290100001202000031000000000000000000000000005A0500006662782F36394639363044362D344446342D343946362D394244322D3234314243333846323333332F636F72652E786D6C504B01021400140006080800CC70623BAD7543B64E010000330300003000000000000000000000000000D20600006662
310
782F36394639363044362D344446342D343946362D394244322D3234314243333846323333332F636E782E786D6C504B01021400140006080800CC70623B8D05915C650500003B10000034000000000000000000000000006E0800006662782F36394639363044362D344446342D343946362D394244322D32343142433338
310
46323333332F6F626A656374732E786D6C504B01021400140006080000CC70623B0000000000000000000000003500000000000000000000000000250E00006662782F36394639363044362D344446342D343946362D394244322D3234314243333846323333332F76657274696365732E62696E504B010214001400060808
310
00CC70623BF270F13306000000040000003600000000000000000000000000780E00006662782F36394639363044362D344446342D343946362D394244322D3234314243333846323333332F747269616E676C65732E62696E504B01021400140006080000CC70623B00000000000000000000000037000000000000000000
310
00000000D20E00006662782F36394639363044362D344446342D343946362D394244322D3234314243333846323333332F617474726962757465732E62696E504B01021400140006080800CC70623B08DA0BD190000000410100003600000000000000000000000000270F00006662782F36394639363044362D344446342D
310
343946362D394244322D3234314243333846323333332F6469726563746F72792E786D6C504B01021400140006080800CC70623BCA768048FE000000A00100003B000000000000000000000000000B1000006662782F36394639363044362D344446342D343946362D394244322D3234314243333846323333332F7265736F
310
75726365732F636F72652E786D6C504B0506000000000E000E0080040000621100000000
  0
XRECORD
  5
176
102
{ACAD_REACTORS
330
173
102
}
330
173
100
AcDbXrecord
280
     1
270
     1
271
     1
  0
XRECORD
  5
177
102
{ACAD_REACTORS
330
173
102
}
330
173
100
AcDbXrecord
280
     1
270
     1
271
     1
  0
XRECORD
  5
24AD
102
{ACAD_REACTORS
330
24AC
102
}
330
24AC
100
AcDbXrecord
280
     1
102
ACAD_ROUNDTRIP_2012_MLEADER_STYLE
298
     1
  0
XRECORD
  5
24BF
102
{ACAD_REACTORS
330
24BE
102
}
330
24BE
100
AcDbXrecord
280
     1
102
DISPLAYNAME
  1
Metric50
102
FLAGS
 90
        0
  0
CELLSTYLEMAP
  5
247F
102
{ACAD_REACTORS
330
162
102
}
330
162
100
AcDbCellStyleMap
 90
        3
300
CELLSTYLE
  1
TABLEFORMAT_BEGIN
 90
        5
170
     1
 91
        0
 92
    32768
 62
   257
 93
        1
300
CONTENTFORMAT
  1
CONTENTFORMAT_BEGIN
 90
        0
 91
        0
 92
      512
 93
        0
300

 40
0.0
140
1.0
 94
        5
 62
     0
340
11
144
6.0
309
CONTENTFORMAT_END
171
     1
301
MARGIN
  1
CELLMARGIN_BEGIN
 40
1.5
 40
1.5
 40
1.5
 40
1.5
 40
4.5
 40
4.5
309
CELLMARGIN_END
 94
        6
 95
        1
302
GRIDFORMAT
  1
GRIDFORMAT_BEGIN
 90
        0
 91
        1
 62
     0
 92
       -2
340
14
 93
        0
 40
1.125
309
GRIDFORMAT_END
 95
        2
302
GRIDFORMAT
  1
GRIDFORMAT_BEGIN
 90
        0
 91
        1
 62
     0
 92
       -2
340
14
 93
        0
 40
1.125
309
GRIDFORMAT_END
 95
        4
302
GRIDFORMAT
  1
GRIDFORMAT_BEGIN
 90
        0
 91
        1
 62
     0
 92
       -2
340
14
 93
        0
 40
1.125
309
GRIDFORMAT_END
 95
        8
302
GRIDFORMAT
  1
GRIDFORMAT_BEGIN
 90
        0
 91
        1
 62
     0
 92
       -2
340
14
 93
        0
 40
1.125
309
GRIDFORMAT_END
 95
       16
302
GRIDFORMAT
  1
GRIDFORMAT_BEGIN
 90
        0
 91
        1
 62
     0
 92
       -2
340
14
 93
        0
 40
1.125
309
GRIDFORMAT_END
 95
       32
302
GRIDFORMAT
  1
GRIDFORMAT_BEGIN
 90
        0
 91
        1
 62
     0
 92
       -2
340
14
 93
        0
 40
1.125
309
GRIDFORMAT_END
309
TABLEFORMAT_END
  1
CELLSTYLE_BEGIN
 90
        1
 91
        1
300
_TITLE
309
CELLSTYLE_END
300
CELLSTYLE
  1
TABLEFORMAT_BEGIN
 90
        5
170
     1
 91
        0
 92
        0
 62
   257
 93
        1
300
CONTENTFORMAT
  1
CONTENTFORMAT_BEGIN
 90
        0
 91
        0
 92
      512
 93
        0
300

 40
0.0
140
1.0
 94
        5
 62
     0
340
11
144
4.5
309
CONTENTFORMAT_END
171
     1
301
MARGIN
  1
CELLMARGIN_BEGIN
 40
1.5
 40
1.5
 40
1.5
 40
1.5
 40
4.5
 40
4.5
309
CELLMARGIN_END
 94
        6
 95
        1
302
GRIDFORMAT
  1
GRIDFORMAT_BEGIN
 90
        0
 91
        1
 62
     0
 92
       -2
340
14
 93
        0
 40
1.125
309
GRIDFORMAT_END
 95
        2
302
GRIDFORMAT
  1
GRIDFORMAT_BEGIN
 90
        0
 91
        1
 62
     0
 92
       -2
340
14
 93
        0
 40
1.125
309
GRIDFORMAT_END
 95
        4
302
GRIDFORMAT
  1
GRIDFORMAT_BEGIN
 90
        0
 91
        1
 62
     0
 92
       -2
340
14
 93
        0
 40
1.125
309
GRIDFORMAT_END
 95
        8
302
GRIDFORMAT
  1
GRIDFORMAT_BEGIN
 90
        0
 91
        1
 62
     0
 92
       -2
340
14
 93
        0
 40
1.125
309
GRIDFORMAT_END
 95
       16
302
GRIDFORMAT
  1
GRIDFORMAT_BEGIN
 90
        0
 91
        1
 62
     0
 92
       -2
340
14
 93
        0
 40
1.125
309
GRIDFORMAT_END
 95
       32
302
GRIDFORMAT
  1
GRIDFORMAT_BEGIN
 90
        0
 91
        1
 62
     0
 92
       -2
340
14
 93
        0
 40
1.125
309
GRIDFORMAT_END
309
TABLEFORMAT_END
  1
CELLSTYLE_BEGIN
 90
        2
 91
        1
300
_HEADER
309
CELLSTYLE_END
300
CELLSTYLE
  1
TABLEFORMAT_BEGIN
 90
        5
170
     1
 91
        0
 92
        0
 62
   257
 93
        1
300
CONTENTFORMAT
  1
CONTENTFORMAT_BEGIN
 90
        0
 91
        0
 92
      512
 93
        0
300

 40
0.0
140
1.0
 94
        2
 62
     0
340
11
144
4.5
309
CONTENTFORMAT_END
171
     1
301
MARGIN
  1
CELLMARGIN_BEGIN
 40
1.5
 40
1.5
 40
1.5
 40
1.5
 40
4.5
 40
4.5
309
CELLMARGIN_END
 94
        6
 95
        1
302
GRIDFORMAT
  1
GRIDFORMAT_BEGIN
 90
        0
 91
        1
 62
     0
 92
       -2
340
14
 93
        0
 40
1.125
309
GRIDFORMAT_END
 95
        2
302
GRIDFORMAT
  1
GRIDFORMAT_BEGIN
 90
        0
 91
        1
 62
     0
 92
       -2
340
14
 93
        0
 40
1.125
309
GRIDFORMAT_END
 95
        4
302
GRIDFORMAT
  1
GRIDFORMAT_BEGIN
 90
        0
 91
        1
 62
     0
 92
       -2
340
14
 93
        0
 40
1.125
309
GRIDFORMAT_END
 95
        8
302
GRIDFORMAT
  1
GRIDFORMAT_BEGIN
 90
        0
 91
        1
 62
     0
 92
       -2
340
14
 93
        0
 40
1.125
309
GRIDFORMAT_END
 95
       16
302
GRIDFORMAT
  1
GRIDFORMAT_BEGIN
 90
        0
 91
        1
 62
     0
 92
       -2
340
14
 93
        0
 40
1.125
309
GRIDFORMAT_END
 95
       32
302
GRIDFORMAT
  1
GRIDFORMAT_BEGIN
 90
        0
 91
        1
 62
     0
 92
       -2
340
14
 93
        0
 40
1.125
309
GRIDFORMAT_END
309
TABLEFORMAT_END
  1
CELLSTYLE_BEGIN
 90
        3
 91
        2
300
_DATA
309
CELLSTYLE_END
  0
XRECORD
  5
2484
102
{ACAD_REACTORS
330
162
102
}
330
162
100
AcDbXrecord
280
     1
102
ACAD_ROUNDTRIP_PRE2007_TABLESTYLE
 90
      512
 91
        0
  1

 92
      512
 93
        0
  2

 94
      512
 95
        0
  3

  0
XRECORD
  5
2497
102
{ACAD_REACTORS
330
2496
102
}
330
2496
100
AcDbXrecord
280
     1
102
RTVSPost2010Prop28
280
     1
102
RTVSPost2010PropOp28
 70
     1
102
RTVSPost2010Prop29
280
     1
102
RTVSPost2010PropOp29
 70
     1
102
RTVSPost2010Prop30
280
     0
102
RTVSPost2010PropOp30
 70
     1
102
RTVSPost2010Prop31
280
     0
102
RTVSPost2010PropOp31
 70
     1
102
RTVSPost2010Prop32
280
     0
102
RTVSPost2010PropOp32
 70
     1
102
RTVSPost2010Prop33
280
     0
102
RTVSPost2010PropOp33
 70
     1
102
RTVSPost2010Prop34
280
     0
102
RTVSPost2010PropOp34
 70
     1
102
RTVSPost2010Prop35
280
     0
102
RTVSPost2010PropOp35
 70
     1
102
RTVSPost2010Prop36
280
     0
102
RTVSPost2010PropOp36
 70
     1
102
RTVSPost2010Prop37
 90
       50
102
RTVSPost2010PropOp37
 70
     1
102
RTVSPost2010Prop38
140
0.0
102
RTVSPost2010PropOp38
 70
     1
102
RTVSPost2010Prop39
140
1.0
102
RTVSPost2010PropOp39
 70
     1
102
RTVSPost2010Prop40
 90
        0
102
RTVSPost2010PropOp40
 70
     1
102
RTVSPost2010Prop41ColorIndex
 90
       18
102
RTVSPost2010Prop41ColorRGB
 90
        0
102
RTVSPost2010PropOp41
 70
     1
102
RTVSPost2010Prop42
 90
       50
102
RTVSPost2010PropOp42
 70
     1
102
RTVSPost2010Prop43
 90
        3
102
RTVSPost2010PropOp43
 70
     1
102
RTVSPost2010Prop44ColorIndex
 90
        5
102
RTVSPost2010Prop44ColorRGB
 90
      255
102
RTVSPost2010PropOp44
 70
     1
102
RTVSPost2010Prop45
280
     0
102
RTVSPost2010PropOp45
 70
     1
102
RTVSPost2010Prop46
 90
       50
102
RTVSPost2010PropOp46
 70
     1
102
RTVSPost2010Prop47
 90
       50
102
RTVSPost2010PropOp47
 70
     1
102
RTVSPost2010Prop48
 90
       50
102
RTVSPost2010PropOp48
 70
     1
102
RTVSPost2010Prop49
280
     0
102
RTVSPost2010PropOp49
 70
     1
102
RTVSPost2010Prop50
 90
       50
102
RTVSPost2010PropOp50
 70
     1
102
RTVSPost2010Prop51ColorIndex
 90
      256
102
RTVSPost2010Prop51ColorRGB
 90
-16777216
102
RTVSPost2010PropOp51
 70
     0
102
RTVSPost2010Prop52
140
1.0
102
RTVSPost2010PropOp52
 70
     0
102
RTVSPost2010Prop53
 90
        2
102
RTVSPost2010PropOp53
 70
     1
102
RTVSPost2010Prop54
  1
strokes_ogs.tif
102
RTVSPost2010PropOp54
 70
     1
102
RTVSPost2010Prop55
280
     0
102
RTVSPost2010PropOp55
 70
     1
102
RTVSPost2010Prop56
140
1.0
102
RTVSPost2010PropOp56
 70
     1
102
RTVSPost2010Prop57
140
1.0
102
RTVSPost2010PropOp57
 70
     1
102
RTVSPropertyOp0
 70
     1
102
RTVSPropertyOp1
 70
     1
102
RTVSPropertyOp2
 70
     1
102
RTVSPropertyOp3
 70
     1
102
RTVSPropertyOp4
 70
     1
102
RTVSPropertyOp5
 70
     1
102
RTVSPropertyOp6
 70
     1
102
RTVSPropertyOp7
 70
     1
102
RTVSPropertyOp8
 70
     1
102
RTVSPropertyOp9
 70
     1
102
RTVSPropertyOp10
 70
     1
102
RTVSPropertyOp11
 70
     1
102
RTVSPropertyOp12
 70
     1
102
RTVSPropertyOp13
 70
     1
102
RTVSPropertyOp14
 70
     1
102
RTVSPropertyOp15
 70
     1
102
RTVSPropertyOp16
 70
     1
102
RTVSPropertyOp17
 70
     1
102
RTVSPropertyOp18
 70
     1
102
RTVSPropertyOp19
 70
     1
102
RTVSPropertyOp20
 70
     1
102
RTVSPropertyOp21
 70
     1
102
RTVSPropertyOp22
 70
     1
102
RTVSPropertyOp23
 70
     1
102
RTVSPropertyOp24
 70
     1
102
RTVSPropertyOp25
 70
     1
102
RTVSPropertyOp26
 70
     1
102
RTVSPropertyOp27
 70
     1
102
RTVSPropertyOp28
 70
     1
102
RTVSPropertyOp29
 70
     1
102
RTVSPropertyOp30
 70
     1
102
RTVSPropertyOp31
 70
     1
102
RTVSPropertyOp32
 70
     1
102
RTVSPropertyOp33
 70
     1
102
RTVSPropertyOp34
 70
     1
102
RTVSPropertyOp35
 70
     1
102
RTVSPropertyOp36
 70
     1
102
RTVSPropertyOp37
 70
     1
102
RTVSPropertyOp38
 70
     1
102
RTVSPropertyOp39
 70
     1
102
RTVSPropertyOp40
 70
     1
102
RTVSPropertyOp41
 70
     1
102
RTVSPropertyOp42
 70
     1
102
RTVSPropertyOp43
 70
     1
102
RTVSPropertyOp44
 70
     1
102
RTVSPropertyOp45
 70
     1
102
RTVSPropertyOp46
 70
     1
102
RTVSPropertyOp47
 70
     1
102
RTVSPropertyOp48
 70
     1
102
RTVSPropertyOp49
 70
     1
102
RTVSPropertyOp50
 70
     1
102
RTVSPropertyOp51
 70
     0
102
RTVSPropertyOp52
 70
     0
102
RTVSPropertyOp53
 70
     1
102
RTVSPropertyOp54
 70
     1
102
RTVSPropertyOp55
 70
     1
102
RTVSPropertyOp56
 70
     1
102
RTVSPropertyOp57
 70
     1
102
RTVSPropertyOp58
 70
     1
102
RTVSPropertyOp59
 70
     1
102
RTVSPropertyOp60
 70
     1
102
RTVSPropertyOp61
 70
     1
102
RTVSPropertyOp62
 70
     1
  0
XRECORD
  5
2495
102
{ACAD_REACTORS
330
2494
102
}
330
2494
100
AcDbXrecord
280
     1
102
RTVSPost2010Prop28
280
     0
102
RTVSPost2010PropOp28
 70
     1
102
RTVSPost2010Prop29
280
     1
102
RTVSPost2010PropOp29
 70
     1
102
RTVSPost2010Prop30
280
     1
102
RTVSPost2010PropOp30
 70
     1
102
RTVSPost2010Prop31
280
     0
102
RTVSPost2010PropOp31
 70
     1
102
RTVSPost2010Prop32
280
     0
102
RTVSPost2010PropOp32
 70
     1
102
RTVSPost2010Prop33
280
     0
102
RTVSPost2010PropOp33
 70
     1
102
RTVSPost2010Prop34
280
     0
102
RTVSPost2010PropOp34
 70
     1
102
RTVSPost2010Prop35
280
     0
102
RTVSPost2010PropOp35
 70
     1
102
RTVSPost2010Prop36
280
     0
102
RTVSPost2010PropOp36
 70
     1
102
RTVSPost2010Prop37
 90
       50
102
RTVSPost2010PropOp37
 70
     1
102
RTVSPost2010Prop38
140
0.0
102
RTVSPost2010PropOp38
 70
     1
102
RTVSPost2010Prop39
140
1.0
102
RTVSPost2010PropOp39
 70
     1
102
RTVSPost2010Prop40
 90
        0
102
RTVSPost2010PropOp40
 70
     1
102
RTVSPost2010Prop41ColorIndex
 90
       18
102
RTVSPost2010Prop41ColorRGB
 90
        0
102
RTVSPost2010PropOp41
 70
     1
102
RTVSPost2010Prop42
 90
       50
102
RTVSPost2010PropOp42
 70
     1
102
RTVSPost2010Prop43
 90
        3
102
RTVSPost2010PropOp43
 70
     1
102
RTVSPost2010Prop44ColorIndex
 90
        5
102
RTVSPost2010Prop44ColorRGB
 90
      255
102
RTVSPost2010PropOp44
 70
     1
102
RTVSPost2010Prop45
280
     0
102
RTVSPost2010PropOp45
 70
     1
102
RTVSPost2010Prop46
 90
       50
102
RTVSPost2010PropOp46
 70
     1
102
RTVSPost2010Prop47
 90
       50
102
RTVSPost2010PropOp47
 70
     1
102
RTVSPost2010Prop48
 90
       50
102
RTVSPost2010PropOp48
 70
     1
102
RTVSPost2010Prop49
280
     0
102
RTVSPost2010PropOp49
 70
     1
102
RTVSPost2010Prop50
 90
       50
102
RTVSPost2010PropOp50
 70
     1
102
RTVSPost2010Prop51ColorIndex
 90
      256
102
RTVSPost2010Prop51ColorRGB
 90
-16777216
102
RTVSPost2010PropOp51
 70
     0
102
RTVSPost2010Prop52
140
1.0
102
RTVSPost2010PropOp52
 70
     0
102
RTVSPost2010Prop53
 90
        2
102
RTVSPost2010PropOp53
 70
     1
102
RTVSPost2010Prop54
  1
strokes_ogs.tif
102
RTVSPost2010PropOp54
 70
     1
102
RTVSPost2010Prop55
280
     0
102
RTVSPost2010PropOp55
 70
     1
102
RTVSPost2010Prop56
140
1.0
102
RTVSPost2010PropOp56
 70
     1
102
RTVSPost2010Prop57
140
1.0
102
RTVSPost2010PropOp57
 70
     1
102
RTVSPropertyOp0
 70
     1
102
RTVSPropertyOp1
 70
     1
102
RTVSPropertyOp2
 70
     1
102
RTVSPropertyOp3
 70
     1
102
RTVSPropertyOp4
 70
     1
102
RTVSPropertyOp5
 70
     1
102
RTVSPropertyOp6
 70
     1
102
RTVSPropertyOp7
 70
     1
102
RTVSPropertyOp8
 70
     1
102
RTVSPropertyOp9
 70
     1
102
RTVSPropertyOp10
 70
     1
102
RTVSPropertyOp11
 70
     1
102
RTVSPropertyOp12
 70
     1
102
RTVSPropertyOp13
 70
     1
102
RTVSPropertyOp14
 70
     1
102
RTVSPropertyOp15
 70
     1
102
RTVSPropertyOp16
 70
     1
102
RTVSPropertyOp17
 70
     1
102
RTVSPropertyOp18
 70
     1
102
RTVSPropertyOp19
 70
     1
102
RTVSPropertyOp20
 70
     1
102
RTVSPropertyOp21
 70
     1
102
RTVSPropertyOp22
 70
     1
102
RTVSPropertyOp23
 70
     1
102
RTVSPropertyOp24
 70
     1
102
RTVSPropertyOp25
 70
     1
102
RTVSPropertyOp26
 70
     1
102
RTVSPropertyOp27
 70
     1
102
RTVSPropertyOp28
 70
     1
102
RTVSPropertyOp29
 70
     1
102
RTVSPropertyOp30
 70
     1
102
RTVSPropertyOp31
 70
     1
102
RTVSPropertyOp32
 70
     1
102
RTVSPropertyOp33
 70
     1
102
RTVSPropertyOp34
 70
     1
102
RTVSPropertyOp35
 70
     1
102
RTVSPropertyOp36
 70
     1
102
RTVSPropertyOp37
 70
     1
102
RTVSPropertyOp38
 70
     1
102
RTVSPropertyOp39
 70
     1
102
RTVSPropertyOp40
 70
     1
102
RTVSPropertyOp41
 70
     1
102
RTVSPropertyOp42
 70
     1
102
RTVSPropertyOp43
 70
     1
102
RTVSPropertyOp44
 70
     1
102
RTVSPropertyOp45
 70
     1
102
RTVSPropertyOp46
 70
     1
102
RTVSPropertyOp47
 70
     1
102
RTVSPropertyOp48
 70
     1
102
RTVSPropertyOp49
 70
     1
102
RTVSPropertyOp50
 70
     1
102
RTVSPropertyOp51
 70
     0
102
RTVSPropertyOp52
 70
     0
102
RTVSPropertyOp53
 70
     1
102
RTVSPropertyOp54
 70
     1
102
RTVSPropertyOp55
 70
     1
102
RTVSPropertyOp56
 70
     1
102
RTVSPropertyOp57
 70
     1
102
RTVSPropertyOp58
 70
     1
102
RTVSPropertyOp59
 70
     1
102
RTVSPropertyOp60
 70
     1
102
RTVSPropertyOp61
 70
     1
102
RTVSPropertyOp62
 70
     1
  0
XRECORD
  5
24A3
102
{ACAD_REACTORS
330
24A2
102
}
330
24A2
100
AcDbXrecord
280
     1
102
RTVSPost2010Prop28
280
     0
102
RTVSPost2010PropOp28
 70
     1
102
RTVSPost2010Prop29
280
     1
102
RTVSPost2010PropOp29
 70
     1
102
RTVSPost2010Prop30
280
     1
102
RTVSPost2010PropOp30
 70
     1
102
RTVSPost2010Prop31
280
     0
102
RTVSPost2010PropOp31
 70
     1
102
RTVSPost2010Prop32
280
     0
102
RTVSPost2010PropOp32
 70
     1
102
RTVSPost2010Prop33
280
     0
102
RTVSPost2010PropOp33
 70
     1
102
RTVSPost2010Prop34
280
     0
102
RTVSPost2010PropOp34
 70
     1
102
RTVSPost2010Prop35
280
     0
102
RTVSPost2010PropOp35
 70
     1
102
RTVSPost2010Prop36
280
     0
102
RTVSPost2010PropOp36
 70
     1
102
RTVSPost2010Prop37
 90
       50
102
RTVSPost2010PropOp37
 70
     1
102
RTVSPost2010Prop38
140
0.0
102
RTVSPost2010PropOp38
 70
     1
102
RTVSPost2010Prop39
140
1.0
102
RTVSPost2010PropOp39
 70
     1
102
RTVSPost2010Prop40
 90
        0
102
RTVSPost2010PropOp40
 70
     1
102
RTVSPost2010Prop41ColorIndex
 90
       18
102
RTVSPost2010Prop41ColorRGB
 90
        0
102
RTVSPost2010PropOp41
 70
     1
102
RTVSPost2010Prop42
 90
       50
102
RTVSPost2010PropOp42
 70
     1
102
RTVSPost2010Prop43
 90
        3
102
RTVSPost2010PropOp43
 70
     1
102
RTVSPost2010Prop44ColorIndex
 90
        5
102
RTVSPost2010Prop44ColorRGB
 90
      255
102
RTVSPost2010PropOp44
 70
     1
102
RTVSPost2010Prop45
280
     0
102
RTVSPost2010PropOp45
 70
     1
102
RTVSPost2010Prop46
 90
       50
102
RTVSPost2010PropOp46
 70
     1
102
RTVSPost2010Prop47
 90
       50
102
RTVSPost2010PropOp47
 70
     1
102
RTVSPost2010Prop48
 90
       50
102
RTVSPost2010PropOp48
 70
     1
102
RTVSPost2010Prop49
280
     0
102
RTVSPost2010PropOp49
 70
     1
102
RTVSPost2010Prop50
 90
       50
102
RTVSPost2010PropOp50
 70
     1
102
RTVSPost2010Prop51ColorIndex
 90
      256
102
RTVSPost2010Prop51ColorRGB
 90
-16777216
102
RTVSPost2010PropOp51
 70
     0
102
RTVSPost2010Prop52
140
1.0
102
RTVSPost2010PropOp52
 70
     0
102
RTVSPost2010Prop53
 90
        2
102
RTVSPost2010PropOp53
 70
     1
102
RTVSPost2010Prop54
  1
strokes_ogs.tif
102
RTVSPost2010PropOp54
 70
     1
102
RTVSPost2010Prop55
280
     0
102
RTVSPost2010PropOp55
 70
     1
102
RTVSPost2010Prop56
140
1.0
102
RTVSPost2010PropOp56
 70
     1
102
RTVSPost2010Prop57
140
1.0
102
RTVSPost2010PropOp57
 70
     1
102
RTVSPropertyOp0
 70
     1
102
RTVSPropertyOp1
 70
     1
102
RTVSPropertyOp2
 70
     1
102
RTVSPropertyOp3
 70
     1
102
RTVSPropertyOp4
 70
     1
102
RTVSPropertyOp5
 70
     1
102
RTVSPropertyOp6
 70
     1
102
RTVSPropertyOp7
 70
     1
102
RTVSPropertyOp8
 70
     1
102
RTVSPropertyOp9
 70
     1
102
RTVSPropertyOp10
 70
     1
102
RTVSPropertyOp11
 70
     1
102
RTVSPropertyOp12
 70
     1
102
RTVSPropertyOp13
 70
     1
102
RTVSPropertyOp14
 70
     1
102
RTVSPropertyOp15
 70
     1
102
RTVSPropertyOp16
 70
     1
102
RTVSPropertyOp17
 70
     1
102
RTVSPropertyOp18
 70
     1
102
RTVSPropertyOp19
 70
     1
102
RTVSPropertyOp20
 70
     1
102
RTVSPropertyOp21
 70
     1
102
RTVSPropertyOp22
 70
     1
102
RTVSPropertyOp23
 70
     1
102
RTVSPropertyOp24
 70
     1
102
RTVSPropertyOp25
 70
     1
102
RTVSPropertyOp26
 70
     1
102
RTVSPropertyOp27
 70
     1
102
RTVSPropertyOp28
 70
     1
102
RTVSPropertyOp29
 70
     1
102
RTVSPropertyOp30
 70
     1
102
RTVSPropertyOp31
 70
     1
102
RTVSPropertyOp32
 70
     1
102
RTVSPropertyOp33
 70
     1
102
RTVSPropertyOp34
 70
     1
102
RTVSPropertyOp35
 70
     1
102
RTVSPropertyOp36
 70
     1
102
RTVSPropertyOp37
 70
     1
102
RTVSPropertyOp38
 70
     1
102
RTVSPropertyOp39
 70
     1
102
RTVSPropertyOp40
 70
     1
102
RTVSPropertyOp41
 70
     1
102
RTVSPropertyOp42
 70
     1
102
RTVSPropertyOp43
 70
     1
102
RTVSPropertyOp44
 70
     1
102
RTVSPropertyOp45
 70
     1
102
RTVSPropertyOp46
 70
     1
102
RTVSPropertyOp47
 70
     1
102
RTVSPropertyOp48
 70
     1
102
RTVSPropertyOp49
 70
     1
102
RTVSPropertyOp50
 70
     1
102
RTVSPropertyOp51
 70
     0
102
RTVSPropertyOp52
 70
     0
102
RTVSPropertyOp53
 70
     1
102
RTVSPropertyOp54
 70
     1
102
RTVSPropertyOp55
 70
     1
102
RTVSPropertyOp56
 70
     1
102
RTVSPropertyOp57
 70
     1
102
RTVSPropertyOp58
 70
     1
102
RTVSPropertyOp59
 70
     1
102
RTVSPropertyOp60
 70
     1
102
RTVSPropertyOp61
 70
     1
102
RTVSPropertyOp62
 70
     1
  0
XRECORD
  5
24AB
102
{ACAD_REACTORS
330
24AA
102
}
330
24AA
100
AcDbXrecord
280
     1
102
RTVSPost2010Prop28
280
     0
102
RTVSPost2010PropOp28
 70
     1
102
RTVSPost2010Prop29
280
     1
102
RTVSPost2010PropOp29
 70
     1
102
RTVSPost2010Prop30
280
     1
102
RTVSPost2010PropOp30
 70
     1
102
RTVSPost2010Prop31
280
     0
102
RTVSPost2010PropOp31
 70
     1
102
RTVSPost2010Prop32
280
     0
102
RTVSPost2010PropOp32
 70
     1
102
RTVSPost2010Prop33
280
     0
102
RTVSPost2010PropOp33
 70
     1
102
RTVSPost2010Prop34
280
     0
102
RTVSPost2010PropOp34
 70
     1
102
RTVSPost2010Prop35
280
     0
102
RTVSPost2010PropOp35
 70
     1
102
RTVSPost2010Prop36
280
     0
102
RTVSPost2010PropOp36
 70
     1
102
RTVSPost2010Prop37
 90
       50
102
RTVSPost2010PropOp37
 70
     1
102
RTVSPost2010Prop38
140
0.0
102
RTVSPost2010PropOp38
 70
     1
102
RTVSPost2010Prop39
140
1.0
102
RTVSPost2010PropOp39
 70
     1
102
RTVSPost2010Prop40
 90
        0
102
RTVSPost2010PropOp40
 70
     1
102
RTVSPost2010Prop41ColorIndex
 90
       18
102
RTVSPost2010Prop41ColorRGB
 90
        0
102
RTVSPost2010PropOp41
 70
     1
102
RTVSPost2010Prop42
 90
       50
102
RTVSPost2010PropOp42
 70
     1
102
RTVSPost2010Prop43
 90
        3
102
RTVSPost2010PropOp43
 70
     1
102
RTVSPost2010Prop44ColorIndex
 90
        5
102
RTVSPost2010Prop44ColorRGB
 90
      255
102
RTVSPost2010PropOp44
 70
     1
102
RTVSPost2010Prop45
280
     0
102
RTVSPost2010PropOp45
 70
     1
102
RTVSPost2010Prop46
 90
       50
102
RTVSPost2010PropOp46
 70
     1
102
RTVSPost2010Prop47
 90
       50
102
RTVSPost2010PropOp47
 70
     1
102
RTVSPost2010Prop48
 90
       50
102
RTVSPost2010PropOp48
 70
     1
102
RTVSPost2010Prop49
280
     0
102
RTVSPost2010PropOp49
 70
     1
102
RTVSPost2010Prop50
 90
       50
102
RTVSPost2010PropOp50
 70
     1
102
RTVSPost2010Prop51ColorIndex
 90
      256
102
RTVSPost2010Prop51ColorRGB
 90
-16777216
102
RTVSPost2010PropOp51
 70
     0
102
RTVSPost2010Prop52
140
1.0
102
RTVSPost2010PropOp52
 70
     0
102
RTVSPost2010Prop53
 90
        2
102
RTVSPost2010PropOp53
 70
     1
102
RTVSPost2010Prop54
  1
strokes_ogs.tif
102
RTVSPost2010PropOp54
 70
     1
102
RTVSPost2010Prop55
280
     0
102
RTVSPost2010PropOp55
 70
     1
102
RTVSPost2010Prop56
140
1.0
102
RTVSPost2010PropOp56
 70
     1
102
RTVSPost2010Prop57
140
1.0
102
RTVSPost2010PropOp57
 70
     1
102
RTVSPropertyOp0
 70
     1
102
RTVSPropertyOp1
 70
     1
102
RTVSPropertyOp2
 70
     1
102
RTVSPropertyOp3
 70
     1
102
RTVSPropertyOp4
 70
     1
102
RTVSPropertyOp5
 70
     1
102
RTVSPropertyOp6
 70
     1
102
RTVSPropertyOp7
 70
     1
102
RTVSPropertyOp8
 70
     1
102
RTVSPropertyOp9
 70
     1
102
RTVSPropertyOp10
 70
     1
102
RTVSPropertyOp11
 70
     1
102
RTVSPropertyOp12
 70
     1
102
RTVSPropertyOp13
 70
     1
102
RTVSPropertyOp14
 70
     1
102
RTVSPropertyOp15
 70
     1
102
RTVSPropertyOp16
 70
     1
102
RTVSPropertyOp17
 70
     1
102
RTVSPropertyOp18
 70
     1
102
RTVSPropertyOp19
 70
     1
102
RTVSPropertyOp20
 70
     1
102
RTVSPropertyOp21
 70
     1
102
RTVSPropertyOp22
 70
     1
102
RTVSPropertyOp23
 70
     1
102
RTVSPropertyOp24
 70
     1
102
RTVSPropertyOp25
 70
     1
102
RTVSPropertyOp26
 70
     1
102
RTVSPropertyOp27
 70
     1
102
RTVSPropertyOp28
 70
     1
102
RTVSPropertyOp29
 70
     1
102
RTVSPropertyOp30
 70
     1
102
RTVSPropertyOp31
 70
     1
102
RTVSPropertyOp32
 70
     1
102
RTVSPropertyOp33
 70
     1
102
RTVSPropertyOp34
 70
     1
102
RTVSPropertyOp35
 70
     1
102
RTVSPropertyOp36
 70
     1
102
RTVSPropertyOp37
 70
     1
102
RTVSPropertyOp38
 70
     1
102
RTVSPropertyOp39
 70
     1
102
RTVSPropertyOp40
 70
     1
102
RTVSPropertyOp41
 70
     1
102
RTVSPropertyOp42
 70
     1
102
RTVSPropertyOp43
 70
     1
102
RTVSPropertyOp44
 70
     1
102
RTVSPropertyOp45
 70
     1
102
RTVSPropertyOp46
 70
     1
102
RTVSPropertyOp47
 70
     1
102
RTVSPropertyOp48
 70
     1
102
RTVSPropertyOp49
 70
     1
102
RTVSPropertyOp50
 70
     1
102
RTVSPropertyOp51
 70
     0
102
RTVSPropertyOp52
 70
     0
102
RTVSPropertyOp53
 70
     1
102
RTVSPropertyOp54
 70
     1
102
RTVSPropertyOp55
 70
     1
102
RTVSPropertyOp56
 70
     1
102
RTVSPropertyOp57
 70
     1
102
RTVSPropertyOp58
 70
     1
102
RTVSPropertyOp59
 70
     1
102
RTVSPropertyOp60
 70
     1
102
RTVSPropertyOp61
 70
     1
102
RTVSPropertyOp62
 70
     1
  0
XRECORD
  5
249D
102
{ACAD_REACTORS
330
249C
102
}
330
249C
100
AcDbXrecord
280
     1
102
RTVSPost2010Prop28
280
     0
102
RTVSPost2010PropOp28
 70
     1
102
RTVSPost2010Prop29
280
     1
102
RTVSPost2010PropOp29
 70
     1
102
RTVSPost2010Prop30
280
     1
102
RTVSPost2010PropOp30
 70
     1
102
RTVSPost2010Prop31
280
     0
102
RTVSPost2010PropOp31
 70
     1
102
RTVSPost2010Prop32
280
     0
102
RTVSPost2010PropOp32
 70
     1
102
RTVSPost2010Prop33
280
     0
102
RTVSPost2010PropOp33
 70
     1
102
RTVSPost2010Prop34
280
     0
102
RTVSPost2010PropOp34
 70
     1
102
RTVSPost2010Prop35
280
     0
102
RTVSPost2010PropOp35
 70
     1
102
RTVSPost2010Prop36
280
     0
102
RTVSPost2010PropOp36
 70
     1
102
RTVSPost2010Prop37
 90
       50
102
RTVSPost2010PropOp37
 70
     1
102
RTVSPost2010Prop38
140
0.0
102
RTVSPost2010PropOp38
 70
     1
102
RTVSPost2010Prop39
140
1.0
102
RTVSPost2010PropOp39
 70
     1
102
RTVSPost2010Prop40
 90
        0
102
RTVSPost2010PropOp40
 70
     1
102
RTVSPost2010Prop41ColorIndex
 90
       18
102
RTVSPost2010Prop41ColorRGB
 90
        0
102
RTVSPost2010PropOp41
 70
     1
102
RTVSPost2010Prop42
 90
       50
102
RTVSPost2010PropOp42
 70
     1
102
RTVSPost2010Prop43
 90
        3
102
RTVSPost2010PropOp43
 70
     1
102
RTVSPost2010Prop44ColorIndex
 90
        5
102
RTVSPost2010Prop44ColorRGB
 90
      255
102
RTVSPost2010PropOp44
 70
     1
102
RTVSPost2010Prop45
280
     0
102
RTVSPost2010PropOp45
 70
     1
102
RTVSPost2010Prop46
 90
       50
102
RTVSPost2010PropOp46
 70
     1
102
RTVSPost2010Prop47
 90
       50
102
RTVSPost2010PropOp47
 70
     1
102
RTVSPost2010Prop48
 90
       50
102
RTVSPost2010PropOp48
 70
     1
102
RTVSPost2010Prop49
280
     0
102
RTVSPost2010PropOp49
 70
     1
102
RTVSPost2010Prop50
 90
       50
102
RTVSPost2010PropOp50
 70
     1
102
RTVSPost2010Prop51ColorIndex
 90
      256
102
RTVSPost2010Prop51ColorRGB
 90
-16777216
102
RTVSPost2010PropOp51
 70
     0
102
RTVSPost2010Prop52
140
1.0
102
RTVSPost2010PropOp52
 70
     0
102
RTVSPost2010Prop53
 90
        2
102
RTVSPost2010PropOp53
 70
     1
102
RTVSPost2010Prop54
  1
strokes_ogs.tif
102
RTVSPost2010PropOp54
 70
     1
102
RTVSPost2010Prop55
280
     0
102
RTVSPost2010PropOp55
 70
     1
102
RTVSPost2010Prop56
140
1.0
102
RTVSPost2010PropOp56
 70
     1
102
RTVSPost2010Prop57
140
1.0
102
RTVSPost2010PropOp57
 70
     1
102
RTVSPropertyOp0
 70
     1
102
RTVSPropertyOp1
 70
     1
102
RTVSPropertyOp2
 70
     1
102
RTVSPropertyOp3
 70
     1
102
RTVSPropertyOp4
 70
     1
102
RTVSPropertyOp5
 70
     1
102
RTVSPropertyOp6
 70
     1
102
RTVSPropertyOp7
 70
     1
102
RTVSPropertyOp8
 70
     1
102
RTVSPropertyOp9
 70
     1
102
RTVSPropertyOp10
 70
     1
102
RTVSPropertyOp11
 70
     1
102
RTVSPropertyOp12
 70
     1
102
RTVSPropertyOp13
 70
     1
102
RTVSPropertyOp14
 70
     1
102
RTVSPropertyOp15
 70
     1
102
RTVSPropertyOp16
 70
     1
102
RTVSPropertyOp17
 70
     1
102
RTVSPropertyOp18
 70
     1
102
RTVSPropertyOp19
 70
     1
102
RTVSPropertyOp20
 70
     1
102
RTVSPropertyOp21
 70
     1
102
RTVSPropertyOp22
 70
     1
102
RTVSPropertyOp23
 70
     1
102
RTVSPropertyOp24
 70
     1
102
RTVSPropertyOp25
 70
     1
102
RTVSPropertyOp26
 70
     1
102
RTVSPropertyOp27
 70
     1
102
RTVSPropertyOp28
 70
     1
102
RTVSPropertyOp29
 70
     1
102
RTVSPropertyOp30
 70
     1
102
RTVSPropertyOp31
 70
     1
102
RTVSPropertyOp32
 70
     1
102
RTVSPropertyOp33
 70
     1
102
RTVSPropertyOp34
 70
     1
102
RTVSPropertyOp35
 70
     1
102
RTVSPropertyOp36
 70
     1
102
RTVSPropertyOp37
 70
     1
102
RTVSPropertyOp38
 70
     1
102
RTVSPropertyOp39
 70
     1
102
RTVSPropertyOp40
 70
     1
102
RTVSPropertyOp41
 70
     1
102
RTVSPropertyOp42
 70
     1
102
RTVSPropertyOp43
 70
     1
102
RTVSPropertyOp44
 70
     1
102
RTVSPropertyOp45
 70
     1
102
RTVSPropertyOp46
 70
     1
102
RTVSPropertyOp47
 70
     1
102
RTVSPropertyOp48
 70
     1
102
RTVSPropertyOp49
 70
     1
102
RTVSPropertyOp50
 70
     1
102
RTVSPropertyOp51
 70
     0
102
RTVSPropertyOp52
 70
     0
102
RTVSPropertyOp53
 70
     1
102
RTVSPropertyOp54
 70
     1
102
RTVSPropertyOp55
 70
     1
102
RTVSPropertyOp56
 70
     1
102
RTVSPropertyOp57
 70
     1
102
RTVSPropertyOp58
 70
     1
102
RTVSPropertyOp59
 70
     1
102
RTVSPropertyOp60
 70
     1
102
RTVSPropertyOp61
 70
     1
102
RTVSPropertyOp62
 70
     1
  0
XRECORD
  5
24A1
102
{ACAD_REACTORS
330
24A0
102
}
330
24A0
100
AcDbXrecord
280
     1
102
RTVSPost2010Prop28
280
     0
102
RTVSPost2010PropOp28
 70
     1
102
RTVSPost2010Prop29
280
     1
102
RTVSPost2010PropOp29
 70
     1
102
RTVSPost2010Prop30
280
     1
102
RTVSPost2010PropOp30
 70
     1
102
RTVSPost2010Prop31
280
     0
102
RTVSPost2010PropOp31
 70
     1
102
RTVSPost2010Prop32
280
     0
102
RTVSPost2010PropOp32
 70
     1
102
RTVSPost2010Prop33
280
     0
102
RTVSPost2010PropOp33
 70
     1
102
RTVSPost2010Prop34
280
     0
102
RTVSPost2010PropOp34
 70
     1
102
RTVSPost2010Prop35
280
     0
102
RTVSPost2010PropOp35
 70
     1
102
RTVSPost2010Prop36
280
     0
102
RTVSPost2010PropOp36
 70
     1
102
RTVSPost2010Prop37
 90
       50
102
RTVSPost2010PropOp37
 70
     1
102
RTVSPost2010Prop38
140
0.0
102
RTVSPost2010PropOp38
 70
     1
102
RTVSPost2010Prop39
140
1.0
102
RTVSPost2010PropOp39
 70
     1
102
RTVSPost2010Prop40
 90
        0
102
RTVSPost2010PropOp40
 70
     1
102
RTVSPost2010Prop41ColorIndex
 90
       18
102
RTVSPost2010Prop41ColorRGB
 90
        0
102
RTVSPost2010PropOp41
 70
     1
102
RTVSPost2010Prop42
 90
       50
102
RTVSPost2010PropOp42
 70
     1
102
RTVSPost2010Prop43
 90
        3
102
RTVSPost2010PropOp43
 70
     1
102
RTVSPost2010Prop44ColorIndex
 90
        5
102
RTVSPost2010Prop44ColorRGB
 90
      255
102
RTVSPost2010PropOp44
 70
     1
102
RTVSPost2010Prop45
280
     0
102
RTVSPost2010PropOp45
 70
     1
102
RTVSPost2010Prop46
 90
       50
102
RTVSPost2010PropOp46
 70
     1
102
RTVSPost2010Prop47
 90
       50
102
RTVSPost2010PropOp47
 70
     1
102
RTVSPost2010Prop48
 90
       50
102
RTVSPost2010PropOp48
 70
     1
102
RTVSPost2010Prop49
280
     0
102
RTVSPost2010PropOp49
 70
     1
102
RTVSPost2010Prop50
 90
       50
102
RTVSPost2010PropOp50
 70
     1
102
RTVSPost2010Prop51ColorIndex
 90
      256
102
RTVSPost2010Prop51ColorRGB
 90
-16777216
102
RTVSPost2010PropOp51
 70
     0
102
RTVSPost2010Prop52
140
1.0
102
RTVSPost2010PropOp52
 70
     0
102
RTVSPost2010Prop53
 90
        2
102
RTVSPost2010PropOp53
 70
     1
102
RTVSPost2010Prop54
  1
strokes_ogs.tif
102
RTVSPost2010PropOp54
 70
     1
102
RTVSPost2010Prop55
280
     0
102
RTVSPost2010PropOp55
 70
     1
102
RTVSPost2010Prop56
140
1.0
102
RTVSPost2010PropOp56
 70
     1
102
RTVSPost2010Prop57
140
1.0
102
RTVSPost2010PropOp57
 70
     1
102
RTVSPropertyOp0
 70
     1
102
RTVSPropertyOp1
 70
     1
102
RTVSPropertyOp2
 70
     1
102
RTVSPropertyOp3
 70
     1
102
RTVSPropertyOp4
 70
     1
102
RTVSPropertyOp5
 70
     1
102
RTVSPropertyOp6
 70
     1
102
RTVSPropertyOp7
 70
     1
102
RTVSPropertyOp8
 70
     1
102
RTVSPropertyOp9
 70
     1
102
RTVSPropertyOp10
 70
     1
102
RTVSPropertyOp11
 70
     1
102
RTVSPropertyOp12
 70
     1
102
RTVSPropertyOp13
 70
     1
102
RTVSPropertyOp14
 70
     1
102
RTVSPropertyOp15
 70
     1
102
RTVSPropertyOp16
 70
     1
102
RTVSPropertyOp17
 70
     1
102
RTVSPropertyOp18
 70
     1
102
RTVSPropertyOp19
 70
     1
102
RTVSPropertyOp20
 70
     1
102
RTVSPropertyOp21
 70
     1
102
RTVSPropertyOp22
 70
     1
102
RTVSPropertyOp23
 70
     1
102
RTVSPropertyOp24
 70
     1
102
RTVSPropertyOp25
 70
     1
102
RTVSPropertyOp26
 70
     1
102
RTVSPropertyOp27
 70
     1
102
RTVSPropertyOp28
 70
     1
102
RTVSPropertyOp29
 70
     1
102
RTVSPropertyOp30
 70
     1
102
RTVSPropertyOp31
 70
     1
102
RTVSPropertyOp32
 70
     1
102
RTVSPropertyOp33
 70
     1
102
RTVSPropertyOp34
 70
     1
102
RTVSPropertyOp35
 70
     1
102
RTVSPropertyOp36
 70
     1
102
RTVSPropertyOp37
 70
     1
102
RTVSPropertyOp38
 70
     1
102
RTVSPropertyOp39
 70
     1
102
RTVSPropertyOp40
 70
     1
102
RTVSPropertyOp41
 70
     1
102
RTVSPropertyOp42
 70
     1
102
RTVSPropertyOp43
 70
     1
102
RTVSPropertyOp44
 70
     1
102
RTVSPropertyOp45
 70
     1
102
RTVSPropertyOp46
 70
     1
102
RTVSPropertyOp47
 70
     1
102
RTVSPropertyOp48
 70
     1
102
RTVSPropertyOp49
 70
     1
102
RTVSPropertyOp50
 70
     1
102
RTVSPropertyOp51
 70
     0
102
RTVSPropertyOp52
 70
     0
102
RTVSPropertyOp53
 70
     1
102
RTVSPropertyOp54
 70
     1
102
RTVSPropertyOp55
 70
     1
102
RTVSPropertyOp56
 70
     1
102
RTVSPropertyOp57
 70
     1
102
RTVSPropertyOp58
 70
     1
102
RTVSPropertyOp59
 70
     1
102
RTVSPropertyOp60
 70
     1
102
RTVSPropertyOp61
 70
     1
102
RTVSPropertyOp62
 70
     1
  0
XRECORD
  5
24B3
102
{ACAD_REACTORS
330
24B2
102
}
330
24B2
100
AcDbXrecord
280
     1
102
RTVSPost2010Prop28
280
     0
102
RTVSPost2010PropOp28
 70
     1
102
RTVSPost2010Prop29
280
     1
102
RTVSPost2010PropOp29
 70
     1
102
RTVSPost2010Prop30
280
     1
102
RTVSPost2010PropOp30
 70
     1
102
RTVSPost2010Prop31
280
     0
102
RTVSPost2010PropOp31
 70
     1
102
RTVSPost2010Prop32
280
     0
102
RTVSPost2010PropOp32
 70
     1
102
RTVSPost2010Prop33
280
     0
102
RTVSPost2010PropOp33
 70
     1
102
RTVSPost2010Prop34
280
     0
102
RTVSPost2010PropOp34
 70
     1
102
RTVSPost2010Prop35
280
     0
102
RTVSPost2010PropOp35
 70
     1
102
RTVSPost2010Prop36
280
     0
102
RTVSPost2010PropOp36
 70
     1
102
RTVSPost2010Prop37
 90
       50
102
RTVSPost2010PropOp37
 70
     1
102
RTVSPost2010Prop38
140
0.0
102
RTVSPost2010PropOp38
 70
     1
102
RTVSPost2010Prop39
140
1.0
102
RTVSPost2010PropOp39
 70
     1
102
RTVSPost2010Prop40
 90
        0
102
RTVSPost2010PropOp40
 70
     1
102
RTVSPost2010Prop41ColorIndex
 90
       18
102
RTVSPost2010Prop41ColorRGB
 90
        0
102
RTVSPost2010PropOp41
 70
     1
102
RTVSPost2010Prop42
 90
       50
102
RTVSPost2010PropOp42
 70
     1
102
RTVSPost2010Prop43
 90
        3
102
RTVSPost2010PropOp43
 70
     1
102
RTVSPost2010Prop44ColorIndex
 90
        5
102
RTVSPost2010Prop44ColorRGB
 90
      255
102
RTVSPost2010PropOp44
 70
     1
102
RTVSPost2010Prop45
280
     0
102
RTVSPost2010PropOp45
 70
     1
102
RTVSPost2010Prop46
 90
       50
102
RTVSPost2010PropOp46
 70
     1
102
RTVSPost2010Prop47
 90
       50
102
RTVSPost2010PropOp47
 70
     1
102
RTVSPost2010Prop48
 90
       50
102
RTVSPost2010PropOp48
 70
     1
102
RTVSPost2010Prop49
280
     0
102
RTVSPost2010PropOp49
 70
     1
102
RTVSPost2010Prop50
 90
       50
102
RTVSPost2010PropOp50
 70
     1
102
RTVSPost2010Prop51ColorIndex
 90
      256
102
RTVSPost2010Prop51ColorRGB
 90
-16777216
102
RTVSPost2010PropOp51
 70
     0
102
RTVSPost2010Prop52
140
1.0
102
RTVSPost2010PropOp52
 70
     0
102
RTVSPost2010Prop53
 90
        2
102
RTVSPost2010PropOp53
 70
     1
102
RTVSPost2010Prop54
  1
strokes_ogs.tif
102
RTVSPost2010PropOp54
 70
     1
102
RTVSPost2010Prop55
280
     0
102
RTVSPost2010PropOp55
 70
     1
102
RTVSPost2010Prop56
140
1.0
102
RTVSPost2010PropOp56
 70
     1
102
RTVSPost2010Prop57
140
1.0
102
RTVSPost2010PropOp57
 70
     1
102
RTVSPropertyOp0
 70
     0
102
RTVSPropertyOp1
 70
     0
102
RTVSPropertyOp2
 70
     0
102
RTVSPropertyOp3
 70
     0
102
RTVSPropertyOp4
 70
     0
102
RTVSPropertyOp5
 70
     0
102
RTVSPropertyOp6
 70
     0
102
RTVSPropertyOp7
 70
     0
102
RTVSPropertyOp8
 70
     0
102
RTVSPropertyOp9
 70
     0
102
RTVSPropertyOp10
 70
     0
102
RTVSPropertyOp11
 70
     0
102
RTVSPropertyOp12
 70
     0
102
RTVSPropertyOp13
 70
     0
102
RTVSPropertyOp14
 70
     2
102
RTVSPropertyOp15
 70
     0
102
RTVSPropertyOp16
 70
     0
102
RTVSPropertyOp17
 70
     0
102
RTVSPropertyOp18
 70
     0
102
RTVSPropertyOp19
 70
     0
102
RTVSPropertyOp20
 70
     0
102
RTVSPropertyOp21
 70
     0
102
RTVSPropertyOp22
 70
     0
102
RTVSPropertyOp23
 70
     0
102
RTVSPropertyOp24
 70
     0
102
RTVSPropertyOp25
 70
     0
102
RTVSPropertyOp26
 70
     0
102
RTVSPropertyOp27
 70
     0
102
RTVSPropertyOp28
 70
     1
102
RTVSPropertyOp29
 70
     1
102
RTVSPropertyOp30
 70
     1
102
RTVSPropertyOp31
 70
     1
102
RTVSPropertyOp32
 70
     1
102
RTVSPropertyOp33
 70
     1
102
RTVSPropertyOp34
 70
     1
102
RTVSPropertyOp35
 70
     1
102
RTVSPropertyOp36
 70
     1
102
RTVSPropertyOp37
 70
     1
102
RTVSPropertyOp38
 70
     1
102
RTVSPropertyOp39
 70
     1
102
RTVSPropertyOp40
 70
     1
102
RTVSPropertyOp41
 70
     1
102
RTVSPropertyOp42
 70
     1
102
RTVSPropertyOp43
 70
     1
102
RTVSPropertyOp44
 70
     1
102
RTVSPropertyOp45
 70
     1
102
RTVSPropertyOp46
 70
     1
102
RTVSPropertyOp47
 70
     1
102
RTVSPropertyOp48
 70
     1
102
RTVSPropertyOp49
 70
     1
102
RTVSPropertyOp50
 70
     1
102
RTVSPropertyOp51
 70
     0
102
RTVSPropertyOp52
 70
     0
102
RTVSPropertyOp53
 70
     1
102
RTVSPropertyOp54
 70
     1
102
RTVSPropertyOp55
 70
     1
102
RTVSPropertyOp56
 70
     1
102
RTVSPropertyOp57
 70
     1
102
RTVSPropertyOp58
 70
     1
102
RTVSPropertyOp59
 70
     1
102
RTVSPropertyOp60
 70
     1
102
RTVSPropertyOp61
 70
     1
102
RTVSPropertyOp62
 70
     1
  0
XRECORD
  5
24A9
102
{ACAD_REACTORS
330
24A8
102
}
330
24A8
100
AcDbXrecord
280
     1
102
RTVSPost2010Prop28
280
     0
102
RTVSPost2010PropOp28
 70
     1
102
RTVSPost2010Prop29
280
     1
102
RTVSPost2010PropOp29
 70
     1
102
RTVSPost2010Prop30
280
     1
102
RTVSPost2010PropOp30
 70
     1
102
RTVSPost2010Prop31
280
     0
102
RTVSPost2010PropOp31
 70
     1
102
RTVSPost2010Prop32
280
     0
102
RTVSPost2010PropOp32
 70
     1
102
RTVSPost2010Prop33
280
     0
102
RTVSPost2010PropOp33
 70
     1
102
RTVSPost2010Prop34
280
     0
102
RTVSPost2010PropOp34
 70
     1
102
RTVSPost2010Prop35
280
     0
102
RTVSPost2010PropOp35
 70
     1
102
RTVSPost2010Prop36
280
     0
102
RTVSPost2010PropOp36
 70
     1
102
RTVSPost2010Prop37
 90
       50
102
RTVSPost2010PropOp37
 70
     1
102
RTVSPost2010Prop38
140
0.0
102
RTVSPost2010PropOp38
 70
     1
102
RTVSPost2010Prop39
140
1.0
102
RTVSPost2010PropOp39
 70
     1
102
RTVSPost2010Prop40
 90
        0
102
RTVSPost2010PropOp40
 70
     1
102
RTVSPost2010Prop41ColorIndex
 90
       18
102
RTVSPost2010Prop41ColorRGB
 90
        0
102
RTVSPost2010PropOp41
 70
     1
102
RTVSPost2010Prop42
 90
       50
102
RTVSPost2010PropOp42
 70
     1
102
RTVSPost2010Prop43
 90
        3
102
RTVSPost2010PropOp43
 70
     1
102
RTVSPost2010Prop44ColorIndex
 90
        5
102
RTVSPost2010Prop44ColorRGB
 90
      255
102
RTVSPost2010PropOp44
 70
     1
102
RTVSPost2010Prop45
280
     0
102
RTVSPost2010PropOp45
 70
     1
102
RTVSPost2010Prop46
 90
       50
102
RTVSPost2010PropOp46
 70
     1
102
RTVSPost2010Prop47
 90
       50
102
RTVSPost2010PropOp47
 70
     1
102
RTVSPost2010Prop48
 90
       50
102
RTVSPost2010PropOp48
 70
     1
102
RTVSPost2010Prop49
280
     0
102
RTVSPost2010PropOp49
 70
     1
102
RTVSPost2010Prop50
 90
       50
102
RTVSPost2010PropOp50
 70
     1
102
RTVSPost2010Prop51ColorIndex
 90
      256
102
RTVSPost2010Prop51ColorRGB
 90
-16777216
102
RTVSPost2010PropOp51
 70
     0
102
RTVSPost2010Prop52
140
1.0
102
RTVSPost2010PropOp52
 70
     0
102
RTVSPost2010Prop53
 90
        2
102
RTVSPost2010PropOp53
 70
     1
102
RTVSPost2010Prop54
  1
strokes_ogs.tif
102
RTVSPost2010PropOp54
 70
     1
102
RTVSPost2010Prop55
280
     0
102
RTVSPost2010PropOp55
 70
     1
102
RTVSPost2010Prop56
140
1.0
102
RTVSPost2010PropOp56
 70
     1
102
RTVSPost2010Prop57
140
1.0
102
RTVSPost2010PropOp57
 70
     1
102
RTVSPropertyOp0
 70
     1
102
RTVSPropertyOp1
 70
     1
102
RTVSPropertyOp2
 70
     1
102
RTVSPropertyOp3
 70
     1
102
RTVSPropertyOp4
 70
     1
102
RTVSPropertyOp5
 70
     1
102
RTVSPropertyOp6
 70
     1
102
RTVSPropertyOp7
 70
     1
102
RTVSPropertyOp8
 70
     1
102
RTVSPropertyOp9
 70
     1
102
RTVSPropertyOp10
 70
     1
102
RTVSPropertyOp11
 70
     1
102
RTVSPropertyOp12
 70
     1
102
RTVSPropertyOp13
 70
     1
102
RTVSPropertyOp14
 70
     1
102
RTVSPropertyOp15
 70
     1
102
RTVSPropertyOp16
 70
     1
102
RTVSPropertyOp17
 70
     1
102
RTVSPropertyOp18
 70
     1
102
RTVSPropertyOp19
 70
     1
102
RTVSPropertyOp20
 70
     1
102
RTVSPropertyOp21
 70
     1
102
RTVSPropertyOp22
 70
     1
102
RTVSPropertyOp23
 70
     1
102
RTVSPropertyOp24
 70
     1
102
RTVSPropertyOp25
 70
     1
102
RTVSPropertyOp26
 70
     1
102
RTVSPropertyOp27
 70
     1
102
RTVSPropertyOp28
 70
     1
102
RTVSPropertyOp29
 70
     1
102
RTVSPropertyOp30
 70
     1
102
RTVSPropertyOp31
 70
     1
102
RTVSPropertyOp32
 70
     1
102
RTVSPropertyOp33
 70
     1
102
RTVSPropertyOp34
 70
     1
102
RTVSPropertyOp35
 70
     1
102
RTVSPropertyOp36
 70
     1
102
RTVSPropertyOp37
 70
     1
102
RTVSPropertyOp38
 70
     1
102
RTVSPropertyOp39
 70
     1
102
RTVSPropertyOp40
 70
     1
102
RTVSPropertyOp41
 70
     1
102
RTVSPropertyOp42
 70
     1
102
RTVSPropertyOp43
 70
     1
102
RTVSPropertyOp44
 70
     1
102
RTVSPropertyOp45
 70
     1
102
RTVSPropertyOp46
 70
     1
102
RTVSPropertyOp47
 70
     1
102
RTVSPropertyOp48
 70
     1
102
RTVSPropertyOp49
 70
     1
102
RTVSPropertyOp50
 70
     1
102
RTVSPropertyOp51
 70
     0
102
RTVSPropertyOp52
 70
     0
102
RTVSPropertyOp53
 70
     1
102
RTVSPropertyOp54
 70
     1
102
RTVSPropertyOp55
 70
     1
102
RTVSPropertyOp56
 70
     1
102
RTVSPropertyOp57
 70
     1
102
RTVSPropertyOp58
 70
     1
102
RTVSPropertyOp59
 70
     1
102
RTVSPropertyOp60
 70
     1
102
RTVSPropertyOp61
 70
     1
102
RTVSPropertyOp62
 70
     1
  0
XRECORD
  5
248D
102
{ACAD_REACTORS
330
248C
102
}
330
248C
100
AcDbXrecord
280
     1
102
RTVSPost2010Prop28
280
     0
102
RTVSPost2010PropOp28
 70
     1
102
RTVSPost2010Prop29
280
     1
102
RTVSPost2010PropOp29
 70
     1
102
RTVSPost2010Prop30
280
     1
102
RTVSPost2010PropOp30
 70
     1
102
RTVSPost2010Prop31
280
     0
102
RTVSPost2010PropOp31
 70
     1
102
RTVSPost2010Prop32
280
     0
102
RTVSPost2010PropOp32
 70
     1
102
RTVSPost2010Prop33
280
     0
102
RTVSPost2010PropOp33
 70
     1
102
RTVSPost2010Prop34
280
     0
102
RTVSPost2010PropOp34
 70
     1
102
RTVSPost2010Prop35
280
     0
102
RTVSPost2010PropOp35
 70
     1
102
RTVSPost2010Prop36
280
     0
102
RTVSPost2010PropOp36
 70
     1
102
RTVSPost2010Prop37
 90
       50
102
RTVSPost2010PropOp37
 70
     1
102
RTVSPost2010Prop38
140
0.0
102
RTVSPost2010PropOp38
 70
     1
102
RTVSPost2010Prop39
140
1.0
102
RTVSPost2010PropOp39
 70
     1
102
RTVSPost2010Prop40
 90
        0
102
RTVSPost2010PropOp40
 70
     1
102
RTVSPost2010Prop41ColorIndex
 90
       18
102
RTVSPost2010Prop41ColorRGB
 90
        0
102
RTVSPost2010PropOp41
 70
     1
102
RTVSPost2010Prop42
 90
       50
102
RTVSPost2010PropOp42
 70
     1
102
RTVSPost2010Prop43
 90
        3
102
RTVSPost2010PropOp43
 70
     1
102
RTVSPost2010Prop44ColorIndex
 90
        5
102
RTVSPost2010Prop44ColorRGB
 90
      255
102
RTVSPost2010PropOp44
 70
     1
102
RTVSPost2010Prop45
280
     0
102
RTVSPost2010PropOp45
 70
     1
102
RTVSPost2010Prop46
 90
       50
102
RTVSPost2010PropOp46
 70
     1
102
RTVSPost2010Prop47
 90
       50
102
RTVSPost2010PropOp47
 70
     1
102
RTVSPost2010Prop48
 90
       50
102
RTVSPost2010PropOp48
 70
     1
102
RTVSPost2010Prop49
280
     0
102
RTVSPost2010PropOp49
 70
     1
102
RTVSPost2010Prop50
 90
       50
102
RTVSPost2010PropOp50
 70
     1
102
RTVSPost2010Prop51ColorIndex
 90
      256
102
RTVSPost2010Prop51ColorRGB
 90
-16777216
102
RTVSPost2010PropOp51
 70
     0
102
RTVSPost2010Prop52
140
1.0
102
RTVSPost2010PropOp52
 70
     0
102
RTVSPost2010Prop53
 90
        2
102
RTVSPost2010PropOp53
 70
     1
102
RTVSPost2010Prop54
  1
strokes_ogs.tif
102
RTVSPost2010PropOp54
 70
     1
102
RTVSPost2010Prop55
280
     0
102
RTVSPost2010PropOp55
 70
     1
102
RTVSPost2010Prop56
140
1.0
102
RTVSPost2010PropOp56
 70
     1
102
RTVSPost2010Prop57
140
1.0
102
RTVSPost2010PropOp57
 70
     1
102
RTVSPropertyOp0
 70
     1
102
RTVSPropertyOp1
 70
     1
102
RTVSPropertyOp2
 70
     1
102
RTVSPropertyOp3
 70
     1
102
RTVSPropertyOp4
 70
     1
102
RTVSPropertyOp5
 70
     1
102
RTVSPropertyOp6
 70
     1
102
RTVSPropertyOp7
 70
     1
102
RTVSPropertyOp8
 70
     1
102
RTVSPropertyOp9
 70
     1
102
RTVSPropertyOp10
 70
     1
102
RTVSPropertyOp11
 70
     1
102
RTVSPropertyOp12
 70
     1
102
RTVSPropertyOp13
 70
     1
102
RTVSPropertyOp14
 70
     1
102
RTVSPropertyOp15
 70
     1
102
RTVSPropertyOp16
 70
     1
102
RTVSPropertyOp17
 70
     1
102
RTVSPropertyOp18
 70
     1
102
RTVSPropertyOp19
 70
     1
102
RTVSPropertyOp20
 70
     1
102
RTVSPropertyOp21
 70
     1
102
RTVSPropertyOp22
 70
     1
102
RTVSPropertyOp23
 70
     1
102
RTVSPropertyOp24
 70
     1
102
RTVSPropertyOp25
 70
     1
102
RTVSPropertyOp26
 70
     1
102
RTVSPropertyOp27
 70
     1
102
RTVSPropertyOp28
 70
     1
102
RTVSPropertyOp29
 70
     1
102
RTVSPropertyOp30
 70
     1
102
RTVSPropertyOp31
 70
     1
102
RTVSPropertyOp32
 70
     1
102
RTVSPropertyOp33
 70
     1
102
RTVSPropertyOp34
 70
     1
102
RTVSPropertyOp35
 70
     1
102
RTVSPropertyOp36
 70
     1
102
RTVSPropertyOp37
 70
     1
102
RTVSPropertyOp38
 70
     1
102
RTVSPropertyOp39
 70
     1
102
RTVSPropertyOp40
 70
     1
102
RTVSPropertyOp41
 70
     1
102
RTVSPropertyOp42
 70
     1
102
RTVSPropertyOp43
 70
     1
102
RTVSPropertyOp44
 70
     1
102
RTVSPropertyOp45
 70
     1
102
RTVSPropertyOp46
 70
     1
102
RTVSPropertyOp47
 70
     1
102
RTVSPropertyOp48
 70
     1
102
RTVSPropertyOp49
 70
     1
102
RTVSPropertyOp50
 70
     1
102
RTVSPropertyOp51
 70
     0
102
RTVSPropertyOp52
 70
     0
102
RTVSPropertyOp53
 70
     1
102
RTVSPropertyOp54
 70
     1
102
RTVSPropertyOp55
 70
     1
102
RTVSPropertyOp56
 70
     1
102
RTVSPropertyOp57
 70
     1
102
RTVSPropertyOp58
 70
     1
102
RTVSPropertyOp59
 70
     1
102
RTVSPropertyOp60
 70
     1
102
RTVSPropertyOp61
 70
     1
102
RTVSPropertyOp62
 70
     1
  0
XRECORD
  5
248F
102
{ACAD_REACTORS
330
248E
102
}
330
248E
100
AcDbXrecord
280
     1
102
RTVSPost2010Prop28
280
     0
102
RTVSPost2010PropOp28
 70
     1
102
RTVSPost2010Prop29
280
     1
102
RTVSPost2010PropOp29
 70
     1
102
RTVSPost2010Prop30
280
     1
102
RTVSPost2010PropOp30
 70
     1
102
RTVSPost2010Prop31
280
     0
102
RTVSPost2010PropOp31
 70
     1
102
RTVSPost2010Prop32
280
     0
102
RTVSPost2010PropOp32
 70
     1
102
RTVSPost2010Prop33
280
     0
102
RTVSPost2010PropOp33
 70
     1
102
RTVSPost2010Prop34
280
     0
102
RTVSPost2010PropOp34
 70
     1
102
RTVSPost2010Prop35
280
     0
102
RTVSPost2010PropOp35
 70
     1
102
RTVSPost2010Prop36
280
     0
102
RTVSPost2010PropOp36
 70
     1
102
RTVSPost2010Prop37
 90
       50
102
RTVSPost2010PropOp37
 70
     1
102
RTVSPost2010Prop38
140
0.0
102
RTVSPost2010PropOp38
 70
     1
102
RTVSPost2010Prop39
140
1.0
102
RTVSPost2010PropOp39
 70
     1
102
RTVSPost2010Prop40
 90
        0
102
RTVSPost2010PropOp40
 70
     1
102
RTVSPost2010Prop41ColorIndex
 90
       18
102
RTVSPost2010Prop41ColorRGB
 90
        0
102
RTVSPost2010PropOp41
 70
     1
102
RTVSPost2010Prop42
 90
       50
102
RTVSPost2010PropOp42
 70
     1
102
RTVSPost2010Prop43
 90
        3
102
RTVSPost2010PropOp43
 70
     1
102
RTVSPost2010Prop44ColorIndex
 90
        5
102
RTVSPost2010Prop44ColorRGB
 90
      255
102
RTVSPost2010PropOp44
 70
     1
102
RTVSPost2010Prop45
280
     0
102
RTVSPost2010PropOp45
 70
     1
102
RTVSPost2010Prop46
 90
       50
102
RTVSPost2010PropOp46
 70
     1
102
RTVSPost2010Prop47
 90
       50
102
RTVSPost2010PropOp47
 70
     1
102
RTVSPost2010Prop48
 90
       50
102
RTVSPost2010PropOp48
 70
     1
102
RTVSPost2010Prop49
280
     0
102
RTVSPost2010PropOp49
 70
     1
102
RTVSPost2010Prop50
 90
       50
102
RTVSPost2010PropOp50
 70
     1
102
RTVSPost2010Prop51ColorIndex
 90
      256
102
RTVSPost2010Prop51ColorRGB
 90
-16777216
102
RTVSPost2010PropOp51
 70
     0
102
RTVSPost2010Prop52
140
1.0
102
RTVSPost2010PropOp52
 70
     0
102
RTVSPost2010Prop53
 90
        2
102
RTVSPost2010PropOp53
 70
     1
102
RTVSPost2010Prop54
  1
strokes_ogs.tif
102
RTVSPost2010PropOp54
 70
     1
102
RTVSPost2010Prop55
280
     0
102
RTVSPost2010PropOp55
 70
     1
102
RTVSPost2010Prop56
140
1.0
102
RTVSPost2010PropOp56
 70
     1
102
RTVSPost2010Prop57
140
1.0
102
RTVSPost2010PropOp57
 70
     1
102
RTVSPropertyOp0
 70
     1
102
RTVSPropertyOp1
 70
     1
102
RTVSPropertyOp2
 70
     1
102
RTVSPropertyOp3
 70
     1
102
RTVSPropertyOp4
 70
     1
102
RTVSPropertyOp5
 70
     1
102
RTVSPropertyOp6
 70
     1
102
RTVSPropertyOp7
 70
     1
102
RTVSPropertyOp8
 70
     1
102
RTVSPropertyOp9
 70
     1
102
RTVSPropertyOp10
 70
     1
102
RTVSPropertyOp11
 70
     1
102
RTVSPropertyOp12
 70
     1
102
RTVSPropertyOp13
 70
     1
102
RTVSPropertyOp14
 70
     1
102
RTVSPropertyOp15
 70
     1
102
RTVSPropertyOp16
 70
     1
102
RTVSPropertyOp17
 70
     1
102
RTVSPropertyOp18
 70
     1
102
RTVSPropertyOp19
 70
     1
102
RTVSPropertyOp20
 70
     1
102
RTVSPropertyOp21
 70
     1
102
RTVSPropertyOp22
 70
     1
102
RTVSPropertyOp23
 70
     1
102
RTVSPropertyOp24
 70
     1
102
RTVSPropertyOp25
 70
     1
102
RTVSPropertyOp26
 70
     1
102
RTVSPropertyOp27
 70
     1
102
RTVSPropertyOp28
 70
     1
102
RTVSPropertyOp29
 70
     1
102
RTVSPropertyOp30
 70
     1
102
RTVSPropertyOp31
 70
     1
102
RTVSPropertyOp32
 70
     1
102
RTVSPropertyOp33
 70
     1
102
RTVSPropertyOp34
 70
     1
102
RTVSPropertyOp35
 70
     1
102
RTVSPropertyOp36
 70
     1
102
RTVSPropertyOp37
 70
     1
102
RTVSPropertyOp38
 70
     1
102
RTVSPropertyOp39
 70
     1
102
RTVSPropertyOp40
 70
     1
102
RTVSPropertyOp41
 70
     1
102
RTVSPropertyOp42
 70
     1
102
RTVSPropertyOp43
 70
     1
102
RTVSPropertyOp44
 70
     1
102
RTVSPropertyOp45
 70
     1
102
RTVSPropertyOp46
 70
     1
102
RTVSPropertyOp47
 70
     1
102
RTVSPropertyOp48
 70
     1
102
RTVSPropertyOp49
 70
     1
102
RTVSPropertyOp50
 70
     1
102
RTVSPropertyOp51
 70
     0
102
RTVSPropertyOp52
 70
     0
102
RTVSPropertyOp53
 70
     1
102
RTVSPropertyOp54
 70
     1
102
RTVSPropertyOp55
 70
     1
102
RTVSPropertyOp56
 70
     1
102
RTVSPropertyOp57
 70
     1
102
RTVSPropertyOp58
 70
     1
102
RTVSPropertyOp59
 70
     1
102
RTVSPropertyOp60
 70
     1
102
RTVSPropertyOp61
 70
     1
102
RTVSPropertyOp62
 70
     1
  0
XRECORD
  5
2491
102
{ACAD_REACTORS
330
2490
102
}
330
2490
100
AcDbXrecord
280
     1
102
RTVSPost2010Prop28
280
     0
102
RTVSPost2010PropOp28
 70
     1
102
RTVSPost2010Prop29
280
     1
102
RTVSPost2010PropOp29
 70
     1
102
RTVSPost2010Prop30
280
     1
102
RTVSPost2010PropOp30
 70
     1
102
RTVSPost2010Prop31
280
     0
102
RTVSPost2010PropOp31
 70
     1
102
RTVSPost2010Prop32
280
     0
102
RTVSPost2010PropOp32
 70
     1
102
RTVSPost2010Prop33
280
     0
102
RTVSPost2010PropOp33
 70
     1
102
RTVSPost2010Prop34
280
     0
102
RTVSPost2010PropOp34
 70
     1
102
RTVSPost2010Prop35
280
     0
102
RTVSPost2010PropOp35
 70
     1
102
RTVSPost2010Prop36
280
     0
102
RTVSPost2010PropOp36
 70
     1
102
RTVSPost2010Prop37
 90
       50
102
RTVSPost2010PropOp37
 70
     1
102
RTVSPost2010Prop38
140
0.0
102
RTVSPost2010PropOp38
 70
     1
102
RTVSPost2010Prop39
140
1.0
102
RTVSPost2010PropOp39
 70
     1
102
RTVSPost2010Prop40
 90
        0
102
RTVSPost2010PropOp40
 70
     1
102
RTVSPost2010Prop41ColorIndex
 90
       18
102
RTVSPost2010Prop41ColorRGB
 90
        0
102
RTVSPost2010PropOp41
 70
     1
102
RTVSPost2010Prop42
 90
       50
102
RTVSPost2010PropOp42
 70
     1
102
RTVSPost2010Prop43
 90
        3
102
RTVSPost2010PropOp43
 70
     1
102
RTVSPost2010Prop44ColorIndex
 90
        5
102
RTVSPost2010Prop44ColorRGB
 90
      255
102
RTVSPost2010PropOp44
 70
     1
102
RTVSPost2010Prop45
280
     0
102
RTVSPost2010PropOp45
 70
     1
102
RTVSPost2010Prop46
 90
       50
102
RTVSPost2010PropOp46
 70
     1
102
RTVSPost2010Prop47
 90
       50
102
RTVSPost2010PropOp47
 70
     1
102
RTVSPost2010Prop48
 90
       50
102
RTVSPost2010PropOp48
 70
     1
102
RTVSPost2010Prop49
280
     0
102
RTVSPost2010PropOp49
 70
     1
102
RTVSPost2010Prop50
 90
       50
102
RTVSPost2010PropOp50
 70
     1
102
RTVSPost2010Prop51ColorIndex
 90
      256
102
RTVSPost2010Prop51ColorRGB
 90
-16777216
102
RTVSPost2010PropOp51
 70
     0
102
RTVSPost2010Prop52
140
1.0
102
RTVSPost2010PropOp52
 70
     0
102
RTVSPost2010Prop53
 90
        2
102
RTVSPost2010PropOp53
 70
     1
102
RTVSPost2010Prop54
  1
strokes_ogs.tif
102
RTVSPost2010PropOp54
 70
     1
102
RTVSPost2010Prop55
280
     0
102
RTVSPost2010PropOp55
 70
     1
102
RTVSPost2010Prop56
140
1.0
102
RTVSPost2010PropOp56
 70
     1
102
RTVSPost2010Prop57
140
1.0
102
RTVSPost2010PropOp57
 70
     1
102
RTVSPropertyOp0
 70
     1
102
RTVSPropertyOp1
 70
     1
102
RTVSPropertyOp2
 70
     1
102
RTVSPropertyOp3
 70
     1
102
RTVSPropertyOp4
 70
     1
102
RTVSPropertyOp5
 70
     1
102
RTVSPropertyOp6
 70
     1
102
RTVSPropertyOp7
 70
     1
102
RTVSPropertyOp8
 70
     1
102
RTVSPropertyOp9
 70
     1
102
RTVSPropertyOp10
 70
     1
102
RTVSPropertyOp11
 70
     1
102
RTVSPropertyOp12
 70
     1
102
RTVSPropertyOp13
 70
     1
102
RTVSPropertyOp14
 70
     1
102
RTVSPropertyOp15
 70
     1
102
RTVSPropertyOp16
 70
     1
102
RTVSPropertyOp17
 70
     1
102
RTVSPropertyOp18
 70
     1
102
RTVSPropertyOp19
 70
     1
102
RTVSPropertyOp20
 70
     1
102
RTVSPropertyOp21
 70
     1
102
RTVSPropertyOp22
 70
     1
102
RTVSPropertyOp23
 70
     1
102
RTVSPropertyOp24
 70
     1
102
RTVSPropertyOp25
 70
     1
102
RTVSPropertyOp26
 70
     1
102
RTVSPropertyOp27
 70
     1
102
RTVSPropertyOp28
 70
     1
102
RTVSPropertyOp29
 70
     1
102
RTVSPropertyOp30
 70
     1
102
RTVSPropertyOp31
 70
     1
102
RTVSPropertyOp32
 70
     1
102
RTVSPropertyOp33
 70
     1
102
RTVSPropertyOp34
 70
     1
102
RTVSPropertyOp35
 70
     1
102
RTVSPropertyOp36
 70
     1
102
RTVSPropertyOp37
 70
     1
102
RTVSPropertyOp38
 70
     1
102
RTVSPropertyOp39
 70
     1
102
RTVSPropertyOp40
 70
     1
102
RTVSPropertyOp41
 70
     1
102
RTVSPropertyOp42
 70
     1
102
RTVSPropertyOp43
 70
     1
102
RTVSPropertyOp44
 70
     1
102
RTVSPropertyOp45
 70
     1
102
RTVSPropertyOp46
 70
     1
102
RTVSPropertyOp47
 70
     1
102
RTVSPropertyOp48
 70
     1
102
RTVSPropertyOp49
 70
     1
102
RTVSPropertyOp50
 70
     1
102
RTVSPropertyOp51
 70
     0
102
RTVSPropertyOp52
 70
     0
102
RTVSPropertyOp53
 70
     1
102
RTVSPropertyOp54
 70
     1
102
RTVSPropertyOp55
 70
     1
102
RTVSPropertyOp56
 70
     1
102
RTVSPropertyOp57
 70
     1
102
RTVSPropertyOp58
 70
     1
102
RTVSPropertyOp59
 70
     1
102
RTVSPropertyOp60
 70
     1
102
RTVSPropertyOp61
 70
     1
102
RTVSPropertyOp62
 70
     1
  0
XRECORD
  5
2493
102
{ACAD_REACTORS
330
2492
102
}
330
2492
100
AcDbXrecord
280
     1
102
RTVSPost2010Prop28
280
     0
102
RTVSPost2010PropOp28
 70
     1
102
RTVSPost2010Prop29
280
     1
102
RTVSPost2010PropOp29
 70
     1
102
RTVSPost2010Prop30
280
     1
102
RTVSPost2010PropOp30
 70
     1
102
RTVSPost2010Prop31
280
     0
102
RTVSPost2010PropOp31
 70
     1
102
RTVSPost2010Prop32
280
     0
102
RTVSPost2010PropOp32
 70
     1
102
RTVSPost2010Prop33
280
     0
102
RTVSPost2010PropOp33
 70
     1
102
RTVSPost2010Prop34
280
     0
102
RTVSPost2010PropOp34
 70
     1
102
RTVSPost2010Prop35
280
     0
102
RTVSPost2010PropOp35
 70
     1
102
RTVSPost2010Prop36
280
     0
102
RTVSPost2010PropOp36
 70
     1
102
RTVSPost2010Prop37
 90
       50
102
RTVSPost2010PropOp37
 70
     1
102
RTVSPost2010Prop38
140
0.0
102
RTVSPost2010PropOp38
 70
     1
102
RTVSPost2010Prop39
140
1.0
102
RTVSPost2010PropOp39
 70
     1
102
RTVSPost2010Prop40
 90
        0
102
RTVSPost2010PropOp40
 70
     1
102
RTVSPost2010Prop41ColorIndex
 90
       18
102
RTVSPost2010Prop41ColorRGB
 90
        0
102
RTVSPost2010PropOp41
 70
     1
102
RTVSPost2010Prop42
 90
       50
102
RTVSPost2010PropOp42
 70
     1
102
RTVSPost2010Prop43
 90
        3
102
RTVSPost2010PropOp43
 70
     1
102
RTVSPost2010Prop44ColorIndex
 90
        5
102
RTVSPost2010Prop44ColorRGB
 90
      255
102
RTVSPost2010PropOp44
 70
     1
102
RTVSPost2010Prop45
280
     0
102
RTVSPost2010PropOp45
 70
     1
102
RTVSPost2010Prop46
 90
       50
102
RTVSPost2010PropOp46
 70
     1
102
RTVSPost2010Prop47
 90
       50
102
RTVSPost2010PropOp47
 70
     1
102
RTVSPost2010Prop48
 90
       50
102
RTVSPost2010PropOp48
 70
     1
102
RTVSPost2010Prop49
280
     0
102
RTVSPost2010PropOp49
 70
     1
102
RTVSPost2010Prop50
 90
       50
102
RTVSPost2010PropOp50
 70
     1
102
RTVSPost2010Prop51ColorIndex
 90
      256
102
RTVSPost2010Prop51ColorRGB
 90
-16777216
102
RTVSPost2010PropOp51
 70
     0
102
RTVSPost2010Prop52
140
1.0
102
RTVSPost2010PropOp52
 70
     0
102
RTVSPost2010Prop53
 90
        2
102
RTVSPost2010PropOp53
 70
     1
102
RTVSPost2010Prop54
  1
strokes_ogs.tif
102
RTVSPost2010PropOp54
 70
     1
102
RTVSPost2010Prop55
280
     0
102
RTVSPost2010PropOp55
 70
     1
102
RTVSPost2010Prop56
140
1.0
102
RTVSPost2010PropOp56
 70
     1
102
RTVSPost2010Prop57
140
1.0
102
RTVSPost2010PropOp57
 70
     1
102
RTVSPropertyOp0
 70
     1
102
RTVSPropertyOp1
 70
     1
102
RTVSPropertyOp2
 70
     1
102
RTVSPropertyOp3
 70
     1
102
RTVSPropertyOp4
 70
     1
102
RTVSPropertyOp5
 70
     1
102
RTVSPropertyOp6
 70
     1
102
RTVSPropertyOp7
 70
     1
102
RTVSPropertyOp8
 70
     1
102
RTVSPropertyOp9
 70
     1
102
RTVSPropertyOp10
 70
     1
102
RTVSPropertyOp11
 70
     1
102
RTVSPropertyOp12
 70
     1
102
RTVSPropertyOp13
 70
     1
102
RTVSPropertyOp14
 70
     1
102
RTVSPropertyOp15
 70
     1
102
RTVSPropertyOp16
 70
     1
102
RTVSPropertyOp17
 70
     1
102
RTVSPropertyOp18
 70
     1
102
RTVSPropertyOp19
 70
     1
102
RTVSPropertyOp20
 70
     1
102
RTVSPropertyOp21
 70
     1
102
RTVSPropertyOp22
 70
     1
102
RTVSPropertyOp23
 70
     1
102
RTVSPropertyOp24
 70
     1
102
RTVSPropertyOp25
 70
     1
102
RTVSPropertyOp26
 70
     1
102
RTVSPropertyOp27
 70
     1
102
RTVSPropertyOp28
 70
     1
102
RTVSPropertyOp29
 70
     1
102
RTVSPropertyOp30
 70
     1
102
RTVSPropertyOp31
 70
     1
102
RTVSPropertyOp32
 70
     1
102
RTVSPropertyOp33
 70
     1
102
RTVSPropertyOp34
 70
     1
102
RTVSPropertyOp35
 70
     1
102
RTVSPropertyOp36
 70
     1
102
RTVSPropertyOp37
 70
     1
102
RTVSPropertyOp38
 70
     1
102
RTVSPropertyOp39
 70
     1
102
RTVSPropertyOp40
 70
     1
102
RTVSPropertyOp41
 70
     1
102
RTVSPropertyOp42
 70
     1
102
RTVSPropertyOp43
 70
     1
102
RTVSPropertyOp44
 70
     1
102
RTVSPropertyOp45
 70
     1
102
RTVSPropertyOp46
 70
     1
102
RTVSPropertyOp47
 70
     1
102
RTVSPropertyOp48
 70
     1
102
RTVSPropertyOp49
 70
     1
102
RTVSPropertyOp50
 70
     1
102
RTVSPropertyOp51
 70
     0
102
RTVSPropertyOp52
 70
     0
102
RTVSPropertyOp53
 70
     1
102
RTVSPropertyOp54
 70
     1
102
RTVSPropertyOp55
 70
     1
102
RTVSPropertyOp56
 70
     1
102
RTVSPropertyOp57
 70
     1
102
RTVSPropertyOp58
 70
     1
102
RTVSPropertyOp59
 70
     1
102
RTVSPropertyOp60
 70
     1
102
RTVSPropertyOp61
 70
     1
102
RTVSPropertyOp62
 70
     1
  0
XRECORD
  5
249B
102
{ACAD_REACTORS
330
249A
102
}
330
249A
100
AcDbXrecord
280
     1
102
RTVSPost2010Prop28
280
     0
102
RTVSPost2010PropOp28
 70
     1
102
RTVSPost2010Prop29
280
     1
102
RTVSPost2010PropOp29
 70
     1
102
RTVSPost2010Prop30
280
     1
102
RTVSPost2010PropOp30
 70
     1
102
RTVSPost2010Prop31
280
     0
102
RTVSPost2010PropOp31
 70
     1
102
RTVSPost2010Prop32
280
     0
102
RTVSPost2010PropOp32
 70
     1
102
RTVSPost2010Prop33
280
     0
102
RTVSPost2010PropOp33
 70
     1
102
RTVSPost2010Prop34
280
     0
102
RTVSPost2010PropOp34
 70
     1
102
RTVSPost2010Prop35
280
     0
102
RTVSPost2010PropOp35
 70
     1
102
RTVSPost2010Prop36
280
     0
102
RTVSPost2010PropOp36
 70
     1
102
RTVSPost2010Prop37
 90
       50
102
RTVSPost2010PropOp37
 70
     1
102
RTVSPost2010Prop38
140
0.0
102
RTVSPost2010PropOp38
 70
     1
102
RTVSPost2010Prop39
140
1.0
102
RTVSPost2010PropOp39
 70
     1
102
RTVSPost2010Prop40
 90
        0
102
RTVSPost2010PropOp40
 70
     1
102
RTVSPost2010Prop41ColorIndex
 90
       18
102
RTVSPost2010Prop41ColorRGB
 90
        0
102
RTVSPost2010PropOp41
 70
     1
102
RTVSPost2010Prop42
 90
       50
102
RTVSPost2010PropOp42
 70
     1
102
RTVSPost2010Prop43
 90
        3
102
RTVSPost2010PropOp43
 70
     1
102
RTVSPost2010Prop44ColorIndex
 90
        5
102
RTVSPost2010Prop44ColorRGB
 90
      255
102
RTVSPost2010PropOp44
 70
     1
102
RTVSPost2010Prop45
280
     0
102
RTVSPost2010PropOp45
 70
     1
102
RTVSPost2010Prop46
 90
       50
102
RTVSPost2010PropOp46
 70
     1
102
RTVSPost2010Prop47
 90
       50
102
RTVSPost2010PropOp47
 70
     1
102
RTVSPost2010Prop48
 90
       50
102
RTVSPost2010PropOp48
 70
     1
102
RTVSPost2010Prop49
280
     0
102
RTVSPost2010PropOp49
 70
     1
102
RTVSPost2010Prop50
 90
       50
102
RTVSPost2010PropOp50
 70
     1
102
RTVSPost2010Prop51ColorIndex
 90
      256
102
RTVSPost2010Prop51ColorRGB
 90
-16777216
102
RTVSPost2010PropOp51
 70
     0
102
RTVSPost2010Prop52
140
1.0
102
RTVSPost2010PropOp52
 70
     0
102
RTVSPost2010Prop53
 90
        2
102
RTVSPost2010PropOp53
 70
     1
102
RTVSPost2010Prop54
  1
strokes_ogs.tif
102
RTVSPost2010PropOp54
 70
     1
102
RTVSPost2010Prop55
280
     0
102
RTVSPost2010PropOp55
 70
     1
102
RTVSPost2010Prop56
140
1.0
102
RTVSPost2010PropOp56
 70
     1
102
RTVSPost2010Prop57
140
1.0
102
RTVSPost2010PropOp57
 70
     1
102
RTVSPropertyOp0
 70
     1
102
RTVSPropertyOp1
 70
     1
102
RTVSPropertyOp2
 70
     1
102
RTVSPropertyOp3
 70
     1
102
RTVSPropertyOp4
 70
     1
102
RTVSPropertyOp5
 70
     1
102
RTVSPropertyOp6
 70
     1
102
RTVSPropertyOp7
 70
     1
102
RTVSPropertyOp8
 70
     1
102
RTVSPropertyOp9
 70
     1
102
RTVSPropertyOp10
 70
     1
102
RTVSPropertyOp11
 70
     1
102
RTVSPropertyOp12
 70
     1
102
RTVSPropertyOp13
 70
     1
102
RTVSPropertyOp14
 70
     1
102
RTVSPropertyOp15
 70
     1
102
RTVSPropertyOp16
 70
     1
102
RTVSPropertyOp17
 70
     1
102
RTVSPropertyOp18
 70
     1
102
RTVSPropertyOp19
 70
     1
102
RTVSPropertyOp20
 70
     1
102
RTVSPropertyOp21
 70
     1
102
RTVSPropertyOp22
 70
     1
102
RTVSPropertyOp23
 70
     1
102
RTVSPropertyOp24
 70
     1
102
RTVSPropertyOp25
 70
     1
102
RTVSPropertyOp26
 70
     1
102
RTVSPropertyOp27
 70
     1
102
RTVSPropertyOp28
 70
     1
102
RTVSPropertyOp29
 70
     1
102
RTVSPropertyOp30
 70
     1
102
RTVSPropertyOp31
 70
     1
102
RTVSPropertyOp32
 70
     1
102
RTVSPropertyOp33
 70
     1
102
RTVSPropertyOp34
 70
     1
102
RTVSPropertyOp35
 70
     1
102
RTVSPropertyOp36
 70
     1
102
RTVSPropertyOp37
 70
     1
102
RTVSPropertyOp38
 70
     1
102
RTVSPropertyOp39
 70
     1
102
RTVSPropertyOp40
 70
     1
102
RTVSPropertyOp41
 70
     1
102
RTVSPropertyOp42
 70
     1
102
RTVSPropertyOp43
 70
     1
102
RTVSPropertyOp44
 70
     1
102
RTVSPropertyOp45
 70
     1
102
RTVSPropertyOp46
 70
     1
102
RTVSPropertyOp47
 70
     1
102
RTVSPropertyOp48
 70
     1
102
RTVSPropertyOp49
 70
     1
102
RTVSPropertyOp50
 70
     1
102
RTVSPropertyOp51
 70
     0
102
RTVSPropertyOp52
 70
     0
102
RTVSPropertyOp53
 70
     1
102
RTVSPropertyOp54
 70
     1
102
RTVSPropertyOp55
 70
     1
102
RTVSPropertyOp56
 70
     1
102
RTVSPropertyOp57
 70
     1
102
RTVSPropertyOp58
 70
     1
102
RTVSPropertyOp59
 70
     1
102
RTVSPropertyOp60
 70
     1
102
RTVSPropertyOp61
 70
     1
102
RTVSPropertyOp62
 70
     1
  0
XRECORD
  5
24AF
102
{ACAD_REACTORS
330
24AE
102
}
330
24AE
100
AcDbXrecord
280
     1
102
RTVSPost2010Prop28
280
     0
102
RTVSPost2010PropOp28
 70
     1
102
RTVSPost2010Prop29
280
     1
102
RTVSPost2010PropOp29
 70
     1
102
RTVSPost2010Prop30
280
     1
102
RTVSPost2010PropOp30
 70
     1
102
RTVSPost2010Prop31
280
     0
102
RTVSPost2010PropOp31
 70
     1
102
RTVSPost2010Prop32
280
     0
102
RTVSPost2010PropOp32
 70
     1
102
RTVSPost2010Prop33
280
     0
102
RTVSPost2010PropOp33
 70
     1
102
RTVSPost2010Prop34
280
     0
102
RTVSPost2010PropOp34
 70
     1
102
RTVSPost2010Prop35
280
     0
102
RTVSPost2010PropOp35
 70
     1
102
RTVSPost2010Prop36
280
     0
102
RTVSPost2010PropOp36
 70
     1
102
RTVSPost2010Prop37
 90
       50
102
RTVSPost2010PropOp37
 70
     1
102
RTVSPost2010Prop38
140
0.0
102
RTVSPost2010PropOp38
 70
     1
102
RTVSPost2010Prop39
140
1.0
102
RTVSPost2010PropOp39
 70
     1
102
RTVSPost2010Prop40
 90
        0
102
RTVSPost2010PropOp40
 70
     1
102
RTVSPost2010Prop41ColorIndex
 90
       18
102
RTVSPost2010Prop41ColorRGB
 90
        0
102
RTVSPost2010PropOp41
 70
     1
102
RTVSPost2010Prop42
 90
       50
102
RTVSPost2010PropOp42
 70
     1
102
RTVSPost2010Prop43
 90
        3
102
RTVSPost2010PropOp43
 70
     1
102
RTVSPost2010Prop44ColorIndex
 90
        5
102
RTVSPost2010Prop44ColorRGB
 90
      255
102
RTVSPost2010PropOp44
 70
     1
102
RTVSPost2010Prop45
280
     0
102
RTVSPost2010PropOp45
 70
     1
102
RTVSPost2010Prop46
 90
       50
102
RTVSPost2010PropOp46
 70
     1
102
RTVSPost2010Prop47
 90
       50
102
RTVSPost2010PropOp47
 70
     1
102
RTVSPost2010Prop48
 90
       50
102
RTVSPost2010PropOp48
 70
     1
102
RTVSPost2010Prop49
280
     0
102
RTVSPost2010PropOp49
 70
     1
102
RTVSPost2010Prop50
 90
       50
102
RTVSPost2010PropOp50
 70
     1
102
RTVSPost2010Prop51ColorIndex
 90
      256
102
RTVSPost2010Prop51ColorRGB
 90
-16777216
102
RTVSPost2010PropOp51
 70
     0
102
RTVSPost2010Prop52
140
1.0
102
RTVSPost2010PropOp52
 70
     0
102
RTVSPost2010Prop53
 90
        2
102
RTVSPost2010PropOp53
 70
     1
102
RTVSPost2010Prop54
  1
strokes_ogs.tif
102
RTVSPost2010PropOp54
 70
     1
102
RTVSPost2010Prop55
280
     0
102
RTVSPost2010PropOp55
 70
     1
102
RTVSPost2010Prop56
140
1.0
102
RTVSPost2010PropOp56
 70
     1
102
RTVSPost2010Prop57
140
1.0
102
RTVSPost2010PropOp57
 70
     1
102
RTVSPropertyOp0
 70
     0
102
RTVSPropertyOp1
 70
     0
102
RTVSPropertyOp2
 70
     0
102
RTVSPropertyOp3
 70
     0
102
RTVSPropertyOp4
 70
     0
102
RTVSPropertyOp5
 70
     0
102
RTVSPropertyOp6
 70
     0
102
RTVSPropertyOp7
 70
     0
102
RTVSPropertyOp8
 70
     0
102
RTVSPropertyOp9
 70
     0
102
RTVSPropertyOp10
 70
     0
102
RTVSPropertyOp11
 70
     0
102
RTVSPropertyOp12
 70
     0
102
RTVSPropertyOp13
 70
     0
102
RTVSPropertyOp14
 70
     2
102
RTVSPropertyOp15
 70
     0
102
RTVSPropertyOp16
 70
     0
102
RTVSPropertyOp17
 70
     0
102
RTVSPropertyOp18
 70
     0
102
RTVSPropertyOp19
 70
     0
102
RTVSPropertyOp20
 70
     0
102
RTVSPropertyOp21
 70
     0
102
RTVSPropertyOp22
 70
     0
102
RTVSPropertyOp23
 70
     0
102
RTVSPropertyOp24
 70
     0
102
RTVSPropertyOp25
 70
     0
102
RTVSPropertyOp26
 70
     0
102
RTVSPropertyOp27
 70
     0
102
RTVSPropertyOp28
 70
     1
102
RTVSPropertyOp29
 70
     1
102
RTVSPropertyOp30
 70
     1
102
RTVSPropertyOp31
 70
     1
102
RTVSPropertyOp32
 70
     1
102
RTVSPropertyOp33
 70
     1
102
RTVSPropertyOp34
 70
     1
102
RTVSPropertyOp35
 70
     1
102
RTVSPropertyOp36
 70
     1
102
RTVSPropertyOp37
 70
     1
102
RTVSPropertyOp38
 70
     1
102
RTVSPropertyOp39
 70
     1
102
RTVSPropertyOp40
 70
     1
102
RTVSPropertyOp41
 70
     1
102
RTVSPropertyOp42
 70
     1
102
RTVSPropertyOp43
 70
     1
102
RTVSPropertyOp44
 70
     1
102
RTVSPropertyOp45
 70
     1
102
RTVSPropertyOp46
 70
     1
102
RTVSPropertyOp47
 70
     1
102
RTVSPropertyOp48
 70
     1
102
RTVSPropertyOp49
 70
     1
102
RTVSPropertyOp50
 70
     1
102
RTVSPropertyOp51
 70
     0
102
RTVSPropertyOp52
 70
     0
102
RTVSPropertyOp53
 70
     1
102
RTVSPropertyOp54
 70
     1
102
RTVSPropertyOp55
 70
     1
102
RTVSPropertyOp56
 70
     1
102
RTVSPropertyOp57
 70
     1
102
RTVSPropertyOp58
 70
     1
102
RTVSPropertyOp59
 70
     1
102
RTVSPropertyOp60
 70
     1
102
RTVSPropertyOp61
 70
     1
102
RTVSPropertyOp62
 70
     1
  0
XRECORD
  5
24A7
102
{ACAD_REACTORS
330
24A6
102
}
330
24A6
100
AcDbXrecord
280
     1
102
RTVSPost2010Prop28
280
     0
102
RTVSPost2010PropOp28
 70
     1
102
RTVSPost2010Prop29
280
     1
102
RTVSPost2010PropOp29
 70
     1
102
RTVSPost2010Prop30
280
     1
102
RTVSPost2010PropOp30
 70
     1
102
RTVSPost2010Prop31
280
     0
102
RTVSPost2010PropOp31
 70
     1
102
RTVSPost2010Prop32
280
     0
102
RTVSPost2010PropOp32
 70
     1
102
RTVSPost2010Prop33
280
     0
102
RTVSPost2010PropOp33
 70
     1
102
RTVSPost2010Prop34
280
     0
102
RTVSPost2010PropOp34
 70
     1
102
RTVSPost2010Prop35
280
     0
102
RTVSPost2010PropOp35
 70
     1
102
RTVSPost2010Prop36
280
     0
102
RTVSPost2010PropOp36
 70
     1
102
RTVSPost2010Prop37
 90
       50
102
RTVSPost2010PropOp37
 70
     1
102
RTVSPost2010Prop38
140
0.0
102
RTVSPost2010PropOp38
 70
     1
102
RTVSPost2010Prop39
140
1.0
102
RTVSPost2010PropOp39
 70
     1
102
RTVSPost2010Prop40
 90
        0
102
RTVSPost2010PropOp40
 70
     1
102
RTVSPost2010Prop41ColorIndex
 90
       18
102
RTVSPost2010Prop41ColorRGB
 90
        0
102
RTVSPost2010PropOp41
 70
     1
102
RTVSPost2010Prop42
 90
       50
102
RTVSPost2010PropOp42
 70
     1
102
RTVSPost2010Prop43
 90
        3
102
RTVSPost2010PropOp43
 70
     1
102
RTVSPost2010Prop44ColorIndex
 90
        5
102
RTVSPost2010Prop44ColorRGB
 90
      255
102
RTVSPost2010PropOp44
 70
     1
102
RTVSPost2010Prop45
280
     0
102
RTVSPost2010PropOp45
 70
     1
102
RTVSPost2010Prop46
 90
       50
102
RTVSPost2010PropOp46
 70
     1
102
RTVSPost2010Prop47
 90
       50
102
RTVSPost2010PropOp47
 70
     1
102
RTVSPost2010Prop48
 90
       50
102
RTVSPost2010PropOp48
 70
     1
102
RTVSPost2010Prop49
280
     0
102
RTVSPost2010PropOp49
 70
     1
102
RTVSPost2010Prop50
 90
       50
102
RTVSPost2010PropOp50
 70
     1
102
RTVSPost2010Prop51ColorIndex
 90
      256
102
RTVSPost2010Prop51ColorRGB
 90
-16777216
102
RTVSPost2010PropOp51
 70
     0
102
RTVSPost2010Prop52
140
1.0
102
RTVSPost2010PropOp52
 70
     0
102
RTVSPost2010Prop53
 90
        2
102
RTVSPost2010PropOp53
 70
     1
102
RTVSPost2010Prop54
  1
strokes_ogs.tif
102
RTVSPost2010PropOp54
 70
     1
102
RTVSPost2010Prop55
280
     0
102
RTVSPost2010PropOp55
 70
     1
102
RTVSPost2010Prop56
140
1.0
102
RTVSPost2010PropOp56
 70
     1
102
RTVSPost2010Prop57
140
1.0
102
RTVSPost2010PropOp57
 70
     1
102
RTVSPropertyOp0
 70
     1
102
RTVSPropertyOp1
 70
     1
102
RTVSPropertyOp2
 70
     1
102
RTVSPropertyOp3
 70
     1
102
RTVSPropertyOp4
 70
     1
102
RTVSPropertyOp5
 70
     1
102
RTVSPropertyOp6
 70
     1
102
RTVSPropertyOp7
 70
     1
102
RTVSPropertyOp8
 70
     1
102
RTVSPropertyOp9
 70
     1
102
RTVSPropertyOp10
 70
     1
102
RTVSPropertyOp11
 70
     1
102
RTVSPropertyOp12
 70
     1
102
RTVSPropertyOp13
 70
     1
102
RTVSPropertyOp14
 70
     1
102
RTVSPropertyOp15
 70
     1
102
RTVSPropertyOp16
 70
     1
102
RTVSPropertyOp17
 70
     1
102
RTVSPropertyOp18
 70
     1
102
RTVSPropertyOp19
 70
     1
102
RTVSPropertyOp20
 70
     1
102
RTVSPropertyOp21
 70
     1
102
RTVSPropertyOp22
 70
     1
102
RTVSPropertyOp23
 70
     1
102
RTVSPropertyOp24
 70
     1
102
RTVSPropertyOp25
 70
     1
102
RTVSPropertyOp26
 70
     1
102
RTVSPropertyOp27
 70
     1
102
RTVSPropertyOp28
 70
     1
102
RTVSPropertyOp29
 70
     1
102
RTVSPropertyOp30
 70
     1
102
RTVSPropertyOp31
 70
     1
102
RTVSPropertyOp32
 70
     1
102
RTVSPropertyOp33
 70
     1
102
RTVSPropertyOp34
 70
     1
102
RTVSPropertyOp35
 70
     1
102
RTVSPropertyOp36
 70
     1
102
RTVSPropertyOp37
 70
     1
102
RTVSPropertyOp38
 70
     1
102
RTVSPropertyOp39
 70
     1
102
RTVSPropertyOp40
 70
     1
102
RTVSPropertyOp41
 70
     1
102
RTVSPropertyOp42
 70
     1
102
RTVSPropertyOp43
 70
     1
102
RTVSPropertyOp44
 70
     1
102
RTVSPropertyOp45
 70
     1
102
RTVSPropertyOp46
 70
     1
102
RTVSPropertyOp47
 70
     1
102
RTVSPropertyOp48
 70
     1
102
RTVSPropertyOp49
 70
     1
102
RTVSPropertyOp50
 70
     1
102
RTVSPropertyOp51
 70
     0
102
RTVSPropertyOp52
 70
     0
102
RTVSPropertyOp53
 70
     1
102
RTVSPropertyOp54
 70
     1
102
RTVSPropertyOp55
 70
     1
102
RTVSPropertyOp56
 70
     1
102
RTVSPropertyOp57
 70
     1
102
RTVSPropertyOp58
 70
     1
102
RTVSPropertyOp59
 70
     1
102
RTVSPropertyOp60
 70
     1
102
RTVSPropertyOp61
 70
     1
102
RTVSPropertyOp62
 70
     1
  0
XRECORD
  5
24B1
102
{ACAD_REACTORS
330
24B0
102
}
330
24B0
100
AcDbXrecord
280
     1
102
RTVSPost2010Prop28
280
     0
102
RTVSPost2010PropOp28
 70
     1
102
RTVSPost2010Prop29
280
     1
102
RTVSPost2010PropOp29
 70
     1
102
RTVSPost2010Prop30
280
     1
102
RTVSPost2010PropOp30
 70
     1
102
RTVSPost2010Prop31
280
     0
102
RTVSPost2010PropOp31
 70
     1
102
RTVSPost2010Prop32
280
     0
102
RTVSPost2010PropOp32
 70
     1
102
RTVSPost2010Prop33
280
     0
102
RTVSPost2010PropOp33
 70
     1
102
RTVSPost2010Prop34
280
     0
102
RTVSPost2010PropOp34
 70
     1
102
RTVSPost2010Prop35
280
     0
102
RTVSPost2010PropOp35
 70
     1
102
RTVSPost2010Prop36
280
     0
102
RTVSPost2010PropOp36
 70
     1
102
RTVSPost2010Prop37
 90
       50
102
RTVSPost2010PropOp37
 70
     1
102
RTVSPost2010Prop38
140
0.0
102
RTVSPost2010PropOp38
 70
     1
102
RTVSPost2010Prop39
140
1.0
102
RTVSPost2010PropOp39
 70
     1
102
RTVSPost2010Prop40
 90
        0
102
RTVSPost2010PropOp40
 70
     1
102
RTVSPost2010Prop41ColorIndex
 90
       18
102
RTVSPost2010Prop41ColorRGB
 90
        0
102
RTVSPost2010PropOp41
 70
     1
102
RTVSPost2010Prop42
 90
       50
102
RTVSPost2010PropOp42
 70
     1
102
RTVSPost2010Prop43
 90
        3
102
RTVSPost2010PropOp43
 70
     1
102
RTVSPost2010Prop44ColorIndex
 90
        5
102
RTVSPost2010Prop44ColorRGB
 90
      255
102
RTVSPost2010PropOp44
 70
     1
102
RTVSPost2010Prop45
280
     0
102
RTVSPost2010PropOp45
 70
     1
102
RTVSPost2010Prop46
 90
       50
102
RTVSPost2010PropOp46
 70
     1
102
RTVSPost2010Prop47
 90
       50
102
RTVSPost2010PropOp47
 70
     1
102
RTVSPost2010Prop48
 90
       50
102
RTVSPost2010PropOp48
 70
     1
102
RTVSPost2010Prop49
280
     0
102
RTVSPost2010PropOp49
 70
     1
102
RTVSPost2010Prop50
 90
       50
102
RTVSPost2010PropOp50
 70
     1
102
RTVSPost2010Prop51ColorIndex
 90
      256
102
RTVSPost2010Prop51ColorRGB
 90
-16777216
102
RTVSPost2010PropOp51
 70
     0
102
RTVSPost2010Prop52
140
1.0
102
RTVSPost2010PropOp52
 70
     0
102
RTVSPost2010Prop53
 90
        2
102
RTVSPost2010PropOp53
 70
     1
102
RTVSPost2010Prop54
  1
strokes_ogs.tif
102
RTVSPost2010PropOp54
 70
     1
102
RTVSPost2010Prop55
280
     0
102
RTVSPost2010PropOp55
 70
     1
102
RTVSPost2010Prop56
140
1.0
102
RTVSPost2010PropOp56
 70
     1
102
RTVSPost2010Prop57
140
1.0
102
RTVSPost2010PropOp57
 70
     1
102
RTVSPropertyOp0
 70
     0
102
RTVSPropertyOp1
 70
     0
102
RTVSPropertyOp2
 70
     0
102
RTVSPropertyOp3
 70
     0
102
RTVSPropertyOp4
 70
     0
102
RTVSPropertyOp5
 70
     0
102
RTVSPropertyOp6
 70
     0
102
RTVSPropertyOp7
 70
     0
102
RTVSPropertyOp8
 70
     0
102
RTVSPropertyOp9
 70
     0
102
RTVSPropertyOp10
 70
     0
102
RTVSPropertyOp11
 70
     0
102
RTVSPropertyOp12
 70
     0
102
RTVSPropertyOp13
 70
     0
102
RTVSPropertyOp14
 70
     2
102
RTVSPropertyOp15
 70
     0
102
RTVSPropertyOp16
 70
     0
102
RTVSPropertyOp17
 70
     0
102
RTVSPropertyOp18
 70
     0
102
RTVSPropertyOp19
 70
     0
102
RTVSPropertyOp20
 70
     0
102
RTVSPropertyOp21
 70
     0
102
RTVSPropertyOp22
 70
     0
102
RTVSPropertyOp23
 70
     0
102
RTVSPropertyOp24
 70
     0
102
RTVSPropertyOp25
 70
     0
102
RTVSPropertyOp26
 70
     0
102
RTVSPropertyOp27
 70
     0
102
RTVSPropertyOp28
 70
     1
102
RTVSPropertyOp29
 70
     1
102
RTVSPropertyOp30
 70
     1
102
RTVSPropertyOp31
 70
     1
102
RTVSPropertyOp32
 70
     1
102
RTVSPropertyOp33
 70
     1
102
RTVSPropertyOp34
 70
     1
102
RTVSPropertyOp35
 70
     1
102
RTVSPropertyOp36
 70
     1
102
RTVSPropertyOp37
 70
     1
102
RTVSPropertyOp38
 70
     1
102
RTVSPropertyOp39
 70
     1
102
RTVSPropertyOp40
 70
     1
102
RTVSPropertyOp41
 70
     1
102
RTVSPropertyOp42
 70
     1
102
RTVSPropertyOp43
 70
     1
102
RTVSPropertyOp44
 70
     1
102
RTVSPropertyOp45
 70
     1
102
RTVSPropertyOp46
 70
     1
102
RTVSPropertyOp47
 70
     1
102
RTVSPropertyOp48
 70
     1
102
RTVSPropertyOp49
 70
     1
102
RTVSPropertyOp50
 70
     1
102
RTVSPropertyOp51
 70
     0
102
RTVSPropertyOp52
 70
     0
102
RTVSPropertyOp53
 70
     1
102
RTVSPropertyOp54
 70
     1
102
RTVSPropertyOp55
 70
     1
102
RTVSPropertyOp56
 70
     1
102
RTVSPropertyOp57
 70
     1
102
RTVSPropertyOp58
 70
     1
102
RTVSPropertyOp59
 70
     1
102
RTVSPropertyOp60
 70
     1
102
RTVSPropertyOp61
 70
     1
102
RTVSPropertyOp62
 70
     1
  0
XRECORD
  5
249F
102
{ACAD_REACTORS
330
249E
102
}
330
249E
100
AcDbXrecord
280
     1
102
RTVSPost2010Prop28
280
     0
102
RTVSPost2010PropOp28
 70
     1
102
RTVSPost2010Prop29
280
     1
102
RTVSPost2010PropOp29
 70
     1
102
RTVSPost2010Prop30
280
     1
102
RTVSPost2010PropOp30
 70
     1
102
RTVSPost2010Prop31
280
     0
102
RTVSPost2010PropOp31
 70
     1
102
RTVSPost2010Prop32
280
     0
102
RTVSPost2010PropOp32
 70
     1
102
RTVSPost2010Prop33
280
     0
102
RTVSPost2010PropOp33
 70
     1
102
RTVSPost2010Prop34
280
     0
102
RTVSPost2010PropOp34
 70
     1
102
RTVSPost2010Prop35
280
     0
102
RTVSPost2010PropOp35
 70
     1
102
RTVSPost2010Prop36
280
     0
102
RTVSPost2010PropOp36
 70
     1
102
RTVSPost2010Prop37
 90
       50
102
RTVSPost2010PropOp37
 70
     1
102
RTVSPost2010Prop38
140
0.0
102
RTVSPost2010PropOp38
 70
     1
102
RTVSPost2010Prop39
140
1.0
102
RTVSPost2010PropOp39
 70
     1
102
RTVSPost2010Prop40
 90
        0
102
RTVSPost2010PropOp40
 70
     1
102
RTVSPost2010Prop41ColorIndex
 90
       18
102
RTVSPost2010Prop41ColorRGB
 90
        0
102
RTVSPost2010PropOp41
 70
     1
102
RTVSPost2010Prop42
 90
       50
102
RTVSPost2010PropOp42
 70
     1
102
RTVSPost2010Prop43
 90
        3
102
RTVSPost2010PropOp43
 70
     1
102
RTVSPost2010Prop44ColorIndex
 90
        5
102
RTVSPost2010Prop44ColorRGB
 90
      255
102
RTVSPost2010PropOp44
 70
     1
102
RTVSPost2010Prop45
280
     0
102
RTVSPost2010PropOp45
 70
     1
102
RTVSPost2010Prop46
 90
       50
102
RTVSPost2010PropOp46
 70
     1
102
RTVSPost2010Prop47
 90
       50
102
RTVSPost2010PropOp47
 70
     1
102
RTVSPost2010Prop48
 90
       50
102
RTVSPost2010PropOp48
 70
     1
102
RTVSPost2010Prop49
280
     0
102
RTVSPost2010PropOp49
 70
     1
102
RTVSPost2010Prop50
 90
       50
102
RTVSPost2010PropOp50
 70
     1
102
RTVSPost2010Prop51ColorIndex
 90
      256
102
RTVSPost2010Prop51ColorRGB
 90
-16777216
102
RTVSPost2010PropOp51
 70
     0
102
RTVSPost2010Prop52
140
1.0
102
RTVSPost2010PropOp52
 70
     0
102
RTVSPost2010Prop53
 90
        2
102
RTVSPost2010PropOp53
 70
     1
102
RTVSPost2010Prop54
  1
strokes_ogs.tif
102
RTVSPost2010PropOp54
 70
     1
102
RTVSPost2010Prop55
280
     0
102
RTVSPost2010PropOp55
 70
     1
102
RTVSPost2010Prop56
140
1.0
102
RTVSPost2010PropOp56
 70
     1
102
RTVSPost2010Prop57
140
1.0
102
RTVSPost2010PropOp57
 70
     1
102
RTVSPropertyOp0
 70
     1
102
RTVSPropertyOp1
 70
     1
102
RTVSPropertyOp2
 70
     1
102
RTVSPropertyOp3
 70
     1
102
RTVSPropertyOp4
 70
     1
102
RTVSPropertyOp5
 70
     1
102
RTVSPropertyOp6
 70
     1
102
RTVSPropertyOp7
 70
     1
102
RTVSPropertyOp8
 70
     1
102
RTVSPropertyOp9
 70
     1
102
RTVSPropertyOp10
 70
     1
102
RTVSPropertyOp11
 70
     1
102
RTVSPropertyOp12
 70
     1
102
RTVSPropertyOp13
 70
     1
102
RTVSPropertyOp14
 70
     1
102
RTVSPropertyOp15
 70
     1
102
RTVSPropertyOp16
 70
     1
102
RTVSPropertyOp17
 70
     1
102
RTVSPropertyOp18
 70
     1
102
RTVSPropertyOp19
 70
     1
102
RTVSPropertyOp20
 70
     1
102
RTVSPropertyOp21
 70
     1
102
RTVSPropertyOp22
 70
     1
102
RTVSPropertyOp23
 70
     1
102
RTVSPropertyOp24
 70
     1
102
RTVSPropertyOp25
 70
     1
102
RTVSPropertyOp26
 70
     1
102
RTVSPropertyOp27
 70
     1
102
RTVSPropertyOp28
 70
     1
102
RTVSPropertyOp29
 70
     1
102
RTVSPropertyOp30
 70
     1
102
RTVSPropertyOp31
 70
     1
102
RTVSPropertyOp32
 70
     1
102
RTVSPropertyOp33
 70
     1
102
RTVSPropertyOp34
 70
     1
102
RTVSPropertyOp35
 70
     1
102
RTVSPropertyOp36
 70
     1
102
RTVSPropertyOp37
 70
     1
102
RTVSPropertyOp38
 70
     1
102
RTVSPropertyOp39
 70
     1
102
RTVSPropertyOp40
 70
     1
102
RTVSPropertyOp41
 70
     1
102
RTVSPropertyOp42
 70
     1
102
RTVSPropertyOp43
 70
     1
102
RTVSPropertyOp44
 70
     1
102
RTVSPropertyOp45
 70
     1
102
RTVSPropertyOp46
 70
     1
102
RTVSPropertyOp47
 70
     1
102
RTVSPropertyOp48
 70
     1
102
RTVSPropertyOp49
 70
     1
102
RTVSPropertyOp50
 70
     1
102
RTVSPropertyOp51
 70
     0
102
RTVSPropertyOp52
 70
     0
102
RTVSPropertyOp53
 70
     1
102
RTVSPropertyOp54
 70
     1
102
RTVSPropertyOp55
 70
     1
102
RTVSPropertyOp56
 70
     1
102
RTVSPropertyOp57
 70
     1
102
RTVSPropertyOp58
 70
     1
102
RTVSPropertyOp59
 70
     1
102
RTVSPropertyOp60
 70
     1
102
RTVSPropertyOp61
 70
     1
102
RTVSPropertyOp62
 70
     1
  0
XRECORD
  5
24BD
102
{ACAD_REACTORS
330
24BC
102
}
330
24BC
100
AcDbXrecord
280
     1
102
RTVSPost2010Prop28
280
     0
102
RTVSPost2010PropOp28
 70
     1
102
RTVSPost2010Prop29
280
     1
102
RTVSPost2010PropOp29
 70
     1
102
RTVSPost2010Prop30
280
     1
102
RTVSPost2010PropOp30
 70
     1
102
RTVSPost2010Prop31
280
     0
102
RTVSPost2010PropOp31
 70
     1
102
RTVSPost2010Prop32
280
     0
102
RTVSPost2010PropOp32
 70
     1
102
RTVSPost2010Prop33
280
     0
102
RTVSPost2010PropOp33
 70
     1
102
RTVSPost2010Prop34
280
     0
102
RTVSPost2010PropOp34
 70
     1
102
RTVSPost2010Prop35
280
     0
102
RTVSPost2010PropOp35
 70
     1
102
RTVSPost2010Prop36
280
     0
102
RTVSPost2010PropOp36
 70
     1
102
RTVSPost2010Prop37
 90
       50
102
RTVSPost2010PropOp37
 70
     1
102
RTVSPost2010Prop38
140
0.0
102
RTVSPost2010PropOp38
 70
     1
102
RTVSPost2010Prop39
140
1.0
102
RTVSPost2010PropOp39
 70
     1
102
RTVSPost2010Prop40
 90
        0
102
RTVSPost2010PropOp40
 70
     1
102
RTVSPost2010Prop41ColorIndex
 90
       18
102
RTVSPost2010Prop41ColorRGB
 90
        0
102
RTVSPost2010PropOp41
 70
     1
102
RTVSPost2010Prop42
 90
       50
102
RTVSPost2010PropOp42
 70
     1
102
RTVSPost2010Prop43
 90
        3
102
RTVSPost2010PropOp43
 70
     1
102
RTVSPost2010Prop44ColorIndex
 90
        5
102
RTVSPost2010Prop44ColorRGB
 90
      255
102
RTVSPost2010PropOp44
 70
     1
102
RTVSPost2010Prop45
280
     0
102
RTVSPost2010PropOp45
 70
     1
102
RTVSPost2010Prop46
 90
       50
102
RTVSPost2010PropOp46
 70
     1
102
RTVSPost2010Prop47
 90
       50
102
RTVSPost2010PropOp47
 70
     1
102
RTVSPost2010Prop48
 90
       50
102
RTVSPost2010PropOp48
 70
     1
102
RTVSPost2010Prop49
280
     0
102
RTVSPost2010PropOp49
 70
     1
102
RTVSPost2010Prop50
 90
       50
102
RTVSPost2010PropOp50
 70
     1
102
RTVSPost2010Prop51ColorIndex
 90
      256
102
RTVSPost2010Prop51ColorRGB
 90
-16777216
102
RTVSPost2010PropOp51
 70
     0
102
RTVSPost2010Prop52
140
1.0
102
RTVSPost2010PropOp52
 70
     0
102
RTVSPost2010Prop53
 90
        2
102
RTVSPost2010PropOp53
 70
     1
102
RTVSPost2010Prop54
  1
strokes_ogs.tif
102
RTVSPost2010PropOp54
 70
     1
102
RTVSPost2010Prop55
280
     0
102
RTVSPost2010PropOp55
 70
     1
102
RTVSPost2010Prop56
140
1.0
102
RTVSPost2010PropOp56
 70
     1
102
RTVSPost2010Prop57
140
1.0
102
RTVSPost2010PropOp57
 70
     1
102
RTVSPropertyOp0
 70
     1
102
RTVSPropertyOp1
 70
     1
102
RTVSPropertyOp2
 70
     1
102
RTVSPropertyOp3
 70
     1
102
RTVSPropertyOp4
 70
     1
102
RTVSPropertyOp5
 70
     1
102
RTVSPropertyOp6
 70
     1
102
RTVSPropertyOp7
 70
     1
102
RTVSPropertyOp8
 70
     1
102
RTVSPropertyOp9
 70
     1
102
RTVSPropertyOp10
 70
     1
102
RTVSPropertyOp11
 70
     1
102
RTVSPropertyOp12
 70
     1
102
RTVSPropertyOp13
 70
     1
102
RTVSPropertyOp14
 70
     1
102
RTVSPropertyOp15
 70
     1
102
RTVSPropertyOp16
 70
     1
102
RTVSPropertyOp17
 70
     1
102
RTVSPropertyOp18
 70
     1
102
RTVSPropertyOp19
 70
     1
102
RTVSPropertyOp20
 70
     1
102
RTVSPropertyOp21
 70
     1
102
RTVSPropertyOp22
 70
     1
102
RTVSPropertyOp23
 70
     1
102
RTVSPropertyOp24
 70
     1
102
RTVSPropertyOp25
 70
     1
102
RTVSPropertyOp26
 70
     1
102
RTVSPropertyOp27
 70
     1
102
RTVSPropertyOp28
 70
     1
102
RTVSPropertyOp29
 70
     1
102
RTVSPropertyOp30
 70
     1
102
RTVSPropertyOp31
 70
     1
102
RTVSPropertyOp32
 70
     1
102
RTVSPropertyOp33
 70
     1
102
RTVSPropertyOp34
 70
     1
102
RTVSPropertyOp35
 70
     1
102
RTVSPropertyOp36
 70
     1
102
RTVSPropertyOp37
 70
     1
102
RTVSPropertyOp38
 70
     1
102
RTVSPropertyOp39
 70
     1
102
RTVSPropertyOp40
 70
     1
102
RTVSPropertyOp41
 70
     1
102
RTVSPropertyOp42
 70
     1
102
RTVSPropertyOp43
 70
     1
102
RTVSPropertyOp44
 70
     1
102
RTVSPropertyOp45
 70
     1
102
RTVSPropertyOp46
 70
     1
102
RTVSPropertyOp47
 70
     1
102
RTVSPropertyOp48
 70
     1
102
RTVSPropertyOp49
 70
     1
102
RTVSPropertyOp50
 70
     1
102
RTVSPropertyOp51
 70
     0
102
RTVSPropertyOp52
 70
     0
102
RTVSPropertyOp53
 70
     1
102
RTVSPropertyOp54
 70
     1
102
RTVSPropertyOp55
 70
     1
102
RTVSPropertyOp56
 70
     1
102
RTVSPropertyOp57
 70
     1
102
RTVSPropertyOp58
 70
     1
102
RTVSPropertyOp59
 70
     1
102
RTVSPropertyOp60
 70
     1
102
RTVSPropertyOp61
 70
     1
102
RTVSPropertyOp62
 70
     1
  0
XRECORD
  5
24BB
102
{ACAD_REACTORS
330
24BA
102
}
330
24BA
100
AcDbXrecord
280
     1
102
RTVSPost2010Prop28
280
     0
102
RTVSPost2010PropOp28
 70
     1
102
RTVSPost2010Prop29
280
     1
102
RTVSPost2010PropOp29
 70
     1
102
RTVSPost2010Prop30
280
     1
102
RTVSPost2010PropOp30
 70
     1
102
RTVSPost2010Prop31
280
     0
102
RTVSPost2010PropOp31
 70
     1
102
RTVSPost2010Prop32
280
     0
102
RTVSPost2010PropOp32
 70
     1
102
RTVSPost2010Prop33
280
     0
102
RTVSPost2010PropOp33
 70
     1
102
RTVSPost2010Prop34
280
     0
102
RTVSPost2010PropOp34
 70
     1
102
RTVSPost2010Prop35
280
     0
102
RTVSPost2010PropOp35
 70
     1
102
RTVSPost2010Prop36
280
     0
102
RTVSPost2010PropOp36
 70
     1
102
RTVSPost2010Prop37
 90
       50
102
RTVSPost2010PropOp37
 70
     1
102
RTVSPost2010Prop38
140
0.0
102
RTVSPost2010PropOp38
 70
     1
102
RTVSPost2010Prop39
140
1.0
102
RTVSPost2010PropOp39
 70
     1
102
RTVSPost2010Prop40
 90
        0
102
RTVSPost2010PropOp40
 70
     1
102
RTVSPost2010Prop41ColorIndex
 90
       18
102
RTVSPost2010Prop41ColorRGB
 90
        0
102
RTVSPost2010PropOp41
 70
     1
102
RTVSPost2010Prop42
 90
       50
102
RTVSPost2010PropOp42
 70
     1
102
RTVSPost2010Prop43
 90
        3
102
RTVSPost2010PropOp43
 70
     1
102
RTVSPost2010Prop44ColorIndex
 90
        5
102
RTVSPost2010Prop44ColorRGB
 90
      255
102
RTVSPost2010PropOp44
 70
     1
102
RTVSPost2010Prop45
280
     0
102
RTVSPost2010PropOp45
 70
     1
102
RTVSPost2010Prop46
 90
       50
102
RTVSPost2010PropOp46
 70
     1
102
RTVSPost2010Prop47
 90
       50
102
RTVSPost2010PropOp47
 70
     1
102
RTVSPost2010Prop48
 90
       50
102
RTVSPost2010PropOp48
 70
     1
102
RTVSPost2010Prop49
280
     0
102
RTVSPost2010PropOp49
 70
     1
102
RTVSPost2010Prop50
 90
       50
102
RTVSPost2010PropOp50
 70
     1
102
RTVSPost2010Prop51ColorIndex
 90
      256
102
RTVSPost2010Prop51ColorRGB
 90
-16777216
102
RTVSPost2010PropOp51
 70
     0
102
RTVSPost2010Prop52
140
1.0
102
RTVSPost2010PropOp52
 70
     0
102
RTVSPost2010Prop53
 90
        2
102
RTVSPost2010PropOp53
 70
     1
102
RTVSPost2010Prop54
  1
strokes_ogs.tif
102
RTVSPost2010PropOp54
 70
     1
102
RTVSPost2010Prop55
280
     0
102
RTVSPost2010PropOp55
 70
     1
102
RTVSPost2010Prop56
140
1.0
102
RTVSPost2010PropOp56
 70
     1
102
RTVSPost2010Prop57
140
1.0
102
RTVSPost2010PropOp57
 70
     1
102
RTVSPropertyOp0
 70
     1
102
RTVSPropertyOp1
 70
     1
102
RTVSPropertyOp2
 70
     1
102
RTVSPropertyOp3
 70
     1
102
RTVSPropertyOp4
 70
     1
102
RTVSPropertyOp5
 70
     1
102
RTVSPropertyOp6
 70
     1
102
RTVSPropertyOp7
 70
     1
102
RTVSPropertyOp8
 70
     1
102
RTVSPropertyOp9
 70
     1
102
RTVSPropertyOp10
 70
     1
102
RTVSPropertyOp11
 70
     1
102
RTVSPropertyOp12
 70
     1
102
RTVSPropertyOp13
 70
     1
102
RTVSPropertyOp14
 70
     1
102
RTVSPropertyOp15
 70
     1
102
RTVSPropertyOp16
 70
     1
102
RTVSPropertyOp17
 70
     1
102
RTVSPropertyOp18
 70
     1
102
RTVSPropertyOp19
 70
     1
102
RTVSPropertyOp20
 70
     1
102
RTVSPropertyOp21
 70
     1
102
RTVSPropertyOp22
 70
     1
102
RTVSPropertyOp23
 70
     1
102
RTVSPropertyOp24
 70
     1
102
RTVSPropertyOp25
 70
     1
102
RTVSPropertyOp26
 70
     1
102
RTVSPropertyOp27
 70
     1
102
RTVSPropertyOp28
 70
     1
102
RTVSPropertyOp29
 70
     1
102
RTVSPropertyOp30
 70
     1
102
RTVSPropertyOp31
 70
     1
102
RTVSPropertyOp32
 70
     1
102
RTVSPropertyOp33
 70
     1
102
RTVSPropertyOp34
 70
     1
102
RTVSPropertyOp35
 70
     1
102
RTVSPropertyOp36
 70
     1
102
RTVSPropertyOp37
 70
     1
102
RTVSPropertyOp38
 70
     1
102
RTVSPropertyOp39
 70
     1
102
RTVSPropertyOp40
 70
     1
102
RTVSPropertyOp41
 70
     1
102
RTVSPropertyOp42
 70
     1
102
RTVSPropertyOp43
 70
     1
102
RTVSPropertyOp44
 70
     1
102
RTVSPropertyOp45
 70
     1
102
RTVSPropertyOp46
 70
     1
102
RTVSPropertyOp47
 70
     1
102
RTVSPropertyOp48
 70
     1
102
RTVSPropertyOp49
 70
     1
102
RTVSPropertyOp50
 70
     1
102
RTVSPropertyOp51
 70
     0
102
RTVSPropertyOp52
 70
     0
102
RTVSPropertyOp53
 70
     1
102
RTVSPropertyOp54
 70
     1
102
RTVSPropertyOp55
 70
     1
102
RTVSPropertyOp56
 70
     1
102
RTVSPropertyOp57
 70
     1
102
RTVSPropertyOp58
 70
     1
102
RTVSPropertyOp59
 70
     1
102
RTVSPropertyOp60
 70
     1
102
RTVSPropertyOp61
 70
     1
102
RTVSPropertyOp62
 70
     1
  0
XRECORD
  5
24B5
102
{ACAD_REACTORS
330
24B4
102
}
330
24B4
100
AcDbXrecord
280
     1
102
RTVSPost2010Prop28
280
     0
102
RTVSPost2010PropOp28
 70
     1
102
RTVSPost2010Prop29
280
     1
102
RTVSPost2010PropOp29
 70
     1
102
RTVSPost2010Prop30
280
     1
102
RTVSPost2010PropOp30
 70
     1
102
RTVSPost2010Prop31
280
     0
102
RTVSPost2010PropOp31
 70
     1
102
RTVSPost2010Prop32
280
     0
102
RTVSPost2010PropOp32
 70
     1
102
RTVSPost2010Prop33
280
     0
102
RTVSPost2010PropOp33
 70
     1
102
RTVSPost2010Prop34
280
     0
102
RTVSPost2010PropOp34
 70
     1
102
RTVSPost2010Prop35
280
     0
102
RTVSPost2010PropOp35
 70
     1
102
RTVSPost2010Prop36
280
     0
102
RTVSPost2010PropOp36
 70
     1
102
RTVSPost2010Prop37
 90
       50
102
RTVSPost2010PropOp37
 70
     1
102
RTVSPost2010Prop38
140
0.0
102
RTVSPost2010PropOp38
 70
     1
102
RTVSPost2010Prop39
140
1.0
102
RTVSPost2010PropOp39
 70
     1
102
RTVSPost2010Prop40
 90
        0
102
RTVSPost2010PropOp40
 70
     1
102
RTVSPost2010Prop41ColorIndex
 90
       18
102
RTVSPost2010Prop41ColorRGB
 90
        0
102
RTVSPost2010PropOp41
 70
     1
102
RTVSPost2010Prop42
 90
       50
102
RTVSPost2010PropOp42
 70
     1
102
RTVSPost2010Prop43
 90
        3
102
RTVSPost2010PropOp43
 70
     1
102
RTVSPost2010Prop44ColorIndex
 90
        5
102
RTVSPost2010Prop44ColorRGB
 90
      255
102
RTVSPost2010PropOp44
 70
     1
102
RTVSPost2010Prop45
280
     0
102
RTVSPost2010PropOp45
 70
     1
102
RTVSPost2010Prop46
 90
       50
102
RTVSPost2010PropOp46
 70
     1
102
RTVSPost2010Prop47
 90
       50
102
RTVSPost2010PropOp47
 70
     1
102
RTVSPost2010Prop48
 90
       50
102
RTVSPost2010PropOp48
 70
     1
102
RTVSPost2010Prop49
280
     0
102
RTVSPost2010PropOp49
 70
     1
102
RTVSPost2010Prop50
 90
       50
102
RTVSPost2010PropOp50
 70
     1
102
RTVSPost2010Prop51ColorIndex
 90
      256
102
RTVSPost2010Prop51ColorRGB
 90
-16777216
102
RTVSPost2010PropOp51
 70
     0
102
RTVSPost2010Prop52
140
1.0
102
RTVSPost2010PropOp52
 70
     0
102
RTVSPost2010Prop53
 90
        2
102
RTVSPost2010PropOp53
 70
     1
102
RTVSPost2010Prop54
  1
strokes_ogs.tif
102
RTVSPost2010PropOp54
 70
     1
102
RTVSPost2010Prop55
280
     0
102
RTVSPost2010PropOp55
 70
     1
102
RTVSPost2010Prop56
140
1.0
102
RTVSPost2010PropOp56
 70
     1
102
RTVSPost2010Prop57
140
1.0
102
RTVSPost2010PropOp57
 70
     1
102
RTVSPropertyOp0
 70
     1
102
RTVSPropertyOp1
 70
     1
102
RTVSPropertyOp2
 70
     1
102
RTVSPropertyOp3
 70
     1
102
RTVSPropertyOp4
 70
     1
102
RTVSPropertyOp5
 70
     1
102
RTVSPropertyOp6
 70
     1
102
RTVSPropertyOp7
 70
     1
102
RTVSPropertyOp8
 70
     1
102
RTVSPropertyOp9
 70
     1
102
RTVSPropertyOp10
 70
     1
102
RTVSPropertyOp11
 70
     1
102
RTVSPropertyOp12
 70
     1
102
RTVSPropertyOp13
 70
     1
102
RTVSPropertyOp14
 70
     1
102
RTVSPropertyOp15
 70
     1
102
RTVSPropertyOp16
 70
     1
102
RTVSPropertyOp17
 70
     1
102
RTVSPropertyOp18
 70
     1
102
RTVSPropertyOp19
 70
     1
102
RTVSPropertyOp20
 70
     1
102
RTVSPropertyOp21
 70
     1
102
RTVSPropertyOp22
 70
     1
102
RTVSPropertyOp23
 70
     1
102
RTVSPropertyOp24
 70
     1
102
RTVSPropertyOp25
 70
     1
102
RTVSPropertyOp26
 70
     1
102
RTVSPropertyOp27
 70
     1
102
RTVSPropertyOp28
 70
     1
102
RTVSPropertyOp29
 70
     1
102
RTVSPropertyOp30
 70
     1
102
RTVSPropertyOp31
 70
     1
102
RTVSPropertyOp32
 70
     1
102
RTVSPropertyOp33
 70
     1
102
RTVSPropertyOp34
 70
     1
102
RTVSPropertyOp35
 70
     1
102
RTVSPropertyOp36
 70
     1
102
RTVSPropertyOp37
 70
     1
102
RTVSPropertyOp38
 70
     1
102
RTVSPropertyOp39
 70
     1
102
RTVSPropertyOp40
 70
     1
102
RTVSPropertyOp41
 70
     1
102
RTVSPropertyOp42
 70
     1
102
RTVSPropertyOp43
 70
     1
102
RTVSPropertyOp44
 70
     1
102
RTVSPropertyOp45
 70
     1
102
RTVSPropertyOp46
 70
     1
102
RTVSPropertyOp47
 70
     1
102
RTVSPropertyOp48
 70
     1
102
RTVSPropertyOp49
 70
     1
102
RTVSPropertyOp50
 70
     1
102
RTVSPropertyOp51
 70
     0
102
RTVSPropertyOp52
 70
     0
102
RTVSPropertyOp53
 70
     1
102
RTVSPropertyOp54
 70
     1
102
RTVSPropertyOp55
 70
     1
102
RTVSPropertyOp56
 70
     1
102
RTVSPropertyOp57
 70
     1
102
RTVSPropertyOp58
 70
     1
102
RTVSPropertyOp59
 70
     1
102
RTVSPropertyOp60
 70
     1
102
RTVSPropertyOp61
 70
     1
102
RTVSPropertyOp62
 70
     1
  0
XRECORD
  5
24B7
102
{ACAD_REACTORS
330
24B6
102
}
330
24B6
100
AcDbXrecord
280
     1
102
RTVSPost2010Prop28
280
     0
102
RTVSPost2010PropOp28
 70
     1
102
RTVSPost2010Prop29
280
     1
102
RTVSPost2010PropOp29
 70
     1
102
RTVSPost2010Prop30
280
     1
102
RTVSPost2010PropOp30
 70
     1
102
RTVSPost2010Prop31
280
     0
102
RTVSPost2010PropOp31
 70
     1
102
RTVSPost2010Prop32
280
     0
102
RTVSPost2010PropOp32
 70
     1
102
RTVSPost2010Prop33
280
     0
102
RTVSPost2010PropOp33
 70
     1
102
RTVSPost2010Prop34
280
     0
102
RTVSPost2010PropOp34
 70
     1
102
RTVSPost2010Prop35
280
     0
102
RTVSPost2010PropOp35
 70
     1
102
RTVSPost2010Prop36
280
     0
102
RTVSPost2010PropOp36
 70
     1
102
RTVSPost2010Prop37
 90
       50
102
RTVSPost2010PropOp37
 70
     1
102
RTVSPost2010Prop38
140
0.0
102
RTVSPost2010PropOp38
 70
     1
102
RTVSPost2010Prop39
140
1.0
102
RTVSPost2010PropOp39
 70
     1
102
RTVSPost2010Prop40
 90
        0
102
RTVSPost2010PropOp40
 70
     1
102
RTVSPost2010Prop41ColorIndex
 90
       18
102
RTVSPost2010Prop41ColorRGB
 90
        0
102
RTVSPost2010PropOp41
 70
     1
102
RTVSPost2010Prop42
 90
       50
102
RTVSPost2010PropOp42
 70
     1
102
RTVSPost2010Prop43
 90
        3
102
RTVSPost2010PropOp43
 70
     1
102
RTVSPost2010Prop44ColorIndex
 90
        5
102
RTVSPost2010Prop44ColorRGB
 90
      255
102
RTVSPost2010PropOp44
 70
     1
102
RTVSPost2010Prop45
280
     0
102
RTVSPost2010PropOp45
 70
     1
102
RTVSPost2010Prop46
 90
       50
102
RTVSPost2010PropOp46
 70
     1
102
RTVSPost2010Prop47
 90
       50
102
RTVSPost2010PropOp47
 70
     1
102
RTVSPost2010Prop48
 90
       50
102
RTVSPost2010PropOp48
 70
     1
102
RTVSPost2010Prop49
280
     0
102
RTVSPost2010PropOp49
 70
     1
102
RTVSPost2010Prop50
 90
       50
102
RTVSPost2010PropOp50
 70
     1
102
RTVSPost2010Prop51ColorIndex
 90
      256
102
RTVSPost2010Prop51ColorRGB
 90
-16777216
102
RTVSPost2010PropOp51
 70
     0
102
RTVSPost2010Prop52
140
1.0
102
RTVSPost2010PropOp52
 70
     0
102
RTVSPost2010Prop53
 90
        2
102
RTVSPost2010PropOp53
 70
     1
102
RTVSPost2010Prop54
  1
strokes_ogs.tif
102
RTVSPost2010PropOp54
 70
     1
102
RTVSPost2010Prop55
280
     0
102
RTVSPost2010PropOp55
 70
     1
102
RTVSPost2010Prop56
140
1.0
102
RTVSPost2010PropOp56
 70
     1
102
RTVSPost2010Prop57
140
1.0
102
RTVSPost2010PropOp57
 70
     1
102
RTVSPropertyOp0
 70
     1
102
RTVSPropertyOp1
 70
     1
102
RTVSPropertyOp2
 70
     1
102
RTVSPropertyOp3
 70
     1
102
RTVSPropertyOp4
 70
     1
102
RTVSPropertyOp5
 70
     1
102
RTVSPropertyOp6
 70
     1
102
RTVSPropertyOp7
 70
     1
102
RTVSPropertyOp8
 70
     1
102
RTVSPropertyOp9
 70
     1
102
RTVSPropertyOp10
 70
     1
102
RTVSPropertyOp11
 70
     1
102
RTVSPropertyOp12
 70
     1
102
RTVSPropertyOp13
 70
     1
102
RTVSPropertyOp14
 70
     1
102
RTVSPropertyOp15
 70
     1
102
RTVSPropertyOp16
 70
     1
102
RTVSPropertyOp17
 70
     1
102
RTVSPropertyOp18
 70
     1
102
RTVSPropertyOp19
 70
     1
102
RTVSPropertyOp20
 70
     1
102
RTVSPropertyOp21
 70
     1
102
RTVSPropertyOp22
 70
     1
102
RTVSPropertyOp23
 70
     1
102
RTVSPropertyOp24
 70
     1
102
RTVSPropertyOp25
 70
     1
102
RTVSPropertyOp26
 70
     1
102
RTVSPropertyOp27
 70
     1
102
RTVSPropertyOp28
 70
     1
102
RTVSPropertyOp29
 70
     1
102
RTVSPropertyOp30
 70
     1
102
RTVSPropertyOp31
 70
     1
102
RTVSPropertyOp32
 70
     1
102
RTVSPropertyOp33
 70
     1
102
RTVSPropertyOp34
 70
     1
102
RTVSPropertyOp35
 70
     1
102
RTVSPropertyOp36
 70
     1
102
RTVSPropertyOp37
 70
     1
102
RTVSPropertyOp38
 70
     1
102
RTVSPropertyOp39
 70
     1
102
RTVSPropertyOp40
 70
     1
102
RTVSPropertyOp41
 70
     1
102
RTVSPropertyOp42
 70
     1
102
RTVSPropertyOp43
 70
     1
102
RTVSPropertyOp44
 70
     1
102
RTVSPropertyOp45
 70
     1
102
RTVSPropertyOp46
 70
     1
102
RTVSPropertyOp47
 70
     1
102
RTVSPropertyOp48
 70
     1
102
RTVSPropertyOp49
 70
     1
102
RTVSPropertyOp50
 70
     1
102
RTVSPropertyOp51
 70
     0
102
RTVSPropertyOp52
 70
     0
102
RTVSPropertyOp53
 70
     1
102
RTVSPropertyOp54
 70
     1
102
RTVSPropertyOp55
 70
     1
102
RTVSPropertyOp56
 70
     1
102
RTVSPropertyOp57
 70
     1
102
RTVSPropertyOp58
 70
     1
102
RTVSPropertyOp59
 70
     1
102
RTVSPropertyOp60
 70
     1
102
RTVSPropertyOp61
 70
     1
102
RTVSPropertyOp62
 70
     1
  0
XRECORD
  5
24A5
102
{ACAD_REACTORS
330
24A4
102
}
330
24A4
100
AcDbXrecord
280
     1
102
RTVSPost2010Prop28
280
     0
102
RTVSPost2010PropOp28
 70
     1
102
RTVSPost2010Prop29
280
     1
102
RTVSPost2010PropOp29
 70
     1
102
RTVSPost2010Prop30
280
     1
102
RTVSPost2010PropOp30
 70
     1
102
RTVSPost2010Prop31
280
     0
102
RTVSPost2010PropOp31
 70
     1
102
RTVSPost2010Prop32
280
     0
102
RTVSPost2010PropOp32
 70
     1
102
RTVSPost2010Prop33
280
     0
102
RTVSPost2010PropOp33
 70
     1
102
RTVSPost2010Prop34
280
     0
102
RTVSPost2010PropOp34
 70
     1
102
RTVSPost2010Prop35
280
     0
102
RTVSPost2010PropOp35
 70
     1
102
RTVSPost2010Prop36
280
     0
102
RTVSPost2010PropOp36
 70
     1
102
RTVSPost2010Prop37
 90
       50
102
RTVSPost2010PropOp37
 70
     1
102
RTVSPost2010Prop38
140
0.0
102
RTVSPost2010PropOp38
 70
     1
102
RTVSPost2010Prop39
140
1.0
102
RTVSPost2010PropOp39
 70
     1
102
RTVSPost2010Prop40
 90
        0
102
RTVSPost2010PropOp40
 70
     1
102
RTVSPost2010Prop41ColorIndex
 90
       18
102
RTVSPost2010Prop41ColorRGB
 90
        0
102
RTVSPost2010PropOp41
 70
     1
102
RTVSPost2010Prop42
 90
       50
102
RTVSPost2010PropOp42
 70
     1
102
RTVSPost2010Prop43
 90
        3
102
RTVSPost2010PropOp43
 70
     1
102
RTVSPost2010Prop44ColorIndex
 90
        5
102
RTVSPost2010Prop44ColorRGB
 90
      255
102
RTVSPost2010PropOp44
 70
     1
102
RTVSPost2010Prop45
280
     0
102
RTVSPost2010PropOp45
 70
     1
102
RTVSPost2010Prop46
 90
       50
102
RTVSPost2010PropOp46
 70
     1
102
RTVSPost2010Prop47
 90
       50
102
RTVSPost2010PropOp47
 70
     1
102
RTVSPost2010Prop48
 90
       50
102
RTVSPost2010PropOp48
 70
     1
102
RTVSPost2010Prop49
280
     0
102
RTVSPost2010PropOp49
 70
     1
102
RTVSPost2010Prop50
 90
       50
102
RTVSPost2010PropOp50
 70
     1
102
RTVSPost2010Prop51ColorIndex
 90
      256
102
RTVSPost2010Prop51ColorRGB
 90
-16777216
102
RTVSPost2010PropOp51
 70
     0
102
RTVSPost2010Prop52
140
1.0
102
RTVSPost2010PropOp52
 70
     0
102
RTVSPost2010Prop53
 90
        2
102
RTVSPost2010PropOp53
 70
     1
102
RTVSPost2010Prop54
  1
strokes_ogs.tif
102
RTVSPost2010PropOp54
 70
     1
102
RTVSPost2010Prop55
280
     0
102
RTVSPost2010PropOp55
 70
     1
102
RTVSPost2010Prop56
140
1.0
102
RTVSPost2010PropOp56
 70
     1
102
RTVSPost2010Prop57
140
1.0
102
RTVSPost2010PropOp57
 70
     1
102
RTVSPropertyOp0
 70
     1
102
RTVSPropertyOp1
 70
     1
102
RTVSPropertyOp2
 70
     1
102
RTVSPropertyOp3
 70
     1
102
RTVSPropertyOp4
 70
     1
102
RTVSPropertyOp5
 70
     1
102
RTVSPropertyOp6
 70
     1
102
RTVSPropertyOp7
 70
     1
102
RTVSPropertyOp8
 70
     1
102
RTVSPropertyOp9
 70
     1
102
RTVSPropertyOp10
 70
     1
102
RTVSPropertyOp11
 70
     1
102
RTVSPropertyOp12
 70
     1
102
RTVSPropertyOp13
 70
     1
102
RTVSPropertyOp14
 70
     1
102
RTVSPropertyOp15
 70
     1
102
RTVSPropertyOp16
 70
     1
102
RTVSPropertyOp17
 70
     1
102
RTVSPropertyOp18
 70
     1
102
RTVSPropertyOp19
 70
     1
102
RTVSPropertyOp20
 70
     1
102
RTVSPropertyOp21
 70
     1
102
RTVSPropertyOp22
 70
     1
102
RTVSPropertyOp23
 70
     1
102
RTVSPropertyOp24
 70
     1
102
RTVSPropertyOp25
 70
     1
102
RTVSPropertyOp26
 70
     1
102
RTVSPropertyOp27
 70
     1
102
RTVSPropertyOp28
 70
     1
102
RTVSPropertyOp29
 70
     1
102
RTVSPropertyOp30
 70
     1
102
RTVSPropertyOp31
 70
     1
102
RTVSPropertyOp32
 70
     1
102
RTVSPropertyOp33
 70
     1
102
RTVSPropertyOp34
 70
     1
102
RTVSPropertyOp35
 70
     1
102
RTVSPropertyOp36
 70
     1
102
RTVSPropertyOp37
 70
     1
102
RTVSPropertyOp38
 70
     1
102
RTVSPropertyOp39
 70
     1
102
RTVSPropertyOp40
 70
     1
102
RTVSPropertyOp41
 70
     1
102
RTVSPropertyOp42
 70
     1
102
RTVSPropertyOp43
 70
     1
102
RTVSPropertyOp44
 70
     1
102
RTVSPropertyOp45
 70
     1
102
RTVSPropertyOp46
 70
     1
102
RTVSPropertyOp47
 70
     1
102
RTVSPropertyOp48
 70
     1
102
RTVSPropertyOp49
 70
     1
102
RTVSPropertyOp50
 70
     1
102
RTVSPropertyOp51
 70
     0
102
RTVSPropertyOp52
 70
     0
102
RTVSPropertyOp53
 70
     1
102
RTVSPropertyOp54
 70
     1
102
RTVSPropertyOp55
 70
     1
102
RTVSPropertyOp56
 70
     1
102
RTVSPropertyOp57
 70
     1
102
RTVSPropertyOp58
 70
     1
102
RTVSPropertyOp59
 70
     1
102
RTVSPropertyOp60
 70
     1
102
RTVSPropertyOp61
 70
     1
102
RTVSPropertyOp62
 70
     1
  0
XRECORD
  5
2499
102
{ACAD_REACTORS
330
2498
102
}
330
2498
100
AcDbXrecord
280
     1
102
RTVSPost2010Prop28
280
     0
102
RTVSPost2010PropOp28
 70
     1
102
RTVSPost2010Prop29
280
     1
102
RTVSPost2010PropOp29
 70
     1
102
RTVSPost2010Prop30
280
     1
102
RTVSPost2010PropOp30
 70
     1
102
RTVSPost2010Prop31
280
     0
102
RTVSPost2010PropOp31
 70
     1
102
RTVSPost2010Prop32
280
     0
102
RTVSPost2010PropOp32
 70
     1
102
RTVSPost2010Prop33
280
     0
102
RTVSPost2010PropOp33
 70
     1
102
RTVSPost2010Prop34
280
     0
102
RTVSPost2010PropOp34
 70
     1
102
RTVSPost2010Prop35
280
     0
102
RTVSPost2010PropOp35
 70
     1
102
RTVSPost2010Prop36
280
     0
102
RTVSPost2010PropOp36
 70
     1
102
RTVSPost2010Prop37
 90
       50
102
RTVSPost2010PropOp37
 70
     1
102
RTVSPost2010Prop38
140
0.0
102
RTVSPost2010PropOp38
 70
     1
102
RTVSPost2010Prop39
140
1.0
102
RTVSPost2010PropOp39
 70
     1
102
RTVSPost2010Prop40
 90
        0
102
RTVSPost2010PropOp40
 70
     1
102
RTVSPost2010Prop41ColorIndex
 90
       18
102
RTVSPost2010Prop41ColorRGB
 90
        0
102
RTVSPost2010PropOp41
 70
     1
102
RTVSPost2010Prop42
 90
       50
102
RTVSPost2010PropOp42
 70
     1
102
RTVSPost2010Prop43
 90
        3
102
RTVSPost2010PropOp43
 70
     1
102
RTVSPost2010Prop44ColorIndex
 90
        5
102
RTVSPost2010Prop44ColorRGB
 90
      255
102
RTVSPost2010PropOp44
 70
     1
102
RTVSPost2010Prop45
280
     0
102
RTVSPost2010PropOp45
 70
     1
102
RTVSPost2010Prop46
 90
       50
102
RTVSPost2010PropOp46
 70
     1
102
RTVSPost2010Prop47
 90
       50
102
RTVSPost2010PropOp47
 70
     1
102
RTVSPost2010Prop48
 90
       50
102
RTVSPost2010PropOp48
 70
     1
102
RTVSPost2010Prop49
280
     0
102
RTVSPost2010PropOp49
 70
     1
102
RTVSPost2010Prop50
 90
       50
102
RTVSPost2010PropOp50
 70
     1
102
RTVSPost2010Prop51ColorIndex
 90
      256
102
RTVSPost2010Prop51ColorRGB
 90
-16777216
102
RTVSPost2010PropOp51
 70
     0
102
RTVSPost2010Prop52
140
1.0
102
RTVSPost2010PropOp52
 70
     0
102
RTVSPost2010Prop53
 90
        2
102
RTVSPost2010PropOp53
 70
     1
102
RTVSPost2010Prop54
  1
strokes_ogs.tif
102
RTVSPost2010PropOp54
 70
     1
102
RTVSPost2010Prop55
280
     0
102
RTVSPost2010PropOp55
 70
     1
102
RTVSPost2010Prop56
140
1.0
102
RTVSPost2010PropOp56
 70
     1
102
RTVSPost2010Prop57
140
1.0
102
RTVSPost2010PropOp57
 70
     1
102
RTVSPropertyOp0
 70
     1
102
RTVSPropertyOp1
 70
     1
102
RTVSPropertyOp2
 70
     1
102
RTVSPropertyOp3
 70
     1
102
RTVSPropertyOp4
 70
     1
102
RTVSPropertyOp5
 70
     1
102
RTVSPropertyOp6
 70
     1
102
RTVSPropertyOp7
 70
     1
102
RTVSPropertyOp8
 70
     1
102
RTVSPropertyOp9
 70
     1
102
RTVSPropertyOp10
 70
     1
102
RTVSPropertyOp11
 70
     1
102
RTVSPropertyOp12
 70
     1
102
RTVSPropertyOp13
 70
     1
102
RTVSPropertyOp14
 70
     1
102
RTVSPropertyOp15
 70
     1
102
RTVSPropertyOp16
 70
     1
102
RTVSPropertyOp17
 70
     1
102
RTVSPropertyOp18
 70
     1
102
RTVSPropertyOp19
 70
     1
102
RTVSPropertyOp20
 70
     1
102
RTVSPropertyOp21
 70
     1
102
RTVSPropertyOp22
 70
     1
102
RTVSPropertyOp23
 70
     1
102
RTVSPropertyOp24
 70
     1
102
RTVSPropertyOp25
 70
     1
102
RTVSPropertyOp26
 70
     1
102
RTVSPropertyOp27
 70
     1
102
RTVSPropertyOp28
 70
     1
102
RTVSPropertyOp29
 70
     1
102
RTVSPropertyOp30
 70
     1
102
RTVSPropertyOp31
 70
     1
102
RTVSPropertyOp32
 70
     1
102
RTVSPropertyOp33
 70
     1
102
RTVSPropertyOp34
 70
     1
102
RTVSPropertyOp35
 70
     1
102
RTVSPropertyOp36
 70
     1
102
RTVSPropertyOp37
 70
     1
102
RTVSPropertyOp38
 70
     1
102
RTVSPropertyOp39
 70
     1
102
RTVSPropertyOp40
 70
     1
102
RTVSPropertyOp41
 70
     1
102
RTVSPropertyOp42
 70
     1
102
RTVSPropertyOp43
 70
     1
102
RTVSPropertyOp44
 70
     1
102
RTVSPropertyOp45
 70
     1
102
RTVSPropertyOp46
 70
     1
102
RTVSPropertyOp47
 70
     1
102
RTVSPropertyOp48
 70
     1
102
RTVSPropertyOp49
 70
     1
102
RTVSPropertyOp50
 70
     1
102
RTVSPropertyOp51
 70
     0
102
RTVSPropertyOp52
 70
     0
102
RTVSPropertyOp53
 70
     1
102
RTVSPropertyOp54
 70
     1
102
RTVSPropertyOp55
 70
     1
102
RTVSPropertyOp56
 70
     1
102
RTVSPropertyOp57
 70
     1
102
RTVSPropertyOp58
 70
     1
102
RTVSPropertyOp59
 70
     1
102
RTVSPropertyOp60
 70
     1
102
RTVSPropertyOp61
 70
     1
102
RTVSPropertyOp62
 70
     1
  0
XRECORD
  5
24B9
102
{ACAD_REACTORS
330
24B8
102
}
330
24B8
100
AcDbXrecord
280
     1
102
RTVSPost2010Prop28
280
     0
102
RTVSPost2010PropOp28
 70
     1
102
RTVSPost2010Prop29
280
     1
102
RTVSPost2010PropOp29
 70
     1
102
RTVSPost2010Prop30
280
     1
102
RTVSPost2010PropOp30
 70
     1
102
RTVSPost2010Prop31
280
     0
102
RTVSPost2010PropOp31
 70
     1
102
RTVSPost2010Prop32
280
     0
102
RTVSPost2010PropOp32
 70
     1
102
RTVSPost2010Prop33
280
     0
102
RTVSPost2010PropOp33
 70
     1
102
RTVSPost2010Prop34
280
     0
102
RTVSPost2010PropOp34
 70
     1
102
RTVSPost2010Prop35
280
     0
102
RTVSPost2010PropOp35
 70
     1
102
RTVSPost2010Prop36
280
     0
102
RTVSPost2010PropOp36
 70
     1
102
RTVSPost2010Prop37
 90
       50
102
RTVSPost2010PropOp37
 70
     1
102
RTVSPost2010Prop38
140
0.0
102
RTVSPost2010PropOp38
 70
     1
102
RTVSPost2010Prop39
140
1.0
102
RTVSPost2010PropOp39
 70
     1
102
RTVSPost2010Prop40
 90
        0
102
RTVSPost2010PropOp40
 70
     1
102
RTVSPost2010Prop41ColorIndex
 90
       18
102
RTVSPost2010Prop41ColorRGB
 90
        0
102
RTVSPost2010PropOp41
 70
     1
102
RTVSPost2010Prop42
 90
       50
102
RTVSPost2010PropOp42
 70
     1
102
RTVSPost2010Prop43
 90
        3
102
RTVSPost2010PropOp43
 70
     1
102
RTVSPost2010Prop44ColorIndex
 90
        5
102
RTVSPost2010Prop44ColorRGB
 90
      255
102
RTVSPost2010PropOp44
 70
     1
102
RTVSPost2010Prop45
280
     0
102
RTVSPost2010PropOp45
 70
     1
102
RTVSPost2010Prop46
 90
       50
102
RTVSPost2010PropOp46
 70
     1
102
RTVSPost2010Prop47
 90
       50
102
RTVSPost2010PropOp47
 70
     1
102
RTVSPost2010Prop48
 90
       50
102
RTVSPost2010PropOp48
 70
     1
102
RTVSPost2010Prop49
280
     0
102
RTVSPost2010PropOp49
 70
     1
102
RTVSPost2010Prop50
 90
       50
102
RTVSPost2010PropOp50
 70
     1
102
RTVSPost2010Prop51ColorIndex
 90
      256
102
RTVSPost2010Prop51ColorRGB
 90
-16777216
102
RTVSPost2010PropOp51
 70
     0
102
RTVSPost2010Prop52
140
1.0
102
RTVSPost2010PropOp52
 70
     0
102
RTVSPost2010Prop53
 90
        2
102
RTVSPost2010PropOp53
 70
     1
102
RTVSPost2010Prop54
  1
strokes_ogs.tif
102
RTVSPost2010PropOp54
 70
     1
102
RTVSPost2010Prop55
280
     0
102
RTVSPost2010PropOp55
 70
     1
102
RTVSPost2010Prop56
140
1.0
102
RTVSPost2010PropOp56
 70
     1
102
RTVSPost2010Prop57
140
1.0
102
RTVSPost2010PropOp57
 70
     1
102
RTVSPropertyOp0
 70
     1
102
RTVSPropertyOp1
 70
     1
102
RTVSPropertyOp2
 70
     1
102
RTVSPropertyOp3
 70
     1
102
RTVSPropertyOp4
 70
     1
102
RTVSPropertyOp5
 70
     1
102
RTVSPropertyOp6
 70
     1
102
RTVSPropertyOp7
 70
     1
102
RTVSPropertyOp8
 70
     1
102
RTVSPropertyOp9
 70
     1
102
RTVSPropertyOp10
 70
     1
102
RTVSPropertyOp11
 70
     1
102
RTVSPropertyOp12
 70
     1
102
RTVSPropertyOp13
 70
     1
102
RTVSPropertyOp14
 70
     1
102
RTVSPropertyOp15
 70
     1
102
RTVSPropertyOp16
 70
     1
102
RTVSPropertyOp17
 70
     1
102
RTVSPropertyOp18
 70
     1
102
RTVSPropertyOp19
 70
     1
102
RTVSPropertyOp20
 70
     1
102
RTVSPropertyOp21
 70
     1
102
RTVSPropertyOp22
 70
     1
102
RTVSPropertyOp23
 70
     1
102
RTVSPropertyOp24
 70
     1
102
RTVSPropertyOp25
 70
     1
102
RTVSPropertyOp26
 70
     1
102
RTVSPropertyOp27
 70
     1
102
RTVSPropertyOp28
 70
     1
102
RTVSPropertyOp29
 70
     1
102
RTVSPropertyOp30
 70
     1
102
RTVSPropertyOp31
 70
     1
102
RTVSPropertyOp32
 70
     1
102
RTVSPropertyOp33
 70
     1
102
RTVSPropertyOp34
 70
     1
102
RTVSPropertyOp35
 70
     1
102
RTVSPropertyOp36
 70
     1
102
RTVSPropertyOp37
 70
     1
102
RTVSPropertyOp38
 70
     1
102
RTVSPropertyOp39
 70
     1
102
RTVSPropertyOp40
 70
     1
102
RTVSPropertyOp41
 70
     1
102
RTVSPropertyOp42
 70
     1
102
RTVSPropertyOp43
 70
     1
102
RTVSPropertyOp44
 70
     1
102
RTVSPropertyOp45
 70
     1
102
RTVSPropertyOp46
 70
     1
102
RTVSPropertyOp47
 70
     1
102
RTVSPropertyOp48
 70
     1
102
RTVSPropertyOp49
 70
     1
102
RTVSPropertyOp50
 70
     1
102
RTVSPropertyOp51
 70
     0
102
RTVSPropertyOp52
 70
     0
102
RTVSPropertyOp53
 70
     1
102
RTVSPropertyOp54
 70
     1
102
RTVSPropertyOp55
 70
     1
102
RTVSPropertyOp56
 70
     1
102
RTVSPropertyOp57
 70
     1
102
RTVSPropertyOp58
 70
     1
102
RTVSPropertyOp59
 70
     1
102
RTVSPropertyOp60
 70
     1
102
RTVSPropertyOp61
 70
     1
102
RTVSPropertyOp62
 70
     1
  0
ENDSEC
  0
EOF
